  0
SECTION
  2
HEADER
  9
$ACADVER
  1
AC1015
  9
$ACADMAINTVER
 70
     6
  9
$DWGCODEPAGE
  3
DOS850
  9
$INSBASE
 10
0.0
 20
0.0
 30
0.0
  9
$EXTMIN
 10
-110.514
 20
-67.7438
 30
1.000000E+20
  9
$EXTMAX
 10
-14.5216
 20
82.2216
 30
-1.000000E+20
  9
$LIMMIN
 10
0.0
 20
0.0
  9
$LIMMAX
 10
0.0
 20
0.0
  9
$ORTHOMODE
 70
     0
  9
$REGENMODE
 70
     1
  9
$FILLMODE
 70
     1
  9
$QTEXTMODE
 70
     0
  9
$MIRRTEXT
 70
     1
  9
$LTSCALE
 40
1.0
  9
$ATTMODE
 70
     1
  9
$TEXTSIZE
 40
0.2
  9
$TRACEWID
 40
0.05
  9
$TEXTSTYLE
  7
Standard
  9
$CLAYER
  8
0
  9
$CELTYPE
  6
Continuous
  9
$CECOLOR
 62
   256
  9
$CELTSCALE
 40
1.0
  9
$DISPSILH
 70
     0
  9
$DIMSCALE
 40
1.0
  9
$DIMASZ
 40
0.18
  9
$DIMEXO
 40
0.0625
  9
$DIMDLI
 40
0.38
  9
$DIMRND
 40
0.0
  9
$DIMDLE
 40
0.0
  9
$DIMEXE
 40
0.18
  9
$DIMTP
 40
0.0
  9
$DIMTM
 40
0.0
  9
$DIMTXT
 40
0.18
  9
$DIMCEN
 40
0.09
  9
$DIMTSZ
 40
0.0
  9
$DIMTOL
 70
     0
  9
$DIMLIM
 70
     0
  9
$DIMTIH
 70
     1
  9
$DIMTOH
 70
     1
  9
$DIMSE1
 70
     0
  9
$DIMSE2
 70
     0
  9
$DIMTAD
 70
     0
  9
$DIMZIN
 70
     0
  9
$DIMBLK
  1

  9
$DIMASO
 70
     1
  9
$DIMSHO
 70
     1
  9
$DIMPOST
  1

  9
$DIMAPOST
  1

  9
$DIMALT
 70
     0
  9
$DIMALTD
 70
     2
  9
$DIMALTF
 40
25.4
  9
$DIMLFAC
 40
1.0
  9
$DIMTOFL
 70
     0
  9
$DIMTVP
 40
0.0
  9
$DIMTIX
 70
     0
  9
$DIMSOXD
 70
     0
  9
$DIMSAH
 70
     0
  9
$DIMBLK1
  1

  9
$DIMBLK2
  1

  9
$DIMSTYLE
  2
Standard
  9
$DIMCLRD
 70
     0
  9
$DIMCLRE
 70
     0
  9
$DIMCLRT
 70
     0
  9
$DIMTFAC
 40
1.0
  9
$DIMGAP
 40
0.09
  9
$DIMJUST
 70
     0
  9
$DIMSD1
 70
     0
  9
$DIMSD2
 70
     0
  9
$DIMTOLJ
 70
     1
  9
$DIMTZIN
 70
     0
  9
$DIMALTZ
 70
     0
  9
$DIMALTTZ
 70
     0
  9
$DIMUPT
 70
     0
  9
$DIMDEC
 70
     4
  9
$DIMTDEC
 70
     4
  9
$DIMALTU
 70
     2
  9
$DIMALTTD
 70
     2
  9
$DIMTXSTY
  7
Standard
  9
$DIMAUNIT
 70
     0
  9
$DIMADEC
 70
     0
  9
$DIMALTRND
 40
0.0
  9
$DIMAZIN
 70
     0
  9
$DIMDSEP
 70
     0
  9
$DIMATFIT
 70
     3
  9
$DIMFRAC
 70
     0
  9
$DIMLDRBLK
  1

  9
$DIMLUNIT
 70
     2
  9
$DIMLWD
 70
     0
  9
$DIMLWE
 70
     0
  9
$DIMTMOVE
 70
     0
  9
$LUNITS
 70
     2
  9
$LUPREC
 70
     4
  9
$SKETCHINC
 40
0.1
  9
$FILLETRAD
 40
0.0
  9
$AUNITS
 70
     0
  9
$AUPREC
 70
     0
  9
$MENU
  1
acad
  9
$ELEVATION
 40
0.0
  9
$PELEVATION
 40
0.0
  9
$THICKNESS
 40
0.0
  9
$LIMCHECK
 70
     0
  9
$CHAMFERA
 40
0.0
  9
$CHAMFERB
 40
0.0
  9
$CHAMFERC
 40
0.0
  9
$CHAMFERD
 40
0.0
  9
$SKPOLY
 70
     0
  9
$TDCREATE
 40
0.000000000
  9
$TDUCREATE
 40
0.000000000
  9
$TDUPDATE
 40
0.000000000
  9
$TDUUPDATE
 40
0.000000000
  9
$TDINDWG
 40
0.0000000000
  9
$TDUSRTIMER
 40
0.0000000000
  9
$USRTIMER
 70
     1
  9
$ANGBASE
 50
0.0
  9
$ANGDIR
 70
     0
  9
$PDMODE
 70
     0
  9
$PDSIZE
 40
0.0
  9
$PLINEWID
 40
0.0
  9
$SPLFRAME
 70
     0
  9
$SPLINETYPE
 70
     6
  9
$SPLINESEGS
 70
     8
  9
$HANDSEED
  5
21B
  9
$SURFTAB1
 70
     6
  9
$SURFTAB2
 70
     6
  9
$SURFTYPE
 70
     6
  9
$SURFU
 70
     6
  9
$SURFV
 70
     6
  9
$UCSBASE
  2

  9
$UCSNAME
  2

  9
$UCSORG
 10
0.0
 20
0.0
 30
0.0
  9
$UCSXDIR
 10
1.0
 20
0.0
 30
0.0
  9
$UCSYDIR
 10
0.0
 20
1.0
 30
0.0
  9
$UCSORTHOREF
  2

  9
$UCSORTHOVIEW
 70
     0
  9
$UCSORGTOP
 10
0.0
 20
0.0
 30
0.0
  9
$UCSORGBOTTOM
 10
0.0
 20
0.0
 30
0.0
  9
$UCSORGLEFT
 10
0.0
 20
0.0
 30
0.0
  9
$UCSORGRIGHT
 10
0.0
 20
0.0
 30
0.0
  9
$UCSORGFRONT
 10
0.0
 20
0.0
 30
0.0
  9
$UCSORGBACK
 10
0.0
 20
0.0
 30
0.0
  9
$PUCSBASE
  2

  9
$PUCSNAME
  2

  9
$PUCSORG
 10
0.0
 20
0.0
 30
0.0
  9
$PUCSXDIR
 10
1.0
 20
0.0
 30
0.0
  9
$PUCSYDIR
 10
0.0
 20
1.0
 30
0.0
  9
$PUCSORTHOREF
  2

  9
$PUCSORTHOVIEW
 70
     0
  9
$PUCSORGTOP
 10
0.0
 20
0.0
 30
0.0
  9
$PUCSORGBOTTOM
 10
0.0
 20
0.0
 30
0.0
  9
$PUCSORGLEFT
 10
0.0
 20
0.0
 30
0.0
  9
$PUCSORGRIGHT
 10
0.0
 20
0.0
 30
0.0
  9
$PUCSORGFRONT
 10
0.0
 20
0.0
 30
0.0
  9
$PUCSORGBACK
 10
0.0
 20
0.0
 30
0.0
  9
$USERI1
 70
     0
  9
$USERI2
 70
     0
  9
$USERI3
 70
     0
  9
$USERI4
 70
     0
  9
$USERI5
 70
     0
  9
$USERR1
 40
0.0
  9
$USERR2
 40
0.0
  9
$USERR3
 40
0.0
  9
$USERR4
 40
0.0
  9
$USERR5
 40
0.0
  9
$WORLDVIEW
 70
     1
  9
$SHADEDGE
 70
     3
  9
$SHADEDIF
 70
    70
  9
$TILEMODE
 70
     1
  9
$MAXACTVP
 70
    16
  9
$PINSBASE
 10
0.0
 20
0.0
 30
0.0
  9
$PLIMCHECK
 70
     0
  9
$PEXTMIN
 10
1.000000E+20
 20
1.000000E+20
 30
1.000000E+20
  9
$PEXTMAX
 10
-1.000000E+20
 20
-1.000000E+20
 30
-1.000000E+20
  9
$PLIMMIN
 10
0.0
 20
0.0
  9
$PLIMMAX
 10
12.0
 20
9.0
  9
$UNITMODE
 70
     0
  9
$VISRETAIN
 70
     0
  9
$PLINEGEN
 70
     1
  9
$PSLTSCALE
 70
     0
  9
$TREEDEPTH
 70
  3020
  9
$CMLSTYLE
  2
Standard
  9
$CMLJUST
 70
     0
  9
$CMLSCALE
 40
1.0
  9
$PROXYGRAPHICS
 70
     0
  9
$MEASUREMENT
 70
     0
  9
$CELWEIGHT
370
     0
  9
$ENDCAPS
280
     0
  9
$JOINSTYLE
280
     0
  9
$LWDISPLAY
290
     0
  9
$INSUNITS
 70
     4
  9
$HYPERLINKBASE
  1

  9
$XEDIT
290
     1
  9
$CEPSNTYPE
380
     0
  9
$PSTYLEMODE
290
     1
  9
$FINGERPRINTGUID
  2

  9
$VERSIONGUID
  2

  9
$EXTNAMES
290
     1
  9
$PSVPSCALE
 40
0.0
  0
ENDSEC
  0
SECTION
  2
CLASSES
  0
CLASS
  1
LWPOLYLINE
  2
AcDbPolyline
  3
AutoCAD 2000
 90
    32768
280
     0
281
     1
  0
CLASS
  1
IMAGE
  2
AcDbRasterImage
  3
ISM
 90
    32895
280
     0
281
     1
  0
CLASS
  1
OLE2FRAME
  2
AcDbOle2Frame
  3
AutoCAD 2000
 90
    32768
280
     0
281
     1
  0
CLASS
  1
HATCH
  2
AcDbHatch
  3
AutoCAD 2000
 90
    32768
280
     0
281
     1
  0
CLASS
  1
DICTIONARYVAR
  2
AcDbDictionaryVar
  3
AutoCAD 2000
 90
    32768
280
     0
281
     0
  0
CLASS
  1
RASTERVARIABLES
  2
AcDbRasterVariables
  3
ISM
 90
    32768
280
     0
281
     0
  0
CLASS
  1
IMAGEDEF
  2
AcDbRasterImageDef
  3
ISM
 90
    32768
280
     0
281
     0
  0
CLASS
  1
IMAGEDEF_REACTOR
  2
AcDbRasterImageDefReactor
  3
ISM
 90
    32769
280
     0
281
     0
  0
CLASS
  1
IDBUFFER
  2
AcDbIdBuffer
  3
AutoCAD 2000
 90
    32768
280
     0
281
     0
  0
CLASS
  1
SPATIAL_FILTER
  2
AcDbSpatialFilter
  3
AutoCAD 2000
 90
    32768
280
     0
281
     0
  0
CLASS
  1
XRECORD
  2
AcDbXrecord
  3
AutoCAD 2000
 90
    32768
280
     0
281
     0
  0
CLASS
  1
SORTENTSTABLE
  2
AcDbSortentsTable
  3
AutoCAD 2000
 90
    32768
280
     0
281
     0
  0
CLASS
  1
LAYER_INDEX
  2
AcDbLayerIndex
  3
AutoCAD 2000
 90
    32768
280
     0
281
     0
  0
CLASS
  1
SPATIAL_INDEX
  2
AcDbSpatialIndex
  3
AutoCAD 2000
 90
    32768
280
     0
281
     0
  0
CLASS
  1
OBJECT_PTR
  2
CAseDLPNTableRecord
  3
"ASE-LPNTableRecord"
 90
    32769
280
     0
281
     0
  0
CLASS
  1
LAYOUT
  2
AcDbLayout
  3
AutoCAD 2000
 90
        0
280
     0
281
     0
  0
CLASS
  1
PLOTSETTINGS
  2
AcDbPlotSettings
  3
AutoCAD 2000
 90
    32768
280
     0
281
     0
  0
CLASS
  1
ACDBDICTIONARYWDFLT
  2
AcDbDictionaryWithDefault
  3
AutoCAD 2000
 90
        0
280
     0
281
     0
  0
CLASS
  1
ACDBPLACEHOLDER
  2
AcDbPlaceHolder
  3
AutoCAD 2000
 90
        0
280
     0
281
     0
  0
CLASS
  1
VBA_PROJECT
  2
AcDbVbaProject
  3
acadvba
 90
    32768
280
     0
281
     0
  0
CLASS
  1
WIPEOUT
  2
AcDbWipeout
  3
WipeOut|AutoCAD Express Tool|expresstools@autodesk.com
 90
    32895
280
     0
281
     1
  0
CLASS
  1
WIPEOUTVARIABLES
  2
AcDbWipeoutVariables
  3
WipeOut|AutoCAD Express Tool|expresstools@autodesk.com
 90
        0
280
     0
281
     0
  0
CLASS
  1
RTEXT
  2
RText
  3
RText|AutoCAD Express Tool|expresstools@autodesk.com
 90
    32768
280
     0
281
     1
  0
CLASS
  1
ARCALIGNEDTEXT
  2
AcDbArcAlignedText
  3
ATEXT|AutoCAD Express Tool|expresstools@autodesk.com
 90
    32768
280
     0
281
     1
  0
ENDSEC
  0
SECTION
  2
TABLES
  0
TABLE
  2
VPORT
  5
7
100
AcDbSymbolTable
 70
     1
  0
VPORT
  5
15
100
AcDbSymbolTableRecord
100
AcDbViewportTableRecord
  2
*ACTIVE
 70
     0
 10
0.0
 20
0.0
 11
1.0
 21
1.0
 12
6.591288
 22
4.579184
 13
0.0
 23
0.0
 14
1.0
 24
1.0
 15
0.0
 25
0.0
 16
0.0
 26
0.0
 36
1.0
 17
0.0
 27
0.0
 37
0.0
 40
9.158369
 41
0.688564
 42
50.0
 43
0.0
 44
0.0
 50
0.0
 51
0.0
 71
     0
 72
   100
 73
     1
 74
     1
 75
     0
 76
     0
 77
     0
 78
     0
281
     0
 65
     0
110
0.0
120
0.0
130
0.0
111
1.0
121
0.0
131
0.0
112
0.0
122
1.0
132
0.0
345
0
346
0
 79
     0
146
0.0
  0
ENDTAB
  0
TABLE
  2
LTYPE
  5
4
100
AcDbSymbolTable
 70
     5
  0
LTYPE
  5
11
100
AcDbSymbolTableRecord
100
AcDbLinetypeTableRecord
  2
ByBlock
 70
    64
  3

 72
    65
 73
     0
 40
0.0
  0
LTYPE
  5
12
100
AcDbSymbolTableRecord
100
AcDbLinetypeTableRecord
  2
ByLayer
 70
    64
  3

 72
    65
 73
     0
 40
0.0
  0
LTYPE
  5
13
100
AcDbSymbolTableRecord
100
AcDbLinetypeTableRecord
  2
Continuous
 70
    64
  3
Solid line
 72
    65
 73
     0
 40
0.0
  0
LTYPE
  5
7A
100
AcDbSymbolTableRecord
100
AcDbLinetypeTableRecord
  2
New Line1
 70
    65
  3

 72
    64
 73
     4
 40
1.2
 49
0.5
 74
     0
 49
-0.3
 74
     0
 49
0.1
 74
     0
 49
-0.3
 74
     0
  0
LTYPE
  5
88
100
AcDbSymbolTableRecord
100
AcDbLinetypeTableRecord
  2
New Line2
 70
    65
  3

 72
    64
 73
     4
 40
1.2
 49
0.5
 74
     0
 49
-0.3
 74
     0
 49
0.1
 74
     0
 49
-0.3
 74
     0
  0
ENDTAB
  0
TABLE
  2
LAYER
  5
2
100
AcDbSymbolTable
 70
     8
  0
LAYER
  5
14
100
AcDbSymbolTableRecord
100
AcDbLayerTableRecord
  2
0
 70
     0
 62
     7
  6
Continuous
290
     1
370
    -3
390
1D
  0
LAYER
  5
24
100
AcDbSymbolTableRecord
100
AcDbLayerTableRecord
  2
Ebene 1
 70
     0
 62
     7
  6
Continuous
290
     1
370
    -3
390
1F
  0
LAYER
  5
38
100
AcDbSymbolTableRecord
100
AcDbLayerTableRecord
  2
LC-001-002-----0
 70
     0
 62
     7
  6
Continuous
290
     1
370
    -3
390
1F
  0
LAYER
  5
A2
100
AcDbSymbolTableRecord
100
AcDbLayerTableRecord
  2
LC-002-000-----0
 70
     0
 62
     7
  6
Continuous
290
     1
370
    -3
390
1F
  0
LAYER
  5
B1
100
AcDbSymbolTableRecord
100
AcDbLayerTableRecord
  2
LC-003-001-----0
 70
     0
 62
     7
  6
Continuous
290
     1
370
    -3
390
1F
  0
LAYER
  5
BA
100
AcDbSymbolTableRecord
100
AcDbLayerTableRecord
  2
LC-004-005-----0
 70
     0
 62
     7
  6
Continuous
290
     1
370
    -3
390
1F
  0
LAYER
  5
1D0
100
AcDbSymbolTableRecord
100
AcDbLayerTableRecord
  2
LC-005-002-RND-0
 70
     0
 62
     7
  6
Continuous
290
     1
370
    -3
390
1F
  0
LAYER
  5
1D7
100
AcDbSymbolTableRecord
100
AcDbLayerTableRecord
  2
LC-007-003-----0
 70
     0
 62
     7
  6
Continuous
290
     1
370
    -3
390
1F
  0
ENDTAB
  0
TABLE
  2
STYLE
  5
3
100
AcDbSymbolTable
 70
     1
  0
STYLE
  5
17
100
AcDbSymbolTableRecord
100
AcDbTextStyleTableRecord
  2
Standard
 70
     0
 40
0.0
 41
1.0
 50
0.0
 71
     0
 42
0.0
  3
txt
  4

  0
ENDTAB
  0
TABLE
  2
VIEW
  5
5
100
AcDbSymbolTable
 70
     0
  0
ENDTAB
  0
TABLE
  2
UCS
  5
6
100
AcDbSymbolTable
 70
     0
  0
ENDTAB
  0
TABLE
  2
APPID
  5
8
100
AcDbSymbolTable
 70
     1
  0
APPID
  5
16
100
AcDbSymbolTableRecord
100
AcDbRegAppTableRecord
  2
ACAD
 70
     0
  0
ENDTAB
  0
TABLE
  2
DIMSTYLE
  5
9
100
AcDbSymbolTable
 70
     1
100
AcDbDimStyleTable
 71
     0
  0
DIMSTYLE
105
18
100
AcDbSymbolTableRecord
100
AcDbDimStyleTableRecord
  2
Standard
 70
     0
  3

  4

 40
1.0
 41
0.18
 42
0.0625
 43
0.38
 44
0.18
 45
0.0
 46
0.0
 47
0.0
 48
0.0
 71
     0
 72
     0
 73
     1
 74
     1
 75
     0
 76
     0
 77
     0
 78
     0
 79
     0
140
0.18
141
0.09
142
0.0
143
25.4
144
1.0
145
0.0
146
1.0
147
0.09
148
0.0
170
     0
171
     2
172
     0
173
     0
174
     0
175
     0
176
     0
177
     0
178
     0
179
     0
271
     4
272
     4
273
     2
274
     2
275
     0
276
     0
277
     2
278
    46
279
     0
280
     0
281
     0
282
     0
283
     1
284
     0
285
     0
286
     0
288
     0
340
17
341
0
342
0
343
0
344
0
371
    -2
372
    -2
  0
ENDTAB
  0
TABLE
  2
BLOCK_RECORD
  5
1
100
AcDbSymbolTable
 70
     0
  0
BLOCK_RECORD
  5
A
100
AcDbSymbolTableRecord
100
AcDbBlockTableRecord
  2
*MODEL_SPACE
340
20
  0
BLOCK_RECORD
  5
B
100
AcDbSymbolTableRecord
100
AcDbBlockTableRecord
  2
*PAPER_SPACE
340
21
  0
ENDTAB
  0
ENDSEC
  0
SECTION
  2
BLOCKS
  0
BLOCK
  5
D
100
AcDbEntity
  8
0
100
AcDbBlockBegin
  2
*MODEL_SPACE
 70
     0
 10
0.0
 20
0.0
 30
0.0
  3
*MODEL_SPACE
  1

  0
ENDBLK
  5
E
100
AcDbEntity
  8
0
100
AcDbBlockEnd
  0
BLOCK
  5
F
100
AcDbEntity
 67
     1
  8
0
100
AcDbBlockBegin
  2
*PAPER_SPACE
 70
     0
 10
0.0
 20
0.0
 30
0.0
  3
*PAPER_SPACE
  1

  0
ENDBLK
  5
10
100
AcDbEntity
 67
     1
  8
0
100
AcDbBlockEnd
  0
ENDSEC
  0
SECTION
  2
ENTITIES
  0
SPLINE
  5
25
100
AcDbEntity
  8
Ebene 1
100
AcDbSpline
210
0.0
220
0.0
230
1.0
 70
     1
 71
     3
 72
    52
 73
    48
 74
     0
 42
0.0000000001
 43
0.0000000001
 40
0.0
 40
0.0
 40
0.0
 40
0.0
 40
0.0833333333333333
 40
0.0833333333333333
 40
0.0833333333333333
 40
0.0833333333333333
 40
0.1666666666666667
 40
0.1666666666666667
 40
0.1666666666666667
 40
0.1666666666666667
 40
0.25
 40
0.25
 40
0.25
 40
0.25
 40
0.3333333333333333
 40
0.3333333333333333
 40
0.3333333333333333
 40
0.3333333333333333
 40
0.4166666666666666
 40
0.4166666666666666
 40
0.4166666666666666
 40
0.4166666666666666
 40
0.4999999999999999
 40
0.4999999999999999
 40
0.4999999999999999
 40
0.4999999999999999
 40
0.5833333333333333
 40
0.5833333333333333
 40
0.5833333333333333
 40
0.5833333333333333
 40
0.6666666666666666
 40
0.6666666666666666
 40
0.6666666666666666
 40
0.6666666666666666
 40
0.75
 40
0.75
 40
0.75
 40
0.75
 40
0.8333333333333334
 40
0.8333333333333334
 40
0.8333333333333334
 40
0.8333333333333334
 40
0.9166666666666667
 40
0.9166666666666667
 40
0.9166666666666667
 40
0.9166666666666667
 40
1.0
 40
1.0
 40
1.0
 40
1.0
 10
-102.66600000000001
 20
0.6198
 30
0.0
 10
-102.66600000000001
 20
0.6198
 30
0.0
 10
-110.4813
 20
2.2502
 30
0.0
 10
-110.4813
 20
2.2502
 30
0.0
 10
-110.4813
 20
2.2502
 30
0.0
 10
-110.4813
 20
2.2502
 30
0.0
 10
-110.4813
 20
4.6066000000000003
 30
0.0
 10
-110.4813
 20
4.6066000000000003
 30
0.0
 10
-110.4813
 20
4.6066000000000003
 30
0.0
 10
-110.4813
 20
5.1725000000000003
 30
0.0
 10
-110.43940000000001
 20
5.6038000000000006
 30
0.0
 10
-110.3593
 20
5.9022000000000006
 30
0.0
 10
-110.3593
 20
5.9022000000000006
 30
0.0
 10
-110.2483
 20
6.3280000000000003
 30
0.0
 10
-110.0518
 20
6.6919000000000004
 30
0.0
 10
-109.7698
 20
6.9958
 30
0.0
 10
-109.7698
 20
6.9958
 30
0.0
 10
-109.4877
 20
7.2978000000000005
 30
0.0
 10
-109.13470000000001
 20
7.5253000000000005
 30
0.0
 10
-108.71080000000001
 20
7.6781000000000006
 30
0.0
 10
-108.71080000000001
 20
7.6781000000000006
 30
0.0
 10
-108.2886
 20
7.8292000000000002
 30
0.0
 10
-107.81370000000001
 20
7.9056000000000006
 30
0.0
 10
-107.2878
 20
7.9056000000000006
 30
0.0
 10
-107.2878
 20
7.9056000000000006
 30
0.0
 10
-106.65820000000001
 20
7.9056000000000006
 30
0.0
 10
-106.08510000000001
 20
7.8109999999999999
 30
0.0
 10
-105.56830000000001
 20
7.6217000000000006
 30
0.0
 10
-105.56830000000001
 20
7.6217000000000006
 30
0.0
 10
-105.0515
 20
7.4307000000000007
 30
0.0
 10
-104.59660000000001
 20
7.1832000000000003
 30
0.0
 10
-104.20360000000001
 20
6.8757000000000001
 30
0.0
 10
-104.20360000000001
 20
6.8757000000000001
 30
0.0
 10
-103.8105
 20
6.5682
 30
0.0
 10
-103.503
 20
6.2461000000000002
 30
0.0
 10
-103.28100000000001
 20
5.9095000000000004
 30
0.0
 10
-103.28100000000001
 20
5.9095000000000004
 30
0.0
 10
-103.05900000000001
 20
5.5747
 30
0.0
 10
-102.89530000000001
 20
5.1762000000000006
 30
0.0
 10
-102.78790000000001
 20
4.7194000000000003
 30
0.0
 10
-102.78790000000001
 20
4.7194000000000003
 30
0.0
 10
-102.706
 20
4.3700999999999999
 30
0.0
 10
-102.66600000000001
 20
3.9425000000000003
 30
0.0
 10
-102.66600000000001
 20
3.4330000000000003
 30
0.0
 10
-102.66600000000001
 20
3.4330000000000003
 30
0.0
 10
-102.66600000000001
 20
3.4330000000000003
 30
0.0
 10
-102.66600000000001
 20
0.6198
 30
0.0
 10
-102.66600000000001
 20
0.6198
 30
0.0
  0
SPLINE
  5
26
100
AcDbEntity
  8
Ebene 1
100
AcDbSpline
210
0.0
220
0.0
230
1.0
 70
     1
 71
     3
 72
    48
 73
    44
 74
     0
 42
0.0000000001
 43
0.0000000001
 40
0.0
 40
0.0
 40
0.0
 40
0.0
 40
0.0909090909090909
 40
0.0909090909090909
 40
0.0909090909090909
 40
0.0909090909090909
 40
0.1818181818181818
 40
0.1818181818181818
 40
0.1818181818181818
 40
0.1818181818181818
 40
0.2727272727272727
 40
0.2727272727272727
 40
0.2727272727272727
 40
0.2727272727272727
 40
0.3636363636363637
 40
0.3636363636363637
 40
0.3636363636363637
 40
0.3636363636363637
 40
0.4545454545454546
 40
0.4545454545454546
 40
0.4545454545454546
 40
0.4545454545454546
 40
0.5454545454545455
 40
0.5454545454545455
 40
0.5454545454545455
 40
0.5454545454545455
 40
0.6363636363636365
 40
0.6363636363636365
 40
0.6363636363636365
 40
0.6363636363636365
 40
0.7272727272727274
 40
0.7272727272727274
 40
0.7272727272727274
 40
0.7272727272727274
 40
0.8181818181818183
 40
0.8181818181818183
 40
0.8181818181818183
 40
0.8181818181818183
 40
0.9090909090909093
 40
0.9090909090909093
 40
0.9090909090909093
 40
0.9090909090909093
 40
1.0
 40
1.0
 40
1.0
 40
1.0
 10
-103.55030000000001
 20
1.8499000000000001
 30
0.0
 10
-103.55030000000001
 20
1.8499000000000001
 30
0.0
 10
-103.55030000000001
 20
3.0872000000000002
 30
0.0
 10
-103.55030000000001
 20
3.0872000000000002
 30
0.0
 10
-103.55030000000001
 20
3.0872000000000002
 30
0.0
 10
-103.55030000000001
 20
3.6459000000000001
 30
0.0
 10
-103.60310000000001
 20
4.1408000000000005
 30
0.0
 10
-103.705
 20
4.5739000000000001
 30
0.0
 10
-103.705
 20
4.5739000000000001
 30
0.0
 10
-103.76870000000001
 20
4.8450000000000006
 30
0.0
 10
-103.86330000000001
 20
5.0761000000000003
 30
0.0
 10
-103.9889
 20
5.2671000000000001
 30
0.0
 10
-103.9889
 20
5.2671000000000001
 30
0.0
 10
-104.1472
 20
5.5201000000000002
 30
0.0
 10
-104.3601
 20
5.7492999999999999
 30
0.0
 10
-104.6221
 20
5.9550000000000001
 30
0.0
 10
-104.6221
 20
5.9550000000000001
 30
0.0
 10
-104.97150000000001
 20
6.2261000000000006
 30
0.0
 10
-105.3681
 20
6.4408000000000003
 30
0.0
 10
-105.8139
 20
6.6027000000000005
 30
0.0
 10
-105.8139
 20
6.6027000000000005
 30
0.0
 10
-106.25970000000001
 20
6.7647000000000004
 30
0.0
 10
-106.76740000000001
 20
6.8447000000000005
 30
0.0
 10
-107.33510000000001
 20
6.8447000000000005
 30
0.0
 10
-107.33510000000001
 20
6.8447000000000005
 30
0.0
 10
-107.9684
 20
6.8447000000000005
 30
0.0
 10
-108.4542
 20
6.7356000000000007
 30
0.0
 10
-108.7945
 20
6.5154000000000005
 30
0.0
 10
-108.7945
 20
6.5154000000000005
 30
0.0
 10
-109.13290000000001
 20
6.2952000000000004
 30
0.0
 10
-109.35860000000001
 20
6.0132000000000003
 30
0.0
 10
-109.46770000000001
 20
5.6729000000000003
 30
0.0
 10
-109.46770000000001
 20
5.6729000000000003
 30
0.0
 10
-109.54960000000001
 20
5.4199999999999999
 30
0.0
 10
-109.59150000000001
 20
5.0269000000000004
 30
0.0
 10
-109.59150000000001
 20
4.4938000000000002
 30
0.0
 10
-109.59150000000001
 20
4.4938000000000002
 30
0.0
 10
-109.59150000000001
 20
4.4938000000000002
 30
0.0
 10
-109.59150000000001
 20
3.1145
 30
0.0
 10
-109.59150000000001
 20
3.1145
 30
0.0
 10
-109.59150000000001
 20
3.1145
 30
0.0
 10
-109.59150000000001
 20
3.1145
 30
0.0
 10
-103.55030000000001
 20
1.8499000000000001
 30
0.0
 10
-103.55030000000001
 20
1.8499000000000001
 30
0.0
  0
SPLINE
  5
27
100
AcDbEntity
  8
Ebene 1
100
AcDbSpline
210
0.0
220
0.0
230
1.0
 70
     1
 71
     3
 72
    64
 73
    60
 74
     0
 42
0.0000000001
 43
0.0000000001
 40
0.0
 40
0.0
 40
0.0
 40
0.0
 40
0.0666666666666667
 40
0.0666666666666667
 40
0.0666666666666667
 40
0.0666666666666667
 40
0.1333333333333333
 40
0.1333333333333333
 40
0.1333333333333333
 40
0.1333333333333333
 40
0.2
 40
0.2
 40
0.2
 40
0.2
 40
0.2666666666666667
 40
0.2666666666666667
 40
0.2666666666666667
 40
0.2666666666666667
 40
0.3333333333333333
 40
0.3333333333333333
 40
0.3333333333333333
 40
0.3333333333333333
 40
0.4
 40
0.4
 40
0.4
 40
0.4
 40
0.4666666666666666
 40
0.4666666666666666
 40
0.4666666666666666
 40
0.4666666666666666
 40
0.5333333333333333
 40
0.5333333333333333
 40
0.5333333333333333
 40
0.5333333333333333
 40
0.6
 40
0.6
 40
0.6
 40
0.6
 40
0.6666666666666666
 40
0.6666666666666666
 40
0.6666666666666666
 40
0.6666666666666666
 40
0.7333333333333333
 40
0.7333333333333333
 40
0.7333333333333333
 40
0.7333333333333333
 40
0.7999999999999999
 40
0.7999999999999999
 40
0.7999999999999999
 40
0.7999999999999999
 40
0.8666666666666666
 40
0.8666666666666666
 40
0.8666666666666666
 40
0.8666666666666666
 40
0.9333333333333332
 40
0.9333333333333332
 40
0.9333333333333332
 40
0.9333333333333332
 40
1.0
 40
1.0
 40
1.0
 40
1.0
 10
-102.66600000000001
 20
8.5515000000000008
 30
0.0
 10
-102.66600000000001
 20
8.5515000000000008
 30
0.0
 10
-110.4813
 20
10.1874
 30
0.0
 10
-110.4813
 20
10.1874
 30
0.0
 10
-110.4813
 20
10.1874
 30
0.0
 10
-110.4813
 20
10.1874
 30
0.0
 10
-110.4813
 20
11.200900000000001
 30
0.0
 10
-110.4813
 20
11.200900000000001
 30
0.0
 10
-110.4813
 20
11.200900000000001
 30
0.0
 10
-110.4813
 20
11.200900000000001
 30
0.0
 10
-107.54990000000001
 20
12.5183
 30
0.0
 10
-107.54990000000001
 20
12.5183
 30
0.0
 10
-107.54990000000001
 20
12.5183
 30
0.0
 10
-106.6528
 20
12.918600000000001
 30
0.0
 10
-105.8995
 20
13.2371
 30
0.0
 10
-105.2881
 20
13.4718
 30
0.0
 10
-105.2881
 20
13.4718
 30
0.0
 10
-104.9332
 20
13.606400000000001
 30
0.0
 10
-104.4529
 20
13.7629
 30
0.0
 10
-103.84880000000001
 20
13.9413
 30
0.0
 10
-103.84880000000001
 20
13.9413
 30
0.0
 10
-104.50750000000001
 20
14.037700000000001
 30
0.0
 10
-105.1862
 20
14.1578
 30
0.0
 10
-105.8867
 20
14.3034
 30
0.0
 10
-105.8867
 20
14.3034
 30
0.0
 10
-105.8867
 20
14.3034
 30
0.0
 10
-110.4813
 20
15.262300000000002
 30
0.0
 10
-110.4813
 20
15.262300000000002
 30
0.0
 10
-110.4813
 20
15.262300000000002
 30
0.0
 10
-110.4813
 20
15.262300000000002
 30
0.0
 10
-110.4813
 20
16.281300000000002
 30
0.0
 10
-110.4813
 20
16.281300000000002
 30
0.0
 10
-110.4813
 20
16.281300000000002
 30
0.0
 10
-110.4813
 20
16.281300000000002
 30
0.0
 10
-102.66600000000001
 20
14.6509
 30
0.0
 10
-102.66600000000001
 20
14.6509
 30
0.0
 10
-102.66600000000001
 20
14.6509
 30
0.0
 10
-102.66600000000001
 20
14.6509
 30
0.0
 10
-102.66600000000001
 20
13.615500000000001
 30
0.0
 10
-102.66600000000001
 20
13.615500000000001
 30
0.0
 10
-102.66600000000001
 20
13.615500000000001
 30
0.0
 10
-102.66600000000001
 20
13.615500000000001
 30
0.0
 10
-107.18050000000001
 20
11.675800000000001
 30
0.0
 10
-107.18050000000001
 20
11.675800000000001
 30
0.0
 10
-107.18050000000001
 20
11.675800000000001
 30
0.0
 10
-107.97750000000001
 20
11.3301
 30
0.0
 10
-108.6798
 20
11.0626
 30
0.0
 10
-109.28760000000001
 20
10.8697
 30
0.0
 10
-109.28760000000001
 20
10.8697
 30
0.0
 10
-108.77810000000001
 20
10.817
 30
0.0
 10
-108.1558
 20
10.7133
 30
0.0
 10
-107.4152
 20
10.560400000000001
 30
0.0
 10
-107.4152
 20
10.560400000000001
 30
0.0
 10
-107.4152
 20
10.560400000000001
 30
0.0
 10
-102.66600000000001
 20
9.5705000000000009
 30
0.0
 10
-102.66600000000001
 20
9.5705000000000009
 30
0.0
 10
-102.66600000000001
 20
9.5705000000000009
 30
0.0
 10
-102.66600000000001
 20
9.5705000000000009
 30
0.0
 10
-102.66600000000001
 20
8.5515000000000008
 30
0.0
 10
-102.66600000000001
 20
8.5515000000000008
 30
0.0
  0
SPLINE
  5
28
100
AcDbEntity
  8
Ebene 1
100
AcDbSpline
210
0.0
220
0.0
230
1.0
 70
     1
 71
     3
 72
   120
 73
   116
 74
     0
 42
0.0000000001
 43
0.0000000001
 40
0.0
 40
0.0
 40
0.0
 40
0.0
 40
0.0344827586206897
 40
0.0344827586206897
 40
0.0344827586206897
 40
0.0344827586206897
 40
0.0689655172413793
 40
0.0689655172413793
 40
0.0689655172413793
 40
0.0689655172413793
 40
0.103448275862069
 40
0.103448275862069
 40
0.103448275862069
 40
0.103448275862069
 40
0.1379310344827586
 40
0.1379310344827586
 40
0.1379310344827586
 40
0.1379310344827586
 40
0.1724137931034483
 40
0.1724137931034483
 40
0.1724137931034483
 40
0.1724137931034483
 40
0.206896551724138
 40
0.206896551724138
 40
0.206896551724138
 40
0.206896551724138
 40
0.2413793103448276
 40
0.2413793103448276
 40
0.2413793103448276
 40
0.2413793103448276
 40
0.2758620689655173
 40
0.2758620689655173
 40
0.2758620689655173
 40
0.2758620689655173
 40
0.310344827586207
 40
0.310344827586207
 40
0.310344827586207
 40
0.310344827586207
 40
0.3448275862068966
 40
0.3448275862068966
 40
0.3448275862068966
 40
0.3448275862068966
 40
0.3793103448275863
 40
0.3793103448275863
 40
0.3793103448275863
 40
0.3793103448275863
 40
0.413793103448276
 40
0.413793103448276
 40
0.413793103448276
 40
0.413793103448276
 40
0.4482758620689656
 40
0.4482758620689656
 40
0.4482758620689656
 40
0.4482758620689656
 40
0.4827586206896553
 40
0.4827586206896553
 40
0.4827586206896553
 40
0.4827586206896553
 40
0.517241379310345
 40
0.517241379310345
 40
0.517241379310345
 40
0.517241379310345
 40
0.5517241379310346
 40
0.5517241379310346
 40
0.5517241379310346
 40
0.5517241379310346
 40
0.5862068965517242
 40
0.5862068965517242
 40
0.5862068965517242
 40
0.5862068965517242
 40
0.6206896551724138
 40
0.6206896551724138
 40
0.6206896551724138
 40
0.6206896551724138
 40
0.6551724137931034
 40
0.6551724137931034
 40
0.6551724137931034
 40
0.6551724137931034
 40
0.689655172413793
 40
0.689655172413793
 40
0.689655172413793
 40
0.689655172413793
 40
0.7241379310344827
 40
0.7241379310344827
 40
0.7241379310344827
 40
0.7241379310344827
 40
0.7586206896551723
 40
0.7586206896551723
 40
0.7586206896551723
 40
0.7586206896551723
 40
0.7931034482758619
 40
0.7931034482758619
 40
0.7931034482758619
 40
0.7931034482758619
 40
0.8275862068965515
 40
0.8275862068965515
 40
0.8275862068965515
 40
0.8275862068965515
 40
0.8620689655172411
 40
0.8620689655172411
 40
0.8620689655172411
 40
0.8620689655172411
 40
0.8965517241379307
 40
0.8965517241379307
 40
0.8965517241379307
 40
0.8965517241379307
 40
0.9310344827586203
 40
0.9310344827586203
 40
0.9310344827586203
 40
0.9310344827586203
 40
0.9655172413793099
 40
0.9655172413793099
 40
0.9655172413793099
 40
0.9655172413793099
 40
1.0
 40
1.0
 40
1.0
 40
1.0
 10
-104.90050000000001
 20
16.665200000000002
 30
0.0
 10
-104.90050000000001
 20
16.665200000000002
 30
0.0
 10
-104.99510000000001
 20
17.646000000000001
 30
0.0
 10
-104.99510000000001
 20
17.646000000000001
 30
0.0
 10
-104.99510000000001
 20
17.646000000000001
 30
0.0
 10
-104.85680000000001
 20
17.6387
 30
0.0
 10
-104.7731
 20
17.635100000000001
 30
0.0
 10
-104.7458
 20
17.635100000000001
 30
0.0
 10
-104.7458
 20
17.635100000000001
 30
0.0
 10
-104.5111
 20
17.635100000000001
 30
0.0
 10
-104.2745
 20
17.6951
 30
0.0
 10
-104.03620000000001
 20
17.813400000000001
 30
0.0
 10
-104.03620000000001
 20
17.813400000000001
 30
0.0
 10
-103.79780000000001
 20
17.933500000000002
 30
0.0
 10
-103.61580000000001
 20
18.095400000000001
 30
0.0
 10
-103.4903
 20
18.299200000000003
 30
0.0
 10
-103.4903
 20
18.299200000000003
 30
0.0
 10
-103.36290000000001
 20
18.503
 30
0.0
 10
-103.301
 20
18.7196
 30
0.0
 10
-103.301
 20
18.946999999999999
 30
0.0
 10
-103.301
 20
18.946999999999999
 30
0.0
 10
-103.301
 20
19.2454
 30
0.0
 10
-103.4029
 20
19.549300000000002
 30
0.0
 10
-103.6104
 20
19.858600000000003
 30
0.0
 10
-103.6104
 20
19.858600000000003
 30
0.0
 10
-103.816
 20
20.167999999999999
 30
0.0
 10
-104.11620000000001
 20
20.417300000000001
 30
0.0
 10
-104.5111
 20
20.610100000000003
 30
0.0
 10
-104.5111
 20
20.610100000000003
 30
0.0
 10
-104.9041
 20
20.801200000000001
 30
0.0
 10
-105.29530000000001
 20
20.897600000000001
 30
0.0
 10
-105.6829
 20
20.897600000000001
 30
0.0
 10
-105.6829
 20
20.897600000000001
 30
0.0
 10
-106.11960000000001
 20
20.897600000000001
 30
0.0
 10
-106.47080000000001
 20
20.7685
 30
0.0
 10
-106.73280000000001
 20
20.511900000000001
 30
0.0
 10
-106.73280000000001
 20
20.511900000000001
 30
0.0
 10
-106.9967
 20
20.253500000000003
 30
0.0
 10
-107.1277
 20
19.915100000000002
 30
0.0
 10
-107.1277
 20
19.496500000000001
 30
0.0
 10
-107.1277
 20
19.496500000000001
 30
0.0
 10
-107.1277
 20
19.214500000000001
 30
0.0
 10
-107.0604
 20
18.948800000000002
 30
0.0
 10
-106.92570000000001
 20
18.6996
 30
0.0
 10
-106.92570000000001
 20
18.6996
 30
0.0
 10
-106.7911
 20
18.448399999999999
 30
0.0
 10
-106.5873
 20
18.215500000000002
 30
0.0
 10
-106.31800000000001
 20
17.997199999999999
 30
0.0
 10
-106.31800000000001
 20
17.997199999999999
 30
0.0
 10
-106.31800000000001
 20
17.997199999999999
 30
0.0
 10
-106.37620000000001
 20
17.154700000000002
 30
0.0
 10
-106.37620000000001
 20
17.154700000000002
 30
0.0
 10
-106.37620000000001
 20
17.154700000000002
 30
0.0
 10
-106.37620000000001
 20
17.154700000000002
 30
0.0
 10
-110.37390000000001
 20
18.3338
 30
0.0
 10
-110.37390000000001
 20
18.3338
 30
0.0
 10
-110.37390000000001
 20
18.3338
 30
0.0
 10
-110.37390000000001
 20
18.3338
 30
0.0
 10
-110.37390000000001
 20
22.151400000000002
 30
0.0
 10
-110.37390000000001
 20
22.151400000000002
 30
0.0
 10
-110.37390000000001
 20
22.151400000000002
 30
0.0
 10
-110.37390000000001
 20
22.151400000000002
 30
0.0
 10
-109.48960000000001
 20
21.963900000000002
 30
0.0
 10
-109.48960000000001
 20
21.963900000000002
 30
0.0
 10
-109.48960000000001
 20
21.963900000000002
 30
0.0
 10
-109.48960000000001
 20
21.963900000000002
 30
0.0
 10
-109.48960000000001
 20
18.994300000000003
 30
0.0
 10
-109.48960000000001
 20
18.994300000000003
 30
0.0
 10
-109.48960000000001
 20
18.994300000000003
 30
0.0
 10
-109.48960000000001
 20
18.994300000000003
 30
0.0
 10
-107.50070000000001
 20
18.4084
 30
0.0
 10
-107.50070000000001
 20
18.4084
 30
0.0
 10
-107.50070000000001
 20
18.4084
 30
0.0
 10
-107.66080000000001
 20
18.628600000000002
 30
0.0
 10
-107.7809
 20
18.856000000000002
 30
0.0
 10
-107.861
 20
19.0871
 30
0.0
 10
-107.861
 20
19.0871
 30
0.0
 10
-107.94110000000001
 20
19.32
 30
0.0
 10
-107.98110000000001
 20
19.560200000000002
 30
0.0
 10
-107.98110000000001
 20
19.805900000000001
 30
0.0
 10
-107.98110000000001
 20
19.805900000000001
 30
0.0
 10
-107.98110000000001
 20
20.402699999999999
 30
0.0
 10
-107.78460000000001
 20
20.892200000000003
 30
0.0
 10
-107.3897
 20
21.2761
 30
0.0
 10
-107.3897
 20
21.2761
 30
0.0
 10
-106.9949
 20
21.6601
 30
0.0
 10
-106.45440000000001
 20
21.852900000000002
 30
0.0
 10
-105.7684
 20
21.852900000000002
 30
0.0
 10
-105.7684
 20
21.852900000000002
 30
0.0
 10
-105.16800000000001
 20
21.852900000000002
 30
0.0
 10
-104.6148
 20
21.720100000000002
 30
0.0
 10
-104.1071
 20
21.458100000000002
 30
0.0
 10
-104.1071
 20
21.458100000000002
 30
0.0
 10
-103.60130000000001
 20
21.194200000000002
 30
0.0
 10
-103.2119
 20
20.832100000000001
 30
0.0
 10
-102.94080000000001
 20
20.3736
 30
0.0
 10
-102.94080000000001
 20
20.3736
 30
0.0
 10
-102.6678
 20
19.9132
 30
0.0
 10
-102.53320000000001
 20
19.416499999999999
 30
0.0
 10
-102.53320000000001
 20
18.883300000000002
 30
0.0
 10
-102.53320000000001
 20
18.883300000000002
 30
0.0
 10
-102.53320000000001
 20
18.435700000000001
 30
0.0
 10
-102.6332
 20
18.039000000000001
 30
0.0
 10
-102.837
 20
17.693300000000001
 30
0.0
 10
-102.837
 20
17.693300000000001
 30
0.0
 10
-103.039
 20
17.349399999999999
 30
0.0
 10
-103.31740000000001
 20
17.091000000000001
 30
0.0
 10
-103.67410000000001
 20
16.918100000000003
 30
0.0
 10
-103.67410000000001
 20
16.918100000000003
 30
0.0
 10
-104.02890000000001
 20
16.7453
 30
0.0
 10
-104.3837
 20
16.659800000000001
 30
0.0
 10
-104.74040000000001
 20
16.659800000000001
 30
0.0
 10
-104.74040000000001
 20
16.659800000000001
 30
0.0
 10
-104.7749
 20
16.659800000000001
 30
0.0
 10
-104.82770000000001
 20
16.6616
 30
0.0
 10
-104.90050000000001
 20
16.665200000000002
 30
0.0
  0
SPLINE
  5
29
100
AcDbEntity
  8
Ebene 1
100
AcDbSpline
210
0.0
220
0.0
230
1.0
 70
     1
 71
     3
 72
    52
 73
    48
 74
     0
 42
0.0000000001
 43
0.0000000001
 40
0.0
 40
0.0
 40
0.0
 40
0.0
 40
0.0833333333333333
 40
0.0833333333333333
 40
0.0833333333333333
 40
0.0833333333333333
 40
0.1666666666666667
 40
0.1666666666666667
 40
0.1666666666666667
 40
0.1666666666666667
 40
0.25
 40
0.25
 40
0.25
 40
0.25
 40
0.3333333333333333
 40
0.3333333333333333
 40
0.3333333333333333
 40
0.3333333333333333
 40
0.4166666666666666
 40
0.4166666666666666
 40
0.4166666666666666
 40
0.4166666666666666
 40
0.4999999999999999
 40
0.4999999999999999
 40
0.4999999999999999
 40
0.4999999999999999
 40
0.5833333333333333
 40
0.5833333333333333
 40
0.5833333333333333
 40
0.5833333333333333
 40
0.6666666666666666
 40
0.6666666666666666
 40
0.6666666666666666
 40
0.6666666666666666
 40
0.75
 40
0.75
 40
0.75
 40
0.75
 40
0.8333333333333334
 40
0.8333333333333334
 40
0.8333333333333334
 40
0.8333333333333334
 40
0.9166666666666667
 40
0.9166666666666667
 40
0.9166666666666667
 40
0.9166666666666667
 40
1.0
 40
1.0
 40
1.0
 40
1.0
 10
-105.22980000000001
 20
22.748200000000001
 30
0.0
 10
-105.8904
 20
22.748200000000001
 30
0.0
 10
-106.56360000000001
 20
22.846500000000002
 30
0.0
 10
-107.24600000000001
 20
23.043000000000003
 30
0.0
 10
-107.24600000000001
 20
23.043000000000003
 30
0.0
 10
-107.92830000000001
 20
23.241400000000002
 30
0.0
 10
-108.47240000000001
 20
23.459700000000002
 30
0.0
 10
-108.8818
 20
23.701700000000002
 30
0.0
 10
-108.8818
 20
23.701700000000002
 30
0.0
 10
-109.2912
 20
23.9437
 30
0.0
 10
-109.6097
 20
24.194800000000001
 30
0.0
 10
-109.8407
 20
24.453200000000002
 30
0.0
 10
-109.8407
 20
24.453200000000002
 30
0.0
 10
-110.07180000000001
 20
24.7134
 30
0.0
 10
-110.24290000000001
 20
24.9682
 30
0.0
 10
-110.3502
 20
25.2193
 30
0.0
 10
-110.3502
 20
25.2193
 30
0.0
 10
-110.4594
 20
25.468600000000002
 30
0.0
 10
-110.51400000000001
 20
25.747
 30
0.0
 10
-110.51400000000001
 20
26.052700000000002
 30
0.0
 10
-110.51400000000001
 20
26.052700000000002
 30
0.0
 10
-110.51400000000001
 20
26.6495
 30
0.0
 10
-110.2902
 20
27.148100000000003
 30
0.0
 10
-109.84620000000001
 20
27.548400000000001
 30
0.0
 10
-109.84620000000001
 20
27.548400000000001
 30
0.0
 10
-109.40220000000001
 20
27.948700000000002
 30
0.0
 10
-108.7617
 20
28.148900000000001
 30
0.0
 10
-107.9229
 20
28.148900000000001
 30
0.0
 10
-107.9229
 20
28.148900000000001
 30
0.0
 10
-107.0586
 20
28.148900000000001
 30
0.0
 10
-106.2033
 20
28.008700000000001
 30
0.0
 10
-105.35900000000001
 20
27.732200000000002
 30
0.0
 10
-105.35900000000001
 20
27.732200000000002
 30
0.0
 10
-104.35640000000001
 20
27.404600000000002
 30
0.0
 10
-103.6049
 20
26.9497
 30
0.0
 10
-103.1027
 20
26.3675
 30
0.0
 10
-103.1027
 20
26.3675
 30
0.0
 10
-102.72240000000001
 20
25.919800000000002
 30
0.0
 10
-102.53320000000001
 20
25.410299999999999
 30
0.0
 10
-102.53320000000001
 20
24.837200000000003
 30
0.0
 10
-102.53320000000001
 20
24.837200000000003
 30
0.0
 10
-102.53320000000001
 20
24.251200000000001
 30
0.0
 10
-102.7624
 20
23.7563
 30
0.0
 10
-103.22280000000001
 20
23.3523
 30
0.0
 10
-103.22280000000001
 20
23.3523
 30
0.0
 10
-103.6832
 20
22.950200000000002
 30
0.0
 10
-104.3528
 20
22.748200000000001
 30
0.0
 10
-105.22980000000001
 20
22.748200000000001
 30
0.0
  0
SPLINE
  5
2A
100
AcDbEntity
  8
Ebene 1
100
AcDbSpline
210
0.0
220
0.0
230
1.0
 70
     1
 71
     3
 72
    48
 73
    44
 74
     0
 42
0.0000000001
 43
0.0000000001
 40
0.0
 40
0.0
 40
0.0
 40
0.0
 40
0.0909090909090909
 40
0.0909090909090909
 40
0.0909090909090909
 40
0.0909090909090909
 40
0.1818181818181818
 40
0.1818181818181818
 40
0.1818181818181818
 40
0.1818181818181818
 40
0.2727272727272727
 40
0.2727272727272727
 40
0.2727272727272727
 40
0.2727272727272727
 40
0.3636363636363637
 40
0.3636363636363637
 40
0.3636363636363637
 40
0.3636363636363637
 40
0.4545454545454546
 40
0.4545454545454546
 40
0.4545454545454546
 40
0.4545454545454546
 40
0.5454545454545455
 40
0.5454545454545455
 40
0.5454545454545455
 40
0.5454545454545455
 40
0.6363636363636365
 40
0.6363636363636365
 40
0.6363636363636365
 40
0.6363636363636365
 40
0.7272727272727274
 40
0.7272727272727274
 40
0.7272727272727274
 40
0.7272727272727274
 40
0.8181818181818183
 40
0.8181818181818183
 40
0.8181818181818183
 40
0.8181818181818183
 40
0.9090909090909093
 40
0.9090909090909093
 40
0.9090909090909093
 40
0.9090909090909093
 40
1.0
 40
1.0
 40
1.0
 40
1.0
 10
-104.9842
 20
23.681700000000003
 30
0.0
 10
-104.5056
 20
23.681700000000003
 30
0.0
 10
-104.13080000000001
 20
23.759900000000002
 30
0.0
 10
-103.8597
 20
23.920100000000001
 30
0.0
 10
-103.8597
 20
23.920100000000001
 30
0.0
 10
-103.48660000000001
 20
24.136600000000001
 30
0.0
 10
-103.301
 20
24.4587
 30
0.0
 10
-103.301
 20
24.886300000000002
 30
0.0
 10
-103.301
 20
24.886300000000002
 30
0.0
 10
-103.301
 20
25.2593
 30
0.0
 10
-103.46850000000001
 20
25.597800000000003
 30
0.0
 10
-103.8069
 20
25.903500000000001
 30
0.0
 10
-103.8069
 20
25.903500000000001
 30
0.0
 10
-104.28360000000001
 20
26.343800000000002
 30
0.0
 10
-104.98060000000001
 20
26.6768
 30
0.0
 10
-105.8995
 20
26.898800000000001
 30
0.0
 10
-105.8995
 20
26.898800000000001
 30
0.0
 10
-106.81840000000001
 20
27.120800000000003
 30
0.0
 10
-107.56800000000001
 20
27.2318
 30
0.0
 10
-108.1521
 20
27.2318
 30
0.0
 10
-108.1521
 20
27.2318
 30
0.0
 10
-108.71260000000001
 20
27.2318
 30
0.0
 10
-109.11840000000001
 20
27.124400000000001
 30
0.0
 10
-109.36760000000001
 20
26.907900000000001
 30
0.0
 10
-109.36760000000001
 20
26.907900000000001
 30
0.0
 10
-109.6151
 20
26.693200000000001
 30
0.0
 10
-109.7407
 20
26.411100000000001
 30
0.0
 10
-109.7407
 20
26.0581
 30
0.0
 10
-109.7407
 20
26.0581
 30
0.0
 10
-109.7407
 20
25.8034
 30
0.0
 10
-109.6752
 20
25.563200000000002
 30
0.0
 10
-109.54230000000001
 20
25.341200000000001
 30
0.0
 10
-109.54230000000001
 20
25.341200000000001
 30
0.0
 10
-109.41130000000001
 20
25.119200000000003
 30
0.0
 10
-109.18570000000001
 20
24.906300000000002
 30
0.0
 10
-108.86540000000001
 20
24.7043
 30
0.0
 10
-108.86540000000001
 20
24.7043
 30
0.0
 10
-108.41420000000001
 20
24.416800000000002
 30
0.0
 10
-107.73910000000001
 20
24.165700000000001
 30
0.0
 10
-106.84020000000001
 20
23.9528
 30
0.0
 10
-106.84020000000001
 20
23.9528
 30
0.0
 10
-106.0723
 20
23.770900000000001
 30
0.0
 10
-105.45370000000001
 20
23.681700000000003
 30
0.0
 10
-104.9842
 20
23.681700000000003
 30
0.0
  0
SPLINE
  5
2B
100
AcDbEntity
  8
Ebene 1
100
AcDbSpline
210
0.0
220
0.0
230
1.0
 70
     1
 71
     3
 72
    52
 73
    48
 74
     0
 42
0.0000000001
 43
0.0000000001
 40
0.0
 40
0.0
 40
0.0
 40
0.0
 40
0.0833333333333333
 40
0.0833333333333333
 40
0.0833333333333333
 40
0.0833333333333333
 40
0.1666666666666667
 40
0.1666666666666667
 40
0.1666666666666667
 40
0.1666666666666667
 40
0.25
 40
0.25
 40
0.25
 40
0.25
 40
0.3333333333333333
 40
0.3333333333333333
 40
0.3333333333333333
 40
0.3333333333333333
 40
0.4166666666666666
 40
0.4166666666666666
 40
0.4166666666666666
 40
0.4166666666666666
 40
0.4999999999999999
 40
0.4999999999999999
 40
0.4999999999999999
 40
0.4999999999999999
 40
0.5833333333333333
 40
0.5833333333333333
 40
0.5833333333333333
 40
0.5833333333333333
 40
0.6666666666666666
 40
0.6666666666666666
 40
0.6666666666666666
 40
0.6666666666666666
 40
0.75
 40
0.75
 40
0.75
 40
0.75
 40
0.8333333333333334
 40
0.8333333333333334
 40
0.8333333333333334
 40
0.8333333333333334
 40
0.9166666666666667
 40
0.9166666666666667
 40
0.9166666666666667
 40
0.9166666666666667
 40
1.0
 40
1.0
 40
1.0
 40
1.0
 10
-24.810000000000002
 20
18.5154
 30
0.0
 10
-24.810000000000002
 20
18.5154
 30
0.0
 10
-32.625300000000003
 20
20.145800000000001
 30
0.0
 10
-32.625300000000003
 20
20.145800000000001
 30
0.0
 10
-32.625300000000003
 20
20.145800000000001
 30
0.0
 10
-32.625300000000003
 20
20.145800000000001
 30
0.0
 10
-32.625300000000003
 20
22.502200000000002
 30
0.0
 10
-32.625300000000003
 20
22.502200000000002
 30
0.0
 10
-32.625300000000003
 20
22.502200000000002
 30
0.0
 10
-32.625300000000003
 20
23.068100000000001
 30
0.0
 10
-32.583400000000005
 20
23.499400000000001
 30
0.0
 10
-32.503300000000003
 20
23.797800000000002
 30
0.0
 10
-32.503300000000003
 20
23.797800000000002
 30
0.0
 10
-32.392299999999999
 20
24.223600000000001
 30
0.0
 10
-32.195799999999998
 20
24.587500000000002
 30
0.0
 10
-31.913800000000002
 20
24.891400000000001
 30
0.0
 10
-31.913800000000002
 20
24.891400000000001
 30
0.0
 10
-31.631700000000002
 20
25.1934
 30
0.0
 10
-31.278700000000001
 20
25.4209
 30
0.0
 10
-30.854800000000001
 20
25.573700000000002
 30
0.0
 10
-30.854800000000001
 20
25.573700000000002
 30
0.0
 10
-30.432600000000001
 20
25.724800000000002
 30
0.0
 10
-29.957700000000003
 20
25.801200000000001
 30
0.0
 10
-29.431800000000003
 20
25.801200000000001
 30
0.0
 10
-29.431800000000003
 20
25.801200000000001
 30
0.0
 10
-28.802200000000003
 20
25.801200000000001
 30
0.0
 10
-28.229100000000003
 20
25.706600000000002
 30
0.0
 10
-27.712300000000003
 20
25.517300000000002
 30
0.0
 10
-27.712300000000003
 20
25.517300000000002
 30
0.0
 10
-27.195500000000003
 20
25.3263
 30
0.0
 10
-26.740600000000001
 20
25.078800000000001
 30
0.0
 10
-26.3476
 20
24.7713
 30
0.0
 10
-26.3476
 20
24.7713
 30
0.0
 10
-25.954500000000003
 20
24.463800000000003
 30
0.0
 10
-25.647000000000002
 20
24.1417
 30
0.0
 10
-25.425000000000001
 20
23.805099999999999
 30
0.0
 10
-25.425000000000001
 20
23.805099999999999
 30
0.0
 10
-25.203000000000003
 20
23.470300000000002
 30
0.0
 10
-25.039300000000001
 20
23.0718
 30
0.0
 10
-24.931900000000002
 20
22.615000000000002
 30
0.0
 10
-24.931900000000002
 20
22.615000000000002
 30
0.0
 10
-24.850000000000001
 20
22.265700000000002
 30
0.0
 10
-24.810000000000002
 20
21.838100000000001
 30
0.0
 10
-24.810000000000002
 20
21.328600000000002
 30
0.0
 10
-24.810000000000002
 20
21.328600000000002
 30
0.0
 10
-24.810000000000002
 20
21.328600000000002
 30
0.0
 10
-24.810000000000002
 20
18.5154
 30
0.0
 10
-24.810000000000002
 20
18.5154
 30
0.0
  0
SPLINE
  5
2C
100
AcDbEntity
  8
Ebene 1
100
AcDbSpline
210
0.0
220
0.0
230
1.0
 70
     1
 71
     3
 72
    48
 73
    44
 74
     0
 42
0.0000000001
 43
0.0000000001
 40
0.0
 40
0.0
 40
0.0
 40
0.0
 40
0.0909090909090909
 40
0.0909090909090909
 40
0.0909090909090909
 40
0.0909090909090909
 40
0.1818181818181818
 40
0.1818181818181818
 40
0.1818181818181818
 40
0.1818181818181818
 40
0.2727272727272727
 40
0.2727272727272727
 40
0.2727272727272727
 40
0.2727272727272727
 40
0.3636363636363637
 40
0.3636363636363637
 40
0.3636363636363637
 40
0.3636363636363637
 40
0.4545454545454546
 40
0.4545454545454546
 40
0.4545454545454546
 40
0.4545454545454546
 40
0.5454545454545455
 40
0.5454545454545455
 40
0.5454545454545455
 40
0.5454545454545455
 40
0.6363636363636365
 40
0.6363636363636365
 40
0.6363636363636365
 40
0.6363636363636365
 40
0.7272727272727274
 40
0.7272727272727274
 40
0.7272727272727274
 40
0.7272727272727274
 40
0.8181818181818183
 40
0.8181818181818183
 40
0.8181818181818183
 40
0.8181818181818183
 40
0.9090909090909093
 40
0.9090909090909093
 40
0.9090909090909093
 40
0.9090909090909093
 40
1.0
 40
1.0
 40
1.0
 40
1.0
 10
-25.694300000000002
 20
19.7455
 30
0.0
 10
-25.694300000000002
 20
19.7455
 30
0.0
 10
-25.694300000000002
 20
20.982800000000001
 30
0.0
 10
-25.694300000000002
 20
20.982800000000001
 30
0.0
 10
-25.694300000000002
 20
20.982800000000001
 30
0.0
 10
-25.694300000000002
 20
21.541500000000003
 30
0.0
 10
-25.7471
 20
22.0364
 30
0.0
 10
-25.849
 20
22.4695
 30
0.0
 10
-25.849
 20
22.4695
 30
0.0
 10
-25.912700000000001
 20
22.740600000000001
 30
0.0
 10
-26.007300000000001
 20
22.971700000000002
 30
0.0
 10
-26.132900000000003
 20
23.162700000000001
 30
0.0
 10
-26.132900000000003
 20
23.162700000000001
 30
0.0
 10
-26.2912
 20
23.415700000000001
 30
0.0
 10
-26.504100000000001
 20
23.6449
 30
0.0
 10
-26.766100000000002
 20
23.8506
 30
0.0
 10
-26.766100000000002
 20
23.8506
 30
0.0
 10
-27.115500000000001
 20
24.121700000000001
 30
0.0
 10
-27.5121
 20
24.336400000000001
 30
0.0
 10
-27.957900000000002
 20
24.4983
 30
0.0
 10
-27.957900000000002
 20
24.4983
 30
0.0
 10
-28.403700000000001
 20
24.660299999999999
 30
0.0
 10
-28.9114
 20
24.740300000000001
 30
0.0
 10
-29.479100000000003
 20
24.740300000000001
 30
0.0
 10
-29.479100000000003
 20
24.740300000000001
 30
0.0
 10
-30.112400000000001
 20
24.740300000000001
 30
0.0
 10
-30.598200000000002
 20
24.6312
 30
0.0
 10
-30.938500000000001
 20
24.411000000000001
 30
0.0
 10
-30.938500000000001
 20
24.411000000000001
 30
0.0
 10
-31.276900000000001
 20
24.190799999999999
 30
0.0
 10
-31.502600000000001
 20
23.908799999999999
 30
0.0
 10
-31.611700000000003
 20
23.5685
 30
0.0
 10
-31.611700000000003
 20
23.5685
 30
0.0
 10
-31.6936
 20
23.3156
 30
0.0
 10
-31.735500000000002
 20
22.922499999999999
 30
0.0
 10
-31.735500000000002
 20
22.389400000000002
 30
0.0
 10
-31.735500000000002
 20
22.389400000000002
 30
0.0
 10
-31.735500000000002
 20
22.389400000000002
 30
0.0
 10
-31.735500000000002
 20
21.010100000000001
 30
0.0
 10
-31.735500000000002
 20
21.010100000000001
 30
0.0
 10
-31.735500000000002
 20
21.010100000000001
 30
0.0
 10
-31.735500000000002
 20
21.010100000000001
 30
0.0
 10
-25.694300000000002
 20
19.7455
 30
0.0
 10
-25.694300000000002
 20
19.7455
 30
0.0
  0
SPLINE
  5
2D
100
AcDbEntity
  8
Ebene 1
100
AcDbSpline
210
0.0
220
0.0
230
1.0
 70
     1
 71
     3
 72
    64
 73
    60
 74
     0
 42
0.0000000001
 43
0.0000000001
 40
0.0
 40
0.0
 40
0.0
 40
0.0
 40
0.0666666666666667
 40
0.0666666666666667
 40
0.0666666666666667
 40
0.0666666666666667
 40
0.1333333333333333
 40
0.1333333333333333
 40
0.1333333333333333
 40
0.1333333333333333
 40
0.2
 40
0.2
 40
0.2
 40
0.2
 40
0.2666666666666667
 40
0.2666666666666667
 40
0.2666666666666667
 40
0.2666666666666667
 40
0.3333333333333333
 40
0.3333333333333333
 40
0.3333333333333333
 40
0.3333333333333333
 40
0.4
 40
0.4
 40
0.4
 40
0.4
 40
0.4666666666666666
 40
0.4666666666666666
 40
0.4666666666666666
 40
0.4666666666666666
 40
0.5333333333333333
 40
0.5333333333333333
 40
0.5333333333333333
 40
0.5333333333333333
 40
0.6
 40
0.6
 40
0.6
 40
0.6
 40
0.6666666666666666
 40
0.6666666666666666
 40
0.6666666666666666
 40
0.6666666666666666
 40
0.7333333333333333
 40
0.7333333333333333
 40
0.7333333333333333
 40
0.7333333333333333
 40
0.7999999999999999
 40
0.7999999999999999
 40
0.7999999999999999
 40
0.7999999999999999
 40
0.8666666666666666
 40
0.8666666666666666
 40
0.8666666666666666
 40
0.8666666666666666
 40
0.9333333333333332
 40
0.9333333333333332
 40
0.9333333333333332
 40
0.9333333333333332
 40
1.0
 40
1.0
 40
1.0
 40
1.0
 10
-24.810000000000002
 20
26.447100000000002
 30
0.0
 10
-24.810000000000002
 20
26.447100000000002
 30
0.0
 10
-32.625300000000003
 20
28.083000000000002
 30
0.0
 10
-32.625300000000003
 20
28.083000000000002
 30
0.0
 10
-32.625300000000003
 20
28.083000000000002
 30
0.0
 10
-32.625300000000003
 20
28.083000000000002
 30
0.0
 10
-32.625300000000003
 20
29.096500000000002
 30
0.0
 10
-32.625300000000003
 20
29.096500000000002
 30
0.0
 10
-32.625300000000003
 20
29.096500000000002
 30
0.0
 10
-32.625300000000003
 20
29.096500000000002
 30
0.0
 10
-29.693900000000003
 20
30.413900000000002
 30
0.0
 10
-29.693900000000003
 20
30.413900000000002
 30
0.0
 10
-29.693900000000003
 20
30.413900000000002
 30
0.0
 10
-28.796800000000001
 20
30.814200000000003
 30
0.0
 10
-28.043500000000002
 20
31.1327
 30
0.0
 10
-27.432100000000002
 20
31.3674
 30
0.0
 10
-27.432100000000002
 20
31.3674
 30
0.0
 10
-27.077200000000001
 20
31.502000000000002
 30
0.0
 10
-26.596900000000002
 20
31.6585
 30
0.0
 10
-25.992800000000003
 20
31.8369
 30
0.0
 10
-25.992800000000003
 20
31.8369
 30
0.0
 10
-26.651500000000002
 20
31.933300000000003
 30
0.0
 10
-27.330200000000001
 20
32.053400000000003
 30
0.0
 10
-28.030700000000003
 20
32.198999999999998
 30
0.0
 10
-28.030700000000003
 20
32.198999999999998
 30
0.0
 10
-28.030700000000003
 20
32.198999999999998
 30
0.0
 10
-32.625300000000003
 20
33.157900000000005
 30
0.0
 10
-32.625300000000003
 20
33.157900000000005
 30
0.0
 10
-32.625300000000003
 20
33.157900000000005
 30
0.0
 10
-32.625300000000003
 20
33.157900000000005
 30
0.0
 10
-32.625300000000003
 20
34.176900000000003
 30
0.0
 10
-32.625300000000003
 20
34.176900000000003
 30
0.0
 10
-32.625300000000003
 20
34.176900000000003
 30
0.0
 10
-32.625300000000003
 20
34.176900000000003
 30
0.0
 10
-24.810000000000002
 20
32.546500000000002
 30
0.0
 10
-24.810000000000002
 20
32.546500000000002
 30
0.0
 10
-24.810000000000002
 20
32.546500000000002
 30
0.0
 10
-24.810000000000002
 20
32.546500000000002
 30
0.0
 10
-24.810000000000002
 20
31.511100000000003
 30
0.0
 10
-24.810000000000002
 20
31.511100000000003
 30
0.0
 10
-24.810000000000002
 20
31.511100000000003
 30
0.0
 10
-24.810000000000002
 20
31.511100000000003
 30
0.0
 10
-29.3245
 20
29.571400000000001
 30
0.0
 10
-29.3245
 20
29.571400000000001
 30
0.0
 10
-29.3245
 20
29.571400000000001
 30
0.0
 10
-30.121500000000001
 20
29.2257
 30
0.0
 10
-30.823800000000002
 20
28.958200000000001
 30
0.0
 10
-31.431600000000003
 20
28.7653
 30
0.0
 10
-31.431600000000003
 20
28.7653
 30
0.0
 10
-30.9221
 20
28.712600000000002
 30
0.0
 10
-30.299800000000001
 20
28.608900000000002
 30
0.0
 10
-29.559200000000001
 20
28.456000000000003
 30
0.0
 10
-29.559200000000001
 20
28.456000000000003
 30
0.0
 10
-29.559200000000001
 20
28.456000000000003
 30
0.0
 10
-24.810000000000002
 20
27.466100000000001
 30
0.0
 10
-24.810000000000002
 20
27.466100000000001
 30
0.0
 10
-24.810000000000002
 20
27.466100000000001
 30
0.0
 10
-24.810000000000002
 20
27.466100000000001
 30
0.0
 10
-24.810000000000002
 20
26.447100000000002
 30
0.0
 10
-24.810000000000002
 20
26.447100000000002
 30
0.0
  0
SPLINE
  5
2E
100
AcDbEntity
  8
Ebene 1
100
AcDbSpline
210
0.0
220
0.0
230
1.0
 70
     1
 71
     3
 72
    40
 73
    36
 74
     0
 42
0.0000000001
 43
0.0000000001
 40
0.0
 40
0.0
 40
0.0
 40
0.0
 40
0.1111111111111111
 40
0.1111111111111111
 40
0.1111111111111111
 40
0.1111111111111111
 40
0.2222222222222222
 40
0.2222222222222222
 40
0.2222222222222222
 40
0.2222222222222222
 40
0.3333333333333333
 40
0.3333333333333333
 40
0.3333333333333333
 40
0.3333333333333333
 40
0.4444444444444444
 40
0.4444444444444444
 40
0.4444444444444444
 40
0.4444444444444444
 40
0.5555555555555556
 40
0.5555555555555556
 40
0.5555555555555556
 40
0.5555555555555556
 40
0.6666666666666667
 40
0.6666666666666667
 40
0.6666666666666667
 40
0.6666666666666667
 40
0.7777777777777779
 40
0.7777777777777779
 40
0.7777777777777779
 40
0.7777777777777779
 40
0.8888888888888891
 40
0.8888888888888891
 40
0.8888888888888891
 40
0.8888888888888891
 40
1.0
 40
1.0
 40
1.0
 40
1.0
 10
-24.810000000000002
 20
36.425899999999999
 30
0.0
 10
-24.810000000000002
 20
36.425899999999999
 30
0.0
 10
-30.711000000000002
 20
37.6633
 30
0.0
 10
-30.711000000000002
 20
37.6633
 30
0.0
 10
-30.711000000000002
 20
37.6633
 30
0.0
 10
-30.2925
 20
37.130099999999999
 30
0.0
 10
-29.9559
 20
36.380400000000002
 30
0.0
 10
-29.702900000000003
 20
35.414200000000001
 30
0.0
 10
-29.702900000000003
 20
35.414200000000001
 30
0.0
 10
-29.702900000000003
 20
35.414200000000001
 30
0.0
 10
-30.578200000000002
 20
35.5944
 30
0.0
 10
-30.578200000000002
 20
35.5944
 30
0.0
 10
-30.578200000000002
 20
35.5944
 30
0.0
 10
-30.769200000000001
 20
36.0747
 30
0.0
 10
-31.020400000000002
 20
36.547800000000002
 30
0.0
 10
-31.329700000000003
 20
37.015500000000003
 30
0.0
 10
-31.329700000000003
 20
37.015500000000003
 30
0.0
 10
-31.639000000000003
 20
37.4831
 30
0.0
 10
-31.908300000000001
 20
37.834299999999999
 30
0.0
 10
-32.139400000000002
 20
38.069000000000003
 30
0.0
 10
-32.139400000000002
 20
38.069000000000003
 30
0.0
 10
-32.281300000000002
 20
38.210999999999999
 30
0.0
 10
-32.4542
 20
38.345600000000005
 30
0.0
 10
-32.658000000000001
 20
38.472999999999999
 30
0.0
 10
-32.658000000000001
 20
38.472999999999999
 30
0.0
 10
-32.658000000000001
 20
38.472999999999999
 30
0.0
 10
-32.658000000000001
 20
39.0334
 30
0.0
 10
-32.658000000000001
 20
39.0334
 30
0.0
 10
-32.658000000000001
 20
39.0334
 30
0.0
 10
-32.658000000000001
 20
39.0334
 30
0.0
 10
-24.810000000000002
 20
37.397600000000004
 30
0.0
 10
-24.810000000000002
 20
37.397600000000004
 30
0.0
 10
-24.810000000000002
 20
37.397600000000004
 30
0.0
 10
-24.810000000000002
 20
37.397600000000004
 30
0.0
 10
-24.810000000000002
 20
36.425899999999999
 30
0.0
 10
-24.810000000000002
 20
36.425899999999999
 30
0.0
  0
SPLINE
  5
2F
100
AcDbEntity
  8
Ebene 1
100
AcDbSpline
210
0.0
220
0.0
230
1.0
 70
     1
 71
     3
 72
    52
 73
    48
 74
     0
 42
0.0000000001
 43
0.0000000001
 40
0.0
 40
0.0
 40
0.0
 40
0.0
 40
0.0833333333333333
 40
0.0833333333333333
 40
0.0833333333333333
 40
0.0833333333333333
 40
0.1666666666666667
 40
0.1666666666666667
 40
0.1666666666666667
 40
0.1666666666666667
 40
0.25
 40
0.25
 40
0.25
 40
0.25
 40
0.3333333333333333
 40
0.3333333333333333
 40
0.3333333333333333
 40
0.3333333333333333
 40
0.4166666666666666
 40
0.4166666666666666
 40
0.4166666666666666
 40
0.4166666666666666
 40
0.4999999999999999
 40
0.4999999999999999
 40
0.4999999999999999
 40
0.4999999999999999
 40
0.5833333333333333
 40
0.5833333333333333
 40
0.5833333333333333
 40
0.5833333333333333
 40
0.6666666666666666
 40
0.6666666666666666
 40
0.6666666666666666
 40
0.6666666666666666
 40
0.75
 40
0.75
 40
0.75
 40
0.75
 40
0.8333333333333334
 40
0.8333333333333334
 40
0.8333333333333334
 40
0.8333333333333334
 40
0.9166666666666667
 40
0.9166666666666667
 40
0.9166666666666667
 40
0.9166666666666667
 40
1.0
 40
1.0
 40
1.0
 40
1.0
 10
-27.373800000000003
 20
40.643799999999999
 30
0.0
 10
-28.034400000000002
 20
40.643799999999999
 30
0.0
 10
-28.707600000000003
 20
40.742100000000001
 30
0.0
 10
-29.390000000000001
 20
40.938600000000001
 30
0.0
 10
-29.390000000000001
 20
40.938600000000001
 30
0.0
 10
-30.072300000000002
 20
41.137
 30
0.0
 10
-30.616400000000002
 20
41.3553
 30
0.0
 10
-31.0258
 20
41.597300000000004
 30
0.0
 10
-31.0258
 20
41.597300000000004
 30
0.0
 10
-31.435200000000002
 20
41.839300000000001
 30
0.0
 10
-31.753700000000002
 20
42.090400000000002
 30
0.0
 10
-31.9847
 20
42.348800000000004
 30
0.0
 10
-31.9847
 20
42.348800000000004
 30
0.0
 10
-32.215800000000002
 20
42.609000000000002
 30
0.0
 10
-32.386900000000004
 20
42.863800000000005
 30
0.0
 10
-32.494199999999999
 20
43.114899999999999
 30
0.0
 10
-32.494199999999999
 20
43.114899999999999
 30
0.0
 10
-32.603400000000001
 20
43.364200000000004
 30
0.0
 10
-32.658000000000001
 20
43.642600000000002
 30
0.0
 10
-32.658000000000001
 20
43.948300000000003
 30
0.0
 10
-32.658000000000001
 20
43.948300000000003
 30
0.0
 10
-32.658000000000001
 20
44.545100000000005
 30
0.0
 10
-32.434200000000004
 20
45.043700000000001
 30
0.0
 10
-31.990200000000002
 20
45.444000000000003
 30
0.0
 10
-31.990200000000002
 20
45.444000000000003
 30
0.0
 10
-31.546200000000002
 20
45.844300000000004
 30
0.0
 10
-30.905700000000003
 20
46.044499999999999
 30
0.0
 10
-30.0669
 20
46.044499999999999
 30
0.0
 10
-30.0669
 20
46.044499999999999
 30
0.0
 10
-29.2026
 20
46.044499999999999
 30
0.0
 10
-28.347300000000001
 20
45.904299999999999
 30
0.0
 10
-27.503
 20
45.627800000000001
 30
0.0
 10
-27.503
 20
45.627800000000001
 30
0.0
 10
-26.500400000000003
 20
45.300200000000004
 30
0.0
 10
-25.748900000000003
 20
44.845300000000002
 30
0.0
 10
-25.246700000000001
 20
44.263100000000001
 30
0.0
 10
-25.246700000000001
 20
44.263100000000001
 30
0.0
 10
-24.866400000000002
 20
43.815400000000004
 30
0.0
 10
-24.677200000000003
 20
43.305900000000001
 30
0.0
 10
-24.677200000000003
 20
42.732800000000005
 30
0.0
 10
-24.677200000000003
 20
42.732800000000005
 30
0.0
 10
-24.677200000000003
 20
42.146799999999999
 30
0.0
 10
-24.906400000000001
 20
41.651900000000005
 30
0.0
 10
-25.366800000000001
 20
41.247900000000001
 30
0.0
 10
-25.366800000000001
 20
41.247900000000001
 30
0.0
 10
-25.827200000000001
 20
40.845800000000004
 30
0.0
 10
-26.4968
 20
40.643799999999999
 30
0.0
 10
-27.373800000000003
 20
40.643799999999999
 30
0.0
  0
SPLINE
  5
30
100
AcDbEntity
  8
Ebene 1
100
AcDbSpline
210
0.0
220
0.0
230
1.0
 70
     1
 71
     3
 72
    48
 73
    44
 74
     0
 42
0.0000000001
 43
0.0000000001
 40
0.0
 40
0.0
 40
0.0
 40
0.0
 40
0.0909090909090909
 40
0.0909090909090909
 40
0.0909090909090909
 40
0.0909090909090909
 40
0.1818181818181818
 40
0.1818181818181818
 40
0.1818181818181818
 40
0.1818181818181818
 40
0.2727272727272727
 40
0.2727272727272727
 40
0.2727272727272727
 40
0.2727272727272727
 40
0.3636363636363637
 40
0.3636363636363637
 40
0.3636363636363637
 40
0.3636363636363637
 40
0.4545454545454546
 40
0.4545454545454546
 40
0.4545454545454546
 40
0.4545454545454546
 40
0.5454545454545455
 40
0.5454545454545455
 40
0.5454545454545455
 40
0.5454545454545455
 40
0.6363636363636365
 40
0.6363636363636365
 40
0.6363636363636365
 40
0.6363636363636365
 40
0.7272727272727274
 40
0.7272727272727274
 40
0.7272727272727274
 40
0.7272727272727274
 40
0.8181818181818183
 40
0.8181818181818183
 40
0.8181818181818183
 40
0.8181818181818183
 40
0.9090909090909093
 40
0.9090909090909093
 40
0.9090909090909093
 40
0.9090909090909093
 40
1.0
 40
1.0
 40
1.0
 40
1.0
 10
-27.1282
 20
41.577300000000001
 30
0.0
 10
-26.6496
 20
41.577300000000001
 30
0.0
 10
-26.274800000000003
 20
41.655500000000004
 30
0.0
 10
-26.003700000000002
 20
41.8157
 30
0.0
 10
-26.003700000000002
 20
41.8157
 30
0.0
 10
-25.630600000000001
 20
42.032200000000003
 30
0.0
 10
-25.445
 20
42.354300000000002
 30
0.0
 10
-25.445
 20
42.7819
 30
0.0
 10
-25.445
 20
42.7819
 30
0.0
 10
-25.445
 20
43.154900000000005
 30
0.0
 10
-25.612500000000001
 20
43.493400000000001
 30
0.0
 10
-25.950900000000001
 20
43.799100000000003
 30
0.0
 10
-25.950900000000001
 20
43.799100000000003
 30
0.0
 10
-26.427600000000002
 20
44.239400000000003
 30
0.0
 10
-27.124600000000001
 20
44.572400000000002
 30
0.0
 10
-28.043500000000002
 20
44.794400000000003
 30
0.0
 10
-28.043500000000002
 20
44.794400000000003
 30
0.0
 10
-28.962400000000002
 20
45.016400000000004
 30
0.0
 10
-29.712
 20
45.127400000000002
 30
0.0
 10
-30.296100000000003
 20
45.127400000000002
 30
0.0
 10
-30.296100000000003
 20
45.127400000000002
 30
0.0
 10
-30.8566
 20
45.127400000000002
 30
0.0
 10
-31.262400000000003
 20
45.020000000000003
 30
0.0
 10
-31.511600000000001
 20
44.8035
 30
0.0
 10
-31.511600000000001
 20
44.8035
 30
0.0
 10
-31.7591
 20
44.588799999999999
 30
0.0
 10
-31.884700000000002
 20
44.306699999999999
 30
0.0
 10
-31.884700000000002
 20
43.953700000000005
 30
0.0
 10
-31.884700000000002
 20
43.953700000000005
 30
0.0
 10
-31.884700000000002
 20
43.699000000000005
 30
0.0
 10
-31.819200000000002
 20
43.458800000000004
 30
0.0
 10
-31.686300000000003
 20
43.236800000000002
 30
0.0
 10
-31.686300000000003
 20
43.236800000000002
 30
0.0
 10
-31.555300000000003
 20
43.014800000000001
 30
0.0
 10
-31.329700000000003
 20
42.801900000000003
 30
0.0
 10
-31.009400000000003
 20
42.599900000000005
 30
0.0
 10
-31.009400000000003
 20
42.599900000000005
 30
0.0
 10
-30.558200000000003
 20
42.312400000000004
 30
0.0
 10
-29.883100000000002
 20
42.061300000000003
 30
0.0
 10
-28.984200000000001
 20
41.848400000000005
 30
0.0
 10
-28.984200000000001
 20
41.848400000000005
 30
0.0
 10
-28.2163
 20
41.666499999999999
 30
0.0
 10
-27.5977
 20
41.577300000000001
 30
0.0
 10
-27.1282
 20
41.577300000000001
 30
0.0
  0
SPLINE
  5
31
100
AcDbEntity
  8
Ebene 1
100
AcDbSpline
210
0.0
220
0.0
230
1.0
 70
     1
 71
     3
 72
    52
 73
    48
 74
     0
 42
0.0000000001
 43
0.0000000001
 40
0.0
 40
0.0
 40
0.0
 40
0.0
 40
0.0833333333333333
 40
0.0833333333333333
 40
0.0833333333333333
 40
0.0833333333333333
 40
0.1666666666666667
 40
0.1666666666666667
 40
0.1666666666666667
 40
0.1666666666666667
 40
0.25
 40
0.25
 40
0.25
 40
0.25
 40
0.3333333333333333
 40
0.3333333333333333
 40
0.3333333333333333
 40
0.3333333333333333
 40
0.4166666666666666
 40
0.4166666666666666
 40
0.4166666666666666
 40
0.4166666666666666
 40
0.4999999999999999
 40
0.4999999999999999
 40
0.4999999999999999
 40
0.4999999999999999
 40
0.5833333333333333
 40
0.5833333333333333
 40
0.5833333333333333
 40
0.5833333333333333
 40
0.6666666666666666
 40
0.6666666666666666
 40
0.6666666666666666
 40
0.6666666666666666
 40
0.75
 40
0.75
 40
0.75
 40
0.75
 40
0.8333333333333334
 40
0.8333333333333334
 40
0.8333333333333334
 40
0.8333333333333334
 40
0.9166666666666667
 40
0.9166666666666667
 40
0.9166666666666667
 40
0.9166666666666667
 40
1.0
 40
1.0
 40
1.0
 40
1.0
 10
-27.373800000000003
 20
46.715900000000005
 30
0.0
 10
-28.034400000000002
 20
46.715900000000005
 30
0.0
 10
-28.707600000000003
 20
46.8142
 30
0.0
 10
-29.390000000000001
 20
47.0107
 30
0.0
 10
-29.390000000000001
 20
47.0107
 30
0.0
 10
-30.072300000000002
 20
47.209099999999999
 30
0.0
 10
-30.616400000000002
 20
47.427400000000006
 30
0.0
 10
-31.0258
 20
47.669400000000003
 30
0.0
 10
-31.0258
 20
47.669400000000003
 30
0.0
 10
-31.435200000000002
 20
47.9114
 30
0.0
 10
-31.753700000000002
 20
48.162500000000001
 30
0.0
 10
-31.9847
 20
48.420900000000003
 30
0.0
 10
-31.9847
 20
48.420900000000003
 30
0.0
 10
-32.215800000000002
 20
48.681100000000001
 30
0.0
 10
-32.386900000000004
 20
48.935900000000004
 30
0.0
 10
-32.494199999999999
 20
49.187000000000005
 30
0.0
 10
-32.494199999999999
 20
49.187000000000005
 30
0.0
 10
-32.603400000000001
 20
49.436300000000003
 30
0.0
 10
-32.658000000000001
 20
49.714700000000001
 30
0.0
 10
-32.658000000000001
 20
50.020400000000002
 30
0.0
 10
-32.658000000000001
 20
50.020400000000002
 30
0.0
 10
-32.658000000000001
 20
50.617200000000004
 30
0.0
 10
-32.434200000000004
 20
51.1158
 30
0.0
 10
-31.990200000000002
 20
51.516100000000002
 30
0.0
 10
-31.990200000000002
 20
51.516100000000002
 30
0.0
 10
-31.546200000000002
 20
51.916400000000003
 30
0.0
 10
-30.905700000000003
 20
52.116600000000005
 30
0.0
 10
-30.0669
 20
52.116600000000005
 30
0.0
 10
-30.0669
 20
52.116600000000005
 30
0.0
 10
-29.2026
 20
52.116600000000005
 30
0.0
 10
-28.347300000000001
 20
51.976400000000005
 30
0.0
 10
-27.503
 20
51.6999
 30
0.0
 10
-27.503
 20
51.6999
 30
0.0
 10
-26.500400000000003
 20
51.372300000000003
 30
0.0
 10
-25.748900000000003
 20
50.917400000000001
 30
0.0
 10
-25.246700000000001
 20
50.3352
 30
0.0
 10
-25.246700000000001
 20
50.3352
 30
0.0
 10
-24.866400000000002
 20
49.887500000000003
 30
0.0
 10
-24.677200000000003
 20
49.378
 30
0.0
 10
-24.677200000000003
 20
48.804900000000004
 30
0.0
 10
-24.677200000000003
 20
48.804900000000004
 30
0.0
 10
-24.677200000000003
 20
48.218900000000005
 30
0.0
 10
-24.906400000000001
 20
47.724000000000004
 30
0.0
 10
-25.366800000000001
 20
47.32
 30
0.0
 10
-25.366800000000001
 20
47.32
 30
0.0
 10
-25.827200000000001
 20
46.917900000000003
 30
0.0
 10
-26.4968
 20
46.715900000000005
 30
0.0
 10
-27.373800000000003
 20
46.715900000000005
 30
0.0
  0
SPLINE
  5
32
100
AcDbEntity
  8
Ebene 1
100
AcDbSpline
210
0.0
220
0.0
230
1.0
 70
     1
 71
     3
 72
    48
 73
    44
 74
     0
 42
0.0000000001
 43
0.0000000001
 40
0.0
 40
0.0
 40
0.0
 40
0.0
 40
0.0909090909090909
 40
0.0909090909090909
 40
0.0909090909090909
 40
0.0909090909090909
 40
0.1818181818181818
 40
0.1818181818181818
 40
0.1818181818181818
 40
0.1818181818181818
 40
0.2727272727272727
 40
0.2727272727272727
 40
0.2727272727272727
 40
0.2727272727272727
 40
0.3636363636363637
 40
0.3636363636363637
 40
0.3636363636363637
 40
0.3636363636363637
 40
0.4545454545454546
 40
0.4545454545454546
 40
0.4545454545454546
 40
0.4545454545454546
 40
0.5454545454545455
 40
0.5454545454545455
 40
0.5454545454545455
 40
0.5454545454545455
 40
0.6363636363636365
 40
0.6363636363636365
 40
0.6363636363636365
 40
0.6363636363636365
 40
0.7272727272727274
 40
0.7272727272727274
 40
0.7272727272727274
 40
0.7272727272727274
 40
0.8181818181818183
 40
0.8181818181818183
 40
0.8181818181818183
 40
0.8181818181818183
 40
0.9090909090909093
 40
0.9090909090909093
 40
0.9090909090909093
 40
0.9090909090909093
 40
1.0
 40
1.0
 40
1.0
 40
1.0
 10
-27.1282
 20
47.6494
 30
0.0
 10
-26.6496
 20
47.6494
 30
0.0
 10
-26.274800000000003
 20
47.727600000000002
 30
0.0
 10
-26.003700000000002
 20
47.887800000000006
 30
0.0
 10
-26.003700000000002
 20
47.887800000000006
 30
0.0
 10
-25.630600000000001
 20
48.104300000000002
 30
0.0
 10
-25.445
 20
48.426400000000001
 30
0.0
 10
-25.445
 20
48.853999999999999
 30
0.0
 10
-25.445
 20
48.853999999999999
 30
0.0
 10
-25.445
 20
49.227000000000004
 30
0.0
 10
-25.612500000000001
 20
49.5655
 30
0.0
 10
-25.950900000000001
 20
49.871200000000002
 30
0.0
 10
-25.950900000000001
 20
49.871200000000002
 30
0.0
 10
-26.427600000000002
 20
50.311500000000002
 30
0.0
 10
-27.124600000000001
 20
50.644500000000001
 30
0.0
 10
-28.043500000000002
 20
50.866500000000002
 30
0.0
 10
-28.043500000000002
 20
50.866500000000002
 30
0.0
 10
-28.962400000000002
 20
51.088500000000003
 30
0.0
 10
-29.712
 20
51.1995
 30
0.0
 10
-30.296100000000003
 20
51.1995
 30
0.0
 10
-30.296100000000003
 20
51.1995
 30
0.0
 10
-30.8566
 20
51.1995
 30
0.0
 10
-31.262400000000003
 20
51.092100000000002
 30
0.0
 10
-31.511600000000001
 20
50.875600000000006
 30
0.0
 10
-31.511600000000001
 20
50.875600000000006
 30
0.0
 10
-31.7591
 20
50.660900000000005
 30
0.0
 10
-31.884700000000002
 20
50.378800000000005
 30
0.0
 10
-31.884700000000002
 20
50.025800000000004
 30
0.0
 10
-31.884700000000002
 20
50.025800000000004
 30
0.0
 10
-31.884700000000002
 20
49.771100000000004
 30
0.0
 10
-31.819200000000002
 20
49.530900000000003
 30
0.0
 10
-31.686300000000003
 20
49.308900000000001
 30
0.0
 10
-31.686300000000003
 20
49.308900000000001
 30
0.0
 10
-31.555300000000003
 20
49.0869
 30
0.0
 10
-31.329700000000003
 20
48.874000000000002
 30
0.0
 10
-31.009400000000003
 20
48.672000000000004
 30
0.0
 10
-31.009400000000003
 20
48.672000000000004
 30
0.0
 10
-30.558200000000003
 20
48.384500000000003
 30
0.0
 10
-29.883100000000002
 20
48.133400000000002
 30
0.0
 10
-28.984200000000001
 20
47.920500000000004
 30
0.0
 10
-28.984200000000001
 20
47.920500000000004
 30
0.0
 10
-28.2163
 20
47.738600000000005
 30
0.0
 10
-27.5977
 20
47.6494
 30
0.0
 10
-27.1282
 20
47.6494
 30
0.0
  0
SPLINE
  5
33
100
AcDbEntity
  8
Ebene 1
100
AcDbSpline
210
0.0
220
0.0
230
1.0
 70
     1
 71
     3
 72
    44
 73
    40
 74
     0
 42
0.0000000001
 43
0.0000000001
 40
0.0
 40
0.0
 40
0.0
 40
0.0
 40
0.1
 40
0.1
 40
0.1
 40
0.1
 40
0.2
 40
0.2
 40
0.2
 40
0.2
 40
0.3
 40
0.3
 40
0.3
 40
0.3
 40
0.4
 40
0.4
 40
0.4
 40
0.4
 40
0.5
 40
0.5
 40
0.5
 40
0.5
 40
0.6
 40
0.6
 40
0.6
 40
0.6
 40
0.7
 40
0.7
 40
0.7
 40
0.7
 40
0.7999999999999999
 40
0.7999999999999999
 40
0.7999999999999999
 40
0.7999999999999999
 40
0.8999999999999999
 40
0.8999999999999999
 40
0.8999999999999999
 40
0.8999999999999999
 40
1.0
 40
1.0
 40
1.0
 40
1.0
 10
-22.511800000000001
 20
53.774300000000004
 30
0.0
 10
-23.7346
 20
53.215600000000002
 30
0.0
 10
-24.992000000000001
 20
52.937200000000004
 30
0.0
 10
-26.2821
 20
52.937200000000004
 30
0.0
 10
-26.2821
 20
52.937200000000004
 30
0.0
 10
-27.140900000000002
 20
52.937200000000004
 30
0.0
 10
-27.941600000000001
 20
53.0501
 30
0.0
 10
-28.682100000000002
 20
53.275700000000001
 30
0.0
 10
-28.682100000000002
 20
53.275700000000001
 30
0.0
 10
-29.424500000000002
 20
53.501300000000001
 30
0.0
 10
-30.156000000000002
 20
53.845200000000006
 30
0.0
 10
-30.882100000000001
 20
54.307400000000001
 30
0.0
 10
-30.882100000000001
 20
54.307400000000001
 30
0.0
 10
-31.366100000000003
 20
54.613100000000003
 30
0.0
 10
-31.990200000000002
 20
55.1008
 30
0.0
 10
-32.758099999999999
 20
55.772200000000005
 30
0.0
 10
-32.758099999999999
 20
55.772200000000005
 30
0.0
 10
-32.758099999999999
 20
55.772200000000005
 30
0.0
 10
-32.758099999999999
 20
56.525500000000001
 30
0.0
 10
-32.758099999999999
 20
56.525500000000001
 30
0.0
 10
-32.758099999999999
 20
56.525500000000001
 30
0.0
 10
-32.314100000000003
 20
56.108800000000002
 30
0.0
 10
-31.688200000000002
 20
55.668500000000002
 30
0.0
 10
-30.882100000000001
 20
55.204500000000003
 30
0.0
 10
-30.882100000000001
 20
55.204500000000003
 30
0.0
 10
-30.076000000000001
 20
54.7423
 30
0.0
 10
-29.282600000000002
 20
54.4039
 30
0.0
 10
-28.503800000000002
 20
54.194600000000001
 30
0.0
 10
-28.503800000000002
 20
54.194600000000001
 30
0.0
 10
-27.726800000000001
 20
53.985300000000002
 30
0.0
 10
-26.944400000000002
 20
53.879800000000003
 30
0.0
 10
-26.158300000000001
 20
53.879800000000003
 30
0.0
 10
-26.158300000000001
 20
53.879800000000003
 30
0.0
 10
-24.986499999999999
 20
53.879800000000003
 30
0.0
 10
-23.771000000000001
 20
54.0854
 30
0.0
 10
-22.511800000000001
 20
54.493000000000002
 30
0.0
 10
-22.511800000000001
 20
54.493000000000002
 30
0.0
 10
-22.511800000000001
 20
54.493000000000002
 30
0.0
 10
-22.511800000000001
 20
53.774300000000004
 30
0.0
 10
-22.511800000000001
 20
53.774300000000004
 30
0.0
  0
SPLINE
  5
34
100
AcDbEntity
  8
Ebene 1
100
AcDbSpline
210
0.0
220
0.0
230
1.0
 70
     1
 71
     3
 72
   152
 73
   148
 74
     0
 42
0.0000000001
 43
0.0000000001
 40
0.0
 40
0.0
 40
0.0
 40
0.0
 40
0.027027027027027
 40
0.027027027027027
 40
0.027027027027027
 40
0.027027027027027
 40
0.0540540540540541
 40
0.0540540540540541
 40
0.0540540540540541
 40
0.0540540540540541
 40
0.0810810810810811
 40
0.0810810810810811
 40
0.0810810810810811
 40
0.0810810810810811
 40
0.1081081081081081
 40
0.1081081081081081
 40
0.1081081081081081
 40
0.1081081081081081
 40
0.1351351351351351
 40
0.1351351351351351
 40
0.1351351351351351
 40
0.1351351351351351
 40
0.1621621621621622
 40
0.1621621621621622
 40
0.1621621621621622
 40
0.1621621621621622
 40
0.1891891891891892
 40
0.1891891891891892
 40
0.1891891891891892
 40
0.1891891891891892
 40
0.2162162162162162
 40
0.2162162162162162
 40
0.2162162162162162
 40
0.2162162162162162
 40
0.2432432432432433
 40
0.2432432432432433
 40
0.2432432432432433
 40
0.2432432432432433
 40
0.2702702702702703
 40
0.2702702702702703
 40
0.2702702702702703
 40
0.2702702702702703
 40
0.2972972972972973
 40
0.2972972972972973
 40
0.2972972972972973
 40
0.2972972972972973
 40
0.3243243243243243
 40
0.3243243243243243
 40
0.3243243243243243
 40
0.3243243243243243
 40
0.3513513513513514
 40
0.3513513513513514
 40
0.3513513513513514
 40
0.3513513513513514
 40
0.3783783783783784
 40
0.3783783783783784
 40
0.3783783783783784
 40
0.3783783783783784
 40
0.4054054054054054
 40
0.4054054054054054
 40
0.4054054054054054
 40
0.4054054054054054
 40
0.4324324324324325
 40
0.4324324324324325
 40
0.4324324324324325
 40
0.4324324324324325
 40
0.4594594594594595
 40
0.4594594594594595
 40
0.4594594594594595
 40
0.4594594594594595
 40
0.4864864864864865
 40
0.4864864864864865
 40
0.4864864864864865
 40
0.4864864864864865
 40
0.5135135135135136
 40
0.5135135135135136
 40
0.5135135135135136
 40
0.5135135135135136
 40
0.5405405405405406
 40
0.5405405405405406
 40
0.5405405405405406
 40
0.5405405405405406
 40
0.5675675675675675
 40
0.5675675675675675
 40
0.5675675675675675
 40
0.5675675675675675
 40
0.5945945945945945
 40
0.5945945945945945
 40
0.5945945945945945
 40
0.5945945945945945
 40
0.6216216216216215
 40
0.6216216216216215
 40
0.6216216216216215
 40
0.6216216216216215
 40
0.6486486486486485
 40
0.6486486486486485
 40
0.6486486486486485
 40
0.6486486486486485
 40
0.6756756756756754
 40
0.6756756756756754
 40
0.6756756756756754
 40
0.6756756756756754
 40
0.7027027027027024
 40
0.7027027027027024
 40
0.7027027027027024
 40
0.7027027027027024
 40
0.7297297297297294
 40
0.7297297297297294
 40
0.7297297297297294
 40
0.7297297297297294
 40
0.7567567567567564
 40
0.7567567567567564
 40
0.7567567567567564
 40
0.7567567567567564
 40
0.7837837837837833
 40
0.7837837837837833
 40
0.7837837837837833
 40
0.7837837837837833
 40
0.8108108108108103
 40
0.8108108108108103
 40
0.8108108108108103
 40
0.8108108108108103
 40
0.8378378378378373
 40
0.8378378378378373
 40
0.8378378378378373
 40
0.8378378378378373
 40
0.8648648648648643
 40
0.8648648648648643
 40
0.8648648648648643
 40
0.8648648648648643
 40
0.8918918918918912
 40
0.8918918918918912
 40
0.8918918918918912
 40
0.8918918918918912
 40
0.9189189189189182
 40
0.9189189189189182
 40
0.9189189189189182
 40
0.9189189189189182
 40
0.9459459459459452
 40
0.9459459459459452
 40
0.9459459459459452
 40
0.9459459459459452
 40
0.9729729729729721
 40
0.9729729729729721
 40
0.9729729729729721
 40
0.9729729729729721
 40
1.0
 40
1.0
 40
1.0
 40
1.0
 10
-27.337400000000002
 20
56.418200000000006
 30
0.0
 10
-27.337400000000002
 20
56.418200000000006
 30
0.0
 10
-27.432100000000002
 20
57.440800000000003
 30
0.0
 10
-27.432100000000002
 20
57.440800000000003
 30
0.0
 10
-27.432100000000002
 20
57.440800000000003
 30
0.0
 10
-27.432100000000002
 20
57.440800000000003
 30
0.0
 10
-27.160900000000002
 20
57.431699999999999
 30
0.0
 10
-27.160900000000002
 20
57.431699999999999
 30
0.0
 10
-27.160900000000002
 20
57.431699999999999
 30
0.0
 10
-26.858900000000002
 20
57.431699999999999
 30
0.0
 10
-26.5823
 20
57.500900000000001
 30
0.0
 10
-26.331200000000003
 20
57.639100000000006
 30
0.0
 10
-26.331200000000003
 20
57.639100000000006
 30
0.0
 10
-26.081900000000001
 20
57.7774
 30
0.0
 10
-25.8872
 20
58.006700000000002
 30
0.0
 10
-25.750700000000002
 20
58.327000000000005
 30
0.0
 10
-25.750700000000002
 20
58.327000000000005
 30
0.0
 10
-25.6143
 20
58.645400000000002
 30
0.0
 10
-25.545100000000001
 20
59.025700000000001
 30
0.0
 10
-25.545100000000001
 20
59.4679
 30
0.0
 10
-25.545100000000001
 20
59.4679
 30
0.0
 10
-25.545100000000001
 20
60.092000000000006
 30
0.0
 10
-25.6816
 20
60.570500000000003
 30
0.0
 10
-25.956400000000002
 20
60.898099999999999
 30
0.0
 10
-25.956400000000002
 20
60.898099999999999
 30
0.0
 10
-26.229300000000002
 20
61.227400000000003
 30
0.0
 10
-26.542300000000001
 20
61.391200000000005
 30
0.0
 10
-26.895300000000002
 20
61.391200000000005
 30
0.0
 10
-26.895300000000002
 20
61.391200000000005
 30
0.0
 10
-27.139100000000003
 20
61.391200000000005
 30
0.0
 10
-27.3629
 20
61.303800000000003
 30
0.0
 10
-27.566700000000001
 20
61.131
 30
0.0
 10
-27.566700000000001
 20
61.131
 30
0.0
 10
-27.7651
 20
60.9527
 30
0.0
 10
-28.034400000000002
 20
60.466800000000006
 30
0.0
 10
-28.3764
 20
59.6753
 30
0.0
 10
-28.3764
 20
59.6753
 30
0.0
 10
-28.642100000000003
 20
59.060300000000005
 30
0.0
 10
-28.8477
 20
58.6417
 30
0.0
 10
-28.989700000000003
 20
58.417900000000003
 30
0.0
 10
-28.989700000000003
 20
58.417900000000003
 30
0.0
 10
-29.220800000000001
 20
58.064900000000002
 30
0.0
 10
-29.471900000000002
 20
57.8065
 30
0.0
 10
-29.743000000000002
 20
57.639100000000006
 30
0.0
 10
-29.743000000000002
 20
57.639100000000006
 30
0.0
 10
-30.015900000000002
 20
57.471700000000006
 30
0.0
 10
-30.325300000000002
 20
57.388000000000005
 30
0.0
 10
-30.674600000000002
 20
57.388000000000005
 30
0.0
 10
-30.674600000000002
 20
57.388000000000005
 30
0.0
 10
-31.074900000000003
 20
57.388000000000005
 30
0.0
 10
-31.4389
 20
57.499000000000002
 30
0.0
 10
-31.760900000000003
 20
57.719200000000001
 30
0.0
 10
-31.760900000000003
 20
57.719200000000001
 30
0.0
 10
-32.084800000000001
 20
57.939400000000006
 30
0.0
 10
-32.332300000000004
 20
58.261400000000002
 30
0.0
 10
-32.503300000000003
 20
58.685400000000001
 30
0.0
 10
-32.503300000000003
 20
58.685400000000001
 30
0.0
 10
-32.672600000000003
 20
59.111200000000004
 30
0.0
 10
-32.758099999999999
 20
59.589800000000004
 30
0.0
 10
-32.758099999999999
 20
60.122900000000001
 30
0.0
 10
-32.758099999999999
 20
60.122900000000001
 30
0.0
 10
-32.758099999999999
 20
60.759800000000006
 30
0.0
 10
-32.652500000000003
 20
61.296600000000005
 30
0.0
 10
-32.437800000000003
 20
61.7333
 30
0.0
 10
-32.437800000000003
 20
61.7333
 30
0.0
 10
-32.224899999999998
 20
62.170000000000002
 30
0.0
 10
-31.941100000000002
 20
62.486600000000003
 30
0.0
 10
-31.586300000000001
 20
62.684900000000006
 30
0.0
 10
-31.586300000000001
 20
62.684900000000006
 30
0.0
 10
-31.229600000000001
 20
62.881500000000003
 30
0.0
 10
-30.891200000000001
 20
62.979700000000001
 30
0.0
 10
-30.567300000000003
 20
62.979700000000001
 30
0.0
 10
-30.567300000000003
 20
62.979700000000001
 30
0.0
 10
-30.534500000000001
 20
62.979700000000001
 30
0.0
 10
-30.4817
 20
62.977900000000005
 30
0.0
 10
-30.4071
 20
62.974299999999999
 30
0.0
 10
-30.4071
 20
62.974299999999999
 30
0.0
 10
-30.4071
 20
62.974299999999999
 30
0.0
 10
-30.327100000000002
 20
61.968000000000004
 30
0.0
 10
-30.327100000000002
 20
61.968000000000004
 30
0.0
 10
-30.327100000000002
 20
61.968000000000004
 30
0.0
 10
-30.5473
 20
61.968000000000004
 30
0.0
 10
-30.720100000000002
 20
61.948
 30
0.0
 10
-30.843800000000002
 20
61.908000000000001
 30
0.0
 10
-30.843800000000002
 20
61.908000000000001
 30
0.0
 10
-31.062200000000001
 20
61.837000000000003
 30
0.0
 10
-31.244200000000003
 20
61.727800000000002
 30
0.0
 10
-31.3934
 20
61.578600000000002
 30
0.0
 10
-31.3934
 20
61.578600000000002
 30
0.0
 10
-31.5426
 20
61.429400000000001
 30
0.0
 10
-31.662700000000001
 20
61.223800000000004
 30
0.0
 10
-31.753700000000002
 20
60.961800000000004
 30
0.0
 10
-31.753700000000002
 20
60.961800000000004
 30
0.0
 10
-31.8446
 20
60.701600000000006
 30
0.0
 10
-31.8901
 20
60.4086
 30
0.0
 10
-31.8901
 20
60.086500000000001
 30
0.0
 10
-31.8901
 20
60.086500000000001
 30
0.0
 10
-31.8901
 20
59.517000000000003
 30
0.0
 10
-31.760900000000003
 20
59.074800000000003
 30
0.0
 10
-31.5062
 20
58.758200000000002
 30
0.0
 10
-31.5062
 20
58.758200000000002
 30
0.0
 10
-31.309700000000003
 20
58.516200000000005
 30
0.0
 10
-31.051300000000001
 20
58.396100000000004
 30
0.0
 10
-30.727400000000003
 20
58.396100000000004
 30
0.0
 10
-30.727400000000003
 20
58.396100000000004
 30
0.0
 10
-30.534500000000001
 20
58.396100000000004
 30
0.0
 10
-30.363500000000002
 20
58.4452
 30
0.0
 10
-30.212400000000002
 20
58.545300000000005
 30
0.0
 10
-30.212400000000002
 20
58.545300000000005
 30
0.0
 10
-30.061400000000003
 20
58.645400000000002
 30
0.0
 10
-29.914000000000001
 20
58.823700000000002
 30
0.0
 10
-29.768500000000003
 20
59.0839
 30
0.0
 10
-29.768500000000003
 20
59.0839
 30
0.0
 10
-29.6647
 20
59.267700000000005
 30
0.0
 10
-29.460900000000002
 20
59.706200000000003
 30
0.0
 10
-29.155200000000001
 20
60.399500000000003
 30
0.0
 10
-29.155200000000001
 20
60.399500000000003
 30
0.0
 10
-28.906000000000002
 20
60.961800000000004
 30
0.0
 10
-28.711300000000001
 20
61.349299999999999
 30
0.0
 10
-28.567500000000003
 20
61.562200000000004
 30
0.0
 10
-28.567500000000003
 20
61.562200000000004
 30
0.0
 10
-28.380100000000002
 20
61.8461
 30
0.0
 10
-28.1508
 20
62.064400000000006
 30
0.0
 10
-27.883300000000002
 20
62.217300000000002
 30
0.0
 10
-27.883300000000002
 20
62.217300000000002
 30
0.0
 10
-27.6158
 20
62.370100000000001
 30
0.0
 10
-27.310200000000002
 20
62.446600000000004
 30
0.0
 10
-26.969900000000003
 20
62.446600000000004
 30
0.0
 10
-26.969900000000003
 20
62.446600000000004
 30
0.0
 10
-26.5459
 20
62.446600000000004
 30
0.0
 10
-26.156500000000001
 20
62.319200000000002
 30
0.0
 10
-25.798100000000002
 20
62.0608
 30
0.0
 10
-25.798100000000002
 20
62.0608
 30
0.0
 10
-25.441400000000002
 20
61.802400000000006
 30
0.0
 10
-25.1648
 20
61.447600000000001
 30
0.0
 10
-24.970100000000002
 20
60.992700000000006
 30
0.0
 10
-24.970100000000002
 20
60.992700000000006
 30
0.0
 10
-24.773600000000002
 20
60.537800000000004
 30
0.0
 10
-24.677200000000003
 20
60.015600000000006
 30
0.0
 10
-24.677200000000003
 20
59.429600000000001
 30
0.0
 10
-24.677200000000003
 20
59.429600000000001
 30
0.0
 10
-24.677200000000003
 20
58.545300000000005
 30
0.0
 10
-24.870000000000001
 20
57.822900000000004
 30
0.0
 10
-25.255800000000001
 20
57.262500000000003
 30
0.0
 10
-25.255800000000001
 20
57.262500000000003
 30
0.0
 10
-25.6416
 20
56.703900000000004
 30
0.0
 10
-26.334800000000001
 20
56.421800000000005
 30
0.0
 10
-27.337400000000002
 20
56.418200000000006
 30
0.0
  0
SPLINE
  5
35
100
AcDbEntity
  8
Ebene 1
100
AcDbSpline
210
0.0
220
0.0
230
1.0
 70
     1
 71
     3
 72
    80
 73
    76
 74
     0
 42
0.0000000001
 43
0.0000000001
 40
0.0
 40
0.0
 40
0.0
 40
0.0
 40
0.0526315789473684
 40
0.0526315789473684
 40
0.0526315789473684
 40
0.0526315789473684
 40
0.1052631578947368
 40
0.1052631578947368
 40
0.1052631578947368
 40
0.1052631578947368
 40
0.1578947368421053
 40
0.1578947368421053
 40
0.1578947368421053
 40
0.1578947368421053
 40
0.2105263157894737
 40
0.2105263157894737
 40
0.2105263157894737
 40
0.2105263157894737
 40
0.2631578947368421
 40
0.2631578947368421
 40
0.2631578947368421
 40
0.2631578947368421
 40
0.3157894736842105
 40
0.3157894736842105
 40
0.3157894736842105
 40
0.3157894736842105
 40
0.3684210526315789
 40
0.3684210526315789
 40
0.3684210526315789
 40
0.3684210526315789
 40
0.4210526315789474
 40
0.4210526315789474
 40
0.4210526315789474
 40
0.4210526315789474
 40
0.4736842105263158
 40
0.4736842105263158
 40
0.4736842105263158
 40
0.4736842105263158
 40
0.5263157894736842
 40
0.5263157894736842
 40
0.5263157894736842
 40
0.5263157894736842
 40
0.5789473684210527
 40
0.5789473684210527
 40
0.5789473684210527
 40
0.5789473684210527
 40
0.631578947368421
 40
0.631578947368421
 40
0.631578947368421
 40
0.631578947368421
 40
0.6842105263157894
 40
0.6842105263157894
 40
0.6842105263157894
 40
0.6842105263157894
 40
0.7368421052631577
 40
0.7368421052631577
 40
0.7368421052631577
 40
0.7368421052631577
 40
0.7894736842105261
 40
0.7894736842105261
 40
0.7894736842105261
 40
0.7894736842105261
 40
0.8421052631578945
 40
0.8421052631578945
 40
0.8421052631578945
 40
0.8421052631578945
 40
0.8947368421052628
 40
0.8947368421052628
 40
0.8947368421052628
 40
0.8947368421052628
 40
0.9473684210526312
 40
0.9473684210526312
 40
0.9473684210526312
 40
0.9473684210526312
 40
1.0
 40
1.0
 40
1.0
 40
1.0
 10
-24.810000000000002
 20
63.412800000000004
 30
0.0
 10
-24.810000000000002
 20
63.412800000000004
 30
0.0
 10
-32.625300000000003
 20
65.043199999999999
 30
0.0
 10
-32.625300000000003
 20
65.043199999999999
 30
0.0
 10
-32.625300000000003
 20
65.043199999999999
 30
0.0
 10
-32.625300000000003
 20
65.043199999999999
 30
0.0
 10
-32.625300000000003
 20
66.327799999999996
 30
0.0
 10
-32.625300000000003
 20
66.327799999999996
 30
0.0
 10
-32.625300000000003
 20
66.327799999999996
 30
0.0
 10
-32.625300000000003
 20
66.327799999999996
 30
0.0
 10
-27.561300000000003
 20
67.117500000000007
 30
0.0
 10
-27.561300000000003
 20
67.117500000000007
 30
0.0
 10
-27.561300000000003
 20
67.117500000000007
 30
0.0
 10
-26.895300000000002
 20
67.219400000000007
 30
0.0
 10
-26.258400000000002
 20
67.288600000000002
 30
0.0
 10
-25.647000000000002
 20
67.319500000000005
 30
0.0
 10
-25.647000000000002
 20
67.319500000000005
 30
0.0
 10
-26.172900000000002
 20
67.536000000000001
 30
0.0
 10
-26.886200000000002
 20
67.898099999999999
 30
0.0
 10
-27.7851
 20
68.407600000000002
 30
0.0
 10
-27.7851
 20
68.407600000000002
 30
0.0
 10
-27.7851
 20
68.407600000000002
 30
0.0
 10
-32.625300000000003
 20
71.14800000000001
 30
0.0
 10
-32.625300000000003
 20
71.14800000000001
 30
0.0
 10
-32.625300000000003
 20
71.14800000000001
 30
0.0
 10
-32.625300000000003
 20
71.14800000000001
 30
0.0
 10
-32.625300000000003
 20
72.452600000000004
 30
0.0
 10
-32.625300000000003
 20
72.452600000000004
 30
0.0
 10
-32.625300000000003
 20
72.452600000000004
 30
0.0
 10
-32.625300000000003
 20
72.452600000000004
 30
0.0
 10
-24.810000000000002
 20
70.822299999999998
 30
0.0
 10
-24.810000000000002
 20
70.822299999999998
 30
0.0
 10
-24.810000000000002
 20
70.822299999999998
 30
0.0
 10
-24.810000000000002
 20
70.822299999999998
 30
0.0
 10
-24.810000000000002
 20
69.794200000000004
 30
0.0
 10
-24.810000000000002
 20
69.794200000000004
 30
0.0
 10
-24.810000000000002
 20
69.794200000000004
 30
0.0
 10
-24.810000000000002
 20
69.794200000000004
 30
0.0
 10
-28.6112
 20
70.609400000000008
 30
0.0
 10
-28.6112
 20
70.609400000000008
 30
0.0
 10
-28.6112
 20
70.609400000000008
 30
0.0
 10
-29.488200000000003
 20
70.796800000000005
 30
0.0
 10
-30.4726
 20
71.067900000000009
 30
0.0
 10
-31.564400000000003
 20
71.4191
 30
0.0
 10
-31.564400000000003
 20
71.4191
 30
0.0
 10
-31.056700000000003
 20
71.195300000000003
 30
0.0
 10
-30.509
 20
70.918700000000001
 30
0.0
 10
-29.923100000000002
 20
70.587500000000006
 30
0.0
 10
-29.923100000000002
 20
70.587500000000006
 30
0.0
 10
-29.923100000000002
 20
70.587500000000006
 30
0.0
 10
-24.810000000000002
 20
67.676100000000005
 30
0.0
 10
-24.810000000000002
 20
67.676100000000005
 30
0.0
 10
-24.810000000000002
 20
67.676100000000005
 30
0.0
 10
-24.810000000000002
 20
67.676100000000005
 30
0.0
 10
-24.810000000000002
 20
66.669899999999998
 30
0.0
 10
-24.810000000000002
 20
66.669899999999998
 30
0.0
 10
-24.810000000000002
 20
66.669899999999998
 30
0.0
 10
-24.810000000000002
 20
66.669899999999998
 30
0.0
 10
-29.821200000000001
 20
65.885599999999997
 30
0.0
 10
-29.821200000000001
 20
65.885599999999997
 30
0.0
 10
-29.821200000000001
 20
65.885599999999997
 30
0.0
 10
-30.279800000000002
 20
65.814700000000002
 30
0.0
 10
-30.814700000000002
 20
65.7637
 30
0.0
 10
-31.426100000000002
 20
65.731000000000009
 30
0.0
 10
-31.426100000000002
 20
65.731000000000009
 30
0.0
 10
-30.740100000000002
 20
65.641800000000003
 30
0.0
 10
-30.196100000000001
 20
65.554500000000004
 30
0.0
 10
-29.793900000000001
 20
65.470799999999997
 30
0.0
 10
-29.793900000000001
 20
65.470799999999997
 30
0.0
 10
-29.793900000000001
 20
65.470799999999997
 30
0.0
 10
-24.810000000000002
 20
64.429900000000004
 30
0.0
 10
-24.810000000000002
 20
64.429900000000004
 30
0.0
 10
-24.810000000000002
 20
64.429900000000004
 30
0.0
 10
-24.810000000000002
 20
64.429900000000004
 30
0.0
 10
-24.810000000000002
 20
63.412800000000004
 30
0.0
 10
-24.810000000000002
 20
63.412800000000004
 30
0.0
  0
SPLINE
  5
36
100
AcDbEntity
  8
Ebene 1
100
AcDbSpline
210
0.0
220
0.0
230
1.0
 70
     1
 71
     3
 72
    28
 73
    24
 74
     0
 42
0.0000000001
 43
0.0000000001
 40
0.0
 40
0.0
 40
0.0
 40
0.0
 40
0.1666666666666667
 40
0.1666666666666667
 40
0.1666666666666667
 40
0.1666666666666667
 40
0.3333333333333333
 40
0.3333333333333333
 40
0.3333333333333333
 40
0.3333333333333333
 40
0.5
 40
0.5
 40
0.5
 40
0.5
 40
0.6666666666666666
 40
0.6666666666666666
 40
0.6666666666666666
 40
0.6666666666666666
 40
0.8333333333333333
 40
0.8333333333333333
 40
0.8333333333333333
 40
0.8333333333333333
 40
1.0
 40
1.0
 40
1.0
 40
1.0
 10
-24.810000000000002
 20
72.46350000000001
 30
0.0
 10
-24.810000000000002
 20
72.46350000000001
 30
0.0
 10
-32.625300000000003
 20
74.095700000000008
 30
0.0
 10
-32.625300000000003
 20
74.095700000000008
 30
0.0
 10
-32.625300000000003
 20
74.095700000000008
 30
0.0
 10
-32.625300000000003
 20
74.095700000000008
 30
0.0
 10
-32.625300000000003
 20
75.140200000000007
 30
0.0
 10
-32.625300000000003
 20
75.140200000000007
 30
0.0
 10
-32.625300000000003
 20
75.140200000000007
 30
0.0
 10
-32.625300000000003
 20
75.140200000000007
 30
0.0
 10
-25.694300000000002
 20
73.695400000000006
 30
0.0
 10
-25.694300000000002
 20
73.695400000000006
 30
0.0
 10
-25.694300000000002
 20
73.695400000000006
 30
0.0
 10
-25.694300000000002
 20
73.695400000000006
 30
0.0
 10
-25.694300000000002
 20
77.751300000000001
 30
0.0
 10
-25.694300000000002
 20
77.751300000000001
 30
0.0
 10
-25.694300000000002
 20
77.751300000000001
 30
0.0
 10
-25.694300000000002
 20
77.751300000000001
 30
0.0
 10
-24.810000000000002
 20
77.565700000000007
 30
0.0
 10
-24.810000000000002
 20
77.565700000000007
 30
0.0
 10
-24.810000000000002
 20
77.565700000000007
 30
0.0
 10
-24.810000000000002
 20
77.565700000000007
 30
0.0
 10
-24.810000000000002
 20
72.46350000000001
 30
0.0
 10
-24.810000000000002
 20
72.46350000000001
 30
0.0
  0
SPLINE
  5
37
100
AcDbEntity
  8
Ebene 1
100
AcDbSpline
210
0.0
220
0.0
230
1.0
 70
     1
 71
     3
 72
    44
 73
    40
 74
     0
 42
0.0000000001
 43
0.0000000001
 40
0.0
 40
0.0
 40
0.0
 40
0.0
 40
0.1
 40
0.1
 40
0.1
 40
0.1
 40
0.2
 40
0.2
 40
0.2
 40
0.2
 40
0.3
 40
0.3
 40
0.3
 40
0.3
 40
0.4
 40
0.4
 40
0.4
 40
0.4
 40
0.5
 40
0.5
 40
0.5
 40
0.5
 40
0.6
 40
0.6
 40
0.6
 40
0.6
 40
0.7
 40
0.7
 40
0.7
 40
0.7
 40
0.7999999999999999
 40
0.7999999999999999
 40
0.7999999999999999
 40
0.7999999999999999
 40
0.8999999999999999
 40
0.8999999999999999
 40
0.8999999999999999
 40
0.8999999999999999
 40
1.0
 40
1.0
 40
1.0
 40
1.0
 10
-32.758099999999999
 20
80.2624
 30
0.0
 10
-31.535300000000003
 20
80.824700000000007
 30
0.0
 10
-30.281600000000001
 20
81.104900000000001
 30
0.0
 10
-28.995100000000001
 20
81.104900000000001
 30
0.0
 10
-28.995100000000001
 20
81.104900000000001
 30
0.0
 10
-28.130800000000001
 20
81.104900000000001
 30
0.0
 10
-27.330200000000001
 20
80.992100000000008
 30
0.0
 10
-26.5914
 20
80.766500000000008
 30
0.0
 10
-26.5914
 20
80.766500000000008
 30
0.0
 10
-25.8508
 20
80.540800000000004
 30
0.0
 10
-25.1175
 20
80.196899999999999
 30
0.0
 10
-24.389700000000001
 20
79.734700000000004
 30
0.0
 10
-24.389700000000001
 20
79.734700000000004
 30
0.0
 10
-23.9057
 20
79.42540000000001
 30
0.0
 10
-23.279700000000002
 20
78.937700000000007
 30
0.0
 10
-22.511800000000001
 20
78.269900000000007
 30
0.0
 10
-22.511800000000001
 20
78.269900000000007
 30
0.0
 10
-22.511800000000001
 20
78.269900000000007
 30
0.0
 10
-22.511800000000001
 20
77.5184
 30
0.0
 10
-22.511800000000001
 20
77.5184
 30
0.0
 10
-22.511800000000001
 20
77.5184
 30
0.0
 10
-22.959400000000002
 20
77.929699999999997
 30
0.0
 10
-23.587200000000003
 20
78.368200000000002
 30
0.0
 10
-24.3933
 20
78.834000000000003
 30
0.0
 10
-24.3933
 20
78.834000000000003
 30
0.0
 10
-25.2012
 20
79.299800000000005
 30
0.0
 10
-25.992800000000003
 20
79.636499999999998
 30
0.0
 10
-26.7697
 20
79.843900000000005
 30
0.0
 10
-26.7697
 20
79.843900000000005
 30
0.0
 10
-27.544900000000002
 20
80.053200000000004
 30
0.0
 10
-28.3291
 20
80.156900000000007
 30
0.0
 10
-29.117000000000001
 20
80.156900000000007
 30
0.0
 10
-29.117000000000001
 20
80.156900000000007
 30
0.0
 10
-30.290700000000001
 20
80.156900000000007
 30
0.0
 10
-31.5044
 20
79.953100000000006
 30
0.0
 10
-32.758099999999999
 20
79.543700000000001
 30
0.0
 10
-32.758099999999999
 20
79.543700000000001
 30
0.0
 10
-32.758099999999999
 20
79.543700000000001
 30
0.0
 10
-32.758099999999999
 20
80.2624
 30
0.0
 10
-32.758099999999999
 20
80.2624
 30
0.0
  0
SPLINE
  5
39
100
AcDbEntity
  8
LC-001-002-----0
370
    35
100
AcDbSpline
210
0.0
220
0.0
230
1.0
 70
     0
 71
     3
 72
     8
 73
     4
 74
     0
 42
0.0000000001
 43
0.0000000001
 40
0.0
 40
0.0
 40
0.0
 40
0.0
 40
1.0
 40
1.0
 40
1.0
 40
1.0
 10
-35.860700000000001
 20
9.3924000000000003
 30
0.0
 10
-35.860700000000001
 20
9.3924000000000003
 30
0.0
 10
-48.627800000000001
 20
9.3922000000000008
 30
0.0
 10
-48.627800000000001
 20
9.3922000000000008
 30
0.0
  0
SPLINE
  5
3A
100
AcDbEntity
  8
LC-001-002-----0
370
    35
100
AcDbSpline
210
0.0
220
0.0
230
1.0
 70
     0
 71
     3
 72
     8
 73
     4
 74
     0
 42
0.0000000001
 43
0.0000000001
 40
0.0
 40
0.0
 40
0.0
 40
0.0
 40
1.0
 40
1.0
 40
1.0
 40
1.0
 10
-41.332300000000004
 20
-28.440300000000001
 30
0.0
 10
-41.332300000000004
 20
-28.440300000000001
 30
0.0
 10
-41.332500000000003
 20
7.7844000000000007
 30
0.0
 10
-41.332500000000003
 20
7.7844000000000007
 30
0.0
  0
SPLINE
  5
3B
100
AcDbEntity
  8
LC-001-002-----0
370
    35
100
AcDbSpline
210
0.0
220
0.0
230
1.0
 70
     0
 71
     3
 72
     8
 73
     4
 74
     0
 42
0.0000000001
 43
0.0000000001
 40
0.0
 40
0.0
 40
0.0
 40
0.0
 40
1.0
 40
1.0
 40
1.0
 40
1.0
 10
-46.195900000000002
 20
-37.654800000000002
 30
0.0
 10
-46.195900000000002
 20
-37.654800000000002
 30
0.0
 10
-46.196000000000005
 20
7.7844000000000007
 30
0.0
 10
-46.196000000000005
 20
7.7844000000000007
 30
0.0
  0
SPLINE
  5
3C
100
AcDbEntity
  8
LC-001-002-----0
370
    35
100
AcDbSpline
210
0.0
220
0.0
230
1.0
 70
     0
 71
     3
 72
     8
 73
     4
 74
     0
 42
0.0000000001
 43
0.0000000001
 40
0.0
 40
0.0
 40
0.0
 40
0.0
 40
1.0
 40
1.0
 40
1.0
 40
1.0
 10
-35.860900000000001
 20
-40.4786
 30
0.0
 10
-35.860900000000001
 20
-40.4786
 30
0.0
 10
-35.860900000000001
 20
-39.262700000000002
 30
0.0
 10
-35.860900000000001
 20
-39.262700000000002
 30
0.0
  0
SPLINE
  5
3D
100
AcDbEntity
  8
LC-001-002-----0
370
    35
100
AcDbSpline
210
0.0
220
0.0
230
1.0
 70
     0
 71
     3
 72
     8
 73
     4
 74
     0
 42
0.0000000001
 43
0.0000000001
 40
0.0
 40
0.0
 40
0.0
 40
0.0
 40
1.0
 40
1.0
 40
1.0
 40
1.0
 10
-35.860900000000001
 20
-39.262700000000002
 30
0.0
 10
-35.860900000000001
 20
-39.262700000000002
 30
0.0
 10
-48.627600000000001
 20
-39.262799999999999
 30
0.0
 10
-48.627600000000001
 20
-39.262799999999999
 30
0.0
  0
SPLINE
  5
3E
100
AcDbEntity
  8
LC-001-002-----0
370
    35
100
AcDbSpline
210
0.0
220
0.0
230
1.0
 70
     0
 71
     3
 72
     8
 73
     4
 74
     0
 42
0.0000000001
 43
0.0000000001
 40
0.0
 40
0.0
 40
0.0
 40
0.0
 40
1.0
 40
1.0
 40
1.0
 40
1.0
 10
-41.332300000000004
 20
-28.440300000000001
 30
0.0
 10
-41.332300000000004
 20
-28.440300000000001
 30
0.0
 10
-41.332300000000004
 20
-37.654800000000002
 30
0.0
 10
-41.332300000000004
 20
-37.654800000000002
 30
0.0
  0
SPLINE
  5
3F
100
AcDbEntity
  8
LC-001-002-----0
370
    35
100
AcDbSpline
210
0.0
220
0.0
230
1.0
 70
     0
 71
     3
 72
     8
 73
     4
 74
     0
 42
0.0000000001
 43
0.0000000001
 40
0.0
 40
0.0
 40
0.0
 40
0.0
 40
1.0
 40
1.0
 40
1.0
 40
1.0
 10
-43.764200000000002
 20
-34.9056
 30
0.0
 10
-43.764200000000002
 20
-34.9056
 30
0.0
 10
-42.063800000000001
 20
-37.8508
 30
0.0
 10
-42.063800000000001
 20
-37.8508
 30
0.0
  0
SPLINE
  5
40
100
AcDbEntity
  8
LC-001-002-----0
370
    35
100
AcDbSpline
210
0.0
220
0.0
230
1.0
 70
     0
 71
     3
 72
     8
 73
     4
 74
     0
 42
0.0000000001
 43
0.0000000001
 40
0.0
 40
0.0
 40
0.0
 40
0.0
 40
1.0
 40
1.0
 40
1.0
 40
1.0
 10
-39.632000000000005
 20
-37.8508
 30
0.0
 10
-39.632000000000005
 20
-37.8508
 30
0.0
 10
-41.332300000000004
 20
-34.905700000000003
 30
0.0
 10
-41.332300000000004
 20
-34.905700000000003
 30
0.0
  0
SPLINE
  5
41
100
AcDbEntity
  8
LC-001-002-----0
370
    35
100
AcDbSpline
210
0.0
220
0.0
230
1.0
 70
     0
 71
     3
 72
     8
 73
     4
 74
     0
 42
0.0000000001
 43
0.0000000001
 40
0.0
 40
0.0
 40
0.0
 40
0.0
 40
1.0
 40
1.0
 40
1.0
 40
1.0
 10
-35.455600000000004
 20
-40.4786
 30
0.0
 10
-34.783999999999999
 20
-40.4786
 30
0.0
 10
-34.239699999999999
 20
-39.9343
 30
0.0
 10
-34.239699999999999
 20
-39.262700000000002
 30
0.0
  0
SPLINE
  5
42
100
AcDbEntity
  8
LC-001-002-----0
370
    35
100
AcDbSpline
210
0.0
220
0.0
230
1.0
 70
     0
 71
     3
 72
     8
 73
     4
 74
     0
 42
0.0000000001
 43
0.0000000001
 40
0.0
 40
0.0
 40
0.0
 40
0.0
 40
1.0
 40
1.0
 40
1.0
 40
1.0
 10
-34.239600000000003
 20
9.3925000000000001
 30
0.0
 10
-34.239600000000003
 20
10.064
 30
0.0
 10
-34.783900000000003
 20
10.608400000000001
 30
0.0
 10
-35.455500000000001
 20
10.608400000000001
 30
0.0
  0
SPLINE
  5
43
100
AcDbEntity
  8
LC-001-002-----0
370
    35
100
AcDbSpline
210
0.0
220
0.0
230
1.0
 70
     0
 71
     3
 72
     8
 73
     4
 74
     0
 42
0.0000000001
 43
0.0000000001
 40
0.0
 40
0.0
 40
0.0
 40
0.0
 40
1.0
 40
1.0
 40
1.0
 40
1.0
 10
-35.860700000000001
 20
10.608400000000001
 30
0.0
 10
-35.860700000000001
 20
10.608400000000001
 30
0.0
 10
-35.860700000000001
 20
9.3925000000000001
 30
0.0
 10
-35.860700000000001
 20
9.3925000000000001
 30
0.0
  0
SPLINE
  5
44
100
AcDbEntity
  8
LC-001-002-----0
370
    35
100
AcDbSpline
210
0.0
220
0.0
230
1.0
 70
     0
 71
     3
 72
     8
 73
     4
 74
     0
 42
0.0000000001
 43
0.0000000001
 40
0.0
 40
0.0
 40
0.0
 40
0.0
 40
1.0
 40
1.0
 40
1.0
 40
1.0
 10
-35.860900000000001
 20
-40.4786
 30
0.0
 10
-35.860900000000001
 20
-40.4786
 30
0.0
 10
-35.455600000000004
 20
-40.4786
 30
0.0
 10
-35.455600000000004
 20
-40.4786
 30
0.0
  0
SPLINE
  5
45
100
AcDbEntity
  8
LC-001-002-----0
370
    35
100
AcDbSpline
210
0.0
220
0.0
230
1.0
 70
     0
 71
     3
 72
     8
 73
     4
 74
     0
 42
0.0000000001
 43
0.0000000001
 40
0.0
 40
0.0
 40
0.0
 40
0.0
 40
1.0
 40
1.0
 40
1.0
 40
1.0
 10
-35.455400000000004
 20
10.608400000000001
 30
0.0
 10
-35.455400000000004
 20
10.608400000000001
 30
0.0
 10
-35.860700000000001
 20
10.608400000000001
 30
0.0
 10
-35.860700000000001
 20
10.608400000000001
 30
0.0
  0
SPLINE
  5
46
100
AcDbEntity
  8
LC-001-002-----0
370
    35
100
AcDbSpline
210
0.0
220
0.0
230
1.0
 70
     0
 71
     3
 72
     8
 73
     4
 74
     0
 42
0.0000000001
 43
0.0000000001
 40
0.0
 40
0.0
 40
0.0
 40
0.0
 40
1.0
 40
1.0
 40
1.0
 40
1.0
 10
-48.640000000000001
 20
-4.3836000000000004
 30
0.0
 10
-48.640000000000001
 20
-4.3836000000000004
 30
0.0
 10
-48.640100000000004
 20
7.7632000000000003
 30
0.0
 10
-48.640100000000004
 20
7.7632000000000003
 30
0.0
  0
SPLINE
  5
47
100
AcDbEntity
  8
LC-001-002-----0
370
    35
100
AcDbSpline
210
0.0
220
0.0
230
1.0
 70
     0
 71
     3
 72
     8
 73
     4
 74
     0
 42
0.0000000001
 43
0.0000000001
 40
0.0
 40
0.0
 40
0.0
 40
0.0
 40
1.0
 40
1.0
 40
1.0
 40
1.0
 10
-51.084000000000003
 20
-37.697400000000002
 30
0.0
 10
-51.084000000000003
 20
-37.697400000000002
 30
0.0
 10
-51.084099999999999
 20
7.7419000000000002
 30
0.0
 10
-51.084099999999999
 20
7.7419000000000002
 30
0.0
  0
SPLINE
  5
48
100
AcDbEntity
  8
LC-001-002-----0
370
    35
100
AcDbSpline
210
0.0
220
0.0
230
1.0
 70
     0
 71
     3
 72
     8
 73
     4
 74
     0
 42
0.0000000001
 43
0.0000000001
 40
0.0
 40
0.0
 40
0.0
 40
0.0
 40
1.0
 40
1.0
 40
1.0
 40
1.0
 10
-51.815400000000004
 20
-37.893300000000004
 30
0.0
 10
-51.815400000000004
 20
-37.893300000000004
 30
0.0
 10
-53.530000000000001
 20
-34.9238
 30
0.0
 10
-53.530000000000001
 20
-34.9238
 30
0.0
  0
SPLINE
  5
49
100
AcDbEntity
  8
LC-001-002-----0
370
    35
100
AcDbSpline
210
0.0
220
0.0
230
1.0
 70
     0
 71
     3
 72
     8
 73
     4
 74
     0
 42
0.0000000001
 43
0.0000000001
 40
0.0
 40
0.0
 40
0.0
 40
0.0
 40
1.0
 40
1.0
 40
1.0
 40
1.0
 10
-53.528300000000002
 20
8.1339000000000006
 30
0.0
 10
-53.528300000000002
 20
8.1339000000000006
 30
0.0
 10
-54.278300000000002
 20
8.1339000000000006
 30
0.0
 10
-54.278300000000002
 20
8.1339000000000006
 30
0.0
  0
SPLINE
  5
4A
100
AcDbEntity
  8
LC-001-002-----0
370
    35
100
AcDbSpline
210
0.0
220
0.0
230
1.0
 70
     0
 71
     3
 72
     8
 73
     4
 74
     0
 42
0.0000000001
 43
0.0000000001
 40
0.0
 40
0.0
 40
0.0
 40
0.0
 40
1.0
 40
1.0
 40
1.0
 40
1.0
 10
-54.278300000000002
 20
8.1339000000000006
 30
0.0
 10
-54.278300000000002
 20
8.1339000000000006
 30
0.0
 10
-54.278300000000002
 20
-30.943300000000001
 30
0.0
 10
-54.278300000000002
 20
-30.943300000000001
 30
0.0
  0
SPLINE
  5
4B
100
AcDbEntity
  8
LC-001-002-----0
370
    35
100
AcDbSpline
210
0.0
220
0.0
230
1.0
 70
     0
 71
     3
 72
     8
 73
     4
 74
     0
 42
0.0000000001
 43
0.0000000001
 40
0.0
 40
0.0
 40
0.0
 40
0.0
 40
1.0
 40
1.0
 40
1.0
 40
1.0
 10
-55.482500000000002
 20
7.5380000000000003
 30
0.0
 10
-55.482500000000002
 20
7.5380000000000003
 30
0.0
 10
-54.278300000000002
 20
7.5380000000000003
 30
0.0
 10
-54.278300000000002
 20
7.5380000000000003
 30
0.0
  0
SPLINE
  5
4C
100
AcDbEntity
  8
LC-001-002-----0
370
    35
100
AcDbSpline
210
0.0
220
0.0
230
1.0
 70
     0
 71
     3
 72
     8
 73
     4
 74
     0
 42
0.0000000001
 43
0.0000000001
 40
0.0
 40
0.0
 40
0.0
 40
0.0
 40
1.0
 40
1.0
 40
1.0
 40
1.0
 10
-53.528000000000006
 20
-38.0045
 30
0.0
 10
-53.528000000000006
 20
-38.0045
 30
0.0
 10
-54.278100000000002
 20
-38.0045
 30
0.0
 10
-54.278100000000002
 20
-38.0045
 30
0.0
  0
SPLINE
  5
4D
100
AcDbEntity
  8
LC-001-002-----0
370
    35
100
AcDbSpline
210
0.0
220
0.0
230
1.0
 70
     0
 71
     3
 72
     8
 73
     4
 74
     0
 42
0.0000000001
 43
0.0000000001
 40
0.0
 40
0.0
 40
0.0
 40
0.0
 40
1.0
 40
1.0
 40
1.0
 40
1.0
 10
-54.278100000000002
 20
-38.0045
 30
0.0
 10
-54.278100000000002
 20
-38.0045
 30
0.0
 10
-54.278200000000005
 20
-30.943300000000001
 30
0.0
 10
-54.278200000000005
 20
-30.943300000000001
 30
0.0
  0
SPLINE
  5
4E
100
AcDbEntity
  8
LC-001-002-----0
370
    35
100
AcDbSpline
210
0.0
220
0.0
230
1.0
 70
     0
 71
     3
 72
     8
 73
     4
 74
     0
 42
0.0000000001
 43
0.0000000001
 40
0.0
 40
0.0
 40
0.0
 40
0.0
 40
1.0
 40
1.0
 40
1.0
 40
1.0
 10
-36.093299999999999
 20
9.5853999999999999
 30
0.0
 10
-36.093299999999999
 20
9.5853999999999999
 30
0.0
 10
-48.627800000000001
 20
9.5852000000000004
 30
0.0
 10
-48.627800000000001
 20
9.5852000000000004
 30
0.0
  0
SPLINE
  5
4F
100
AcDbEntity
  8
LC-001-002-----0
370
    35
100
AcDbSpline
210
0.0
220
0.0
230
1.0
 70
     0
 71
     3
 72
     8
 73
     4
 74
     0
 42
0.0000000001
 43
0.0000000001
 40
0.0
 40
0.0
 40
0.0
 40
0.0
 40
1.0
 40
1.0
 40
1.0
 40
1.0
 10
-36.093200000000003
 20
-39.4557
 30
0.0
 10
-36.093200000000003
 20
-39.4557
 30
0.0
 10
-48.627600000000001
 20
-39.455800000000004
 30
0.0
 10
-48.627600000000001
 20
-39.455800000000004
 30
0.0
  0
SPLINE
  5
50
100
AcDbEntity
  8
LC-001-002-----0
370
    35
100
AcDbSpline
210
0.0
220
0.0
230
1.0
 70
     0
 71
     3
 72
     8
 73
     4
 74
     0
 42
0.0000000001
 43
0.0000000001
 40
0.0
 40
0.0
 40
0.0
 40
0.0
 40
1.0
 40
1.0
 40
1.0
 40
1.0
 10
-89.244399999999999
 20
-35.586100000000002
 30
0.0
 10
-89.244399999999999
 20
-35.586100000000002
 30
0.0
 10
-88.086399999999998
 20
-35.586100000000002
 30
0.0
 10
-88.086399999999998
 20
-35.586100000000002
 30
0.0
  0
SPLINE
  5
51
100
AcDbEntity
  8
LC-001-002-----0
370
    35
100
AcDbSpline
210
0.0
220
0.0
230
1.0
 70
     0
 71
     3
 72
     8
 73
     4
 74
     0
 42
0.0000000001
 43
0.0000000001
 40
0.0
 40
0.0
 40
0.0
 40
0.0
 40
1.0
 40
1.0
 40
1.0
 40
1.0
 10
-88.086399999999998
 20
-36.261700000000005
 30
0.0
 10
-88.086399999999998
 20
-36.901299999999999
 30
0.0
 10
-87.567999999999998
 20
-37.419699999999999
 30
0.0
 10
-86.928400000000011
 20
-37.419699999999999
 30
0.0
  0
SPLINE
  5
52
100
AcDbEntity
  8
LC-001-002-----0
370
    35
100
AcDbSpline
210
0.0
220
0.0
230
1.0
 70
     0
 71
     3
 72
     8
 73
     4
 74
     0
 42
0.0000000001
 43
0.0000000001
 40
0.0
 40
0.0
 40
0.0
 40
0.0
 40
1.0
 40
1.0
 40
1.0
 40
1.0
 10
-86.928400000000011
 20
-36.261700000000005
 30
0.0
 10
-86.928400000000011
 20
-36.261700000000005
 30
0.0
 10
-83.840500000000006
 20
-36.261700000000005
 30
0.0
 10
-83.840500000000006
 20
-36.261700000000005
 30
0.0
  0
SPLINE
  5
53
100
AcDbEntity
  8
LC-001-002-----0
370
    35
100
AcDbSpline
210
0.0
220
0.0
230
1.0
 70
     0
 71
     3
 72
     8
 73
     4
 74
     0
 42
0.0000000001
 43
0.0000000001
 40
0.0
 40
0.0
 40
0.0
 40
0.0
 40
1.0
 40
1.0
 40
1.0
 40
1.0
 10
-82.296500000000009
 20
-35.586300000000001
 30
0.0
 10
-82.296500000000009
 20
-35.586300000000001
 30
0.0
 10
-82.682500000000005
 20
-35.586300000000001
 30
0.0
 10
-82.682500000000005
 20
-35.586300000000001
 30
0.0
  0
SPLINE
  5
54
100
AcDbEntity
  8
LC-001-002-----0
370
    35
100
AcDbSpline
210
0.0
220
0.0
230
1.0
 70
     0
 71
     3
 72
    12
 73
     8
 74
     0
 42
0.0000000001
 43
0.0000000001
 40
0.0
 40
0.0
 40
0.0
 40
0.0
 40
0.5
 40
0.5
 40
0.5
 40
0.5
 40
1.0
 40
1.0
 40
1.0
 40
1.0
 10
-83.840500000000006
 20
-37.419699999999999
 30
0.0
 10
-83.5334
 20
-37.419699999999999
 30
0.0
 10
-83.238799999999998
 20
-37.297699999999999
 30
0.0
 10
-83.021600000000007
 20
-37.080500000000001
 30
0.0
 10
-83.021600000000007
 20
-37.080500000000001
 30
0.0
 10
-82.804400000000001
 20
-36.863300000000002
 30
0.0
 10
-82.682500000000005
 20
-36.568800000000003
 30
0.0
 10
-82.682500000000005
 20
-36.261700000000005
 30
0.0
  0
SPLINE
  5
55
100
AcDbEntity
  8
LC-001-002-----0
370
    35
100
AcDbSpline
210
0.0
220
0.0
230
1.0
 70
     0
 71
     3
 72
     8
 73
     4
 74
     0
 42
0.0000000001
 43
0.0000000001
 40
0.0
 40
0.0
 40
0.0
 40
0.0
 40
1.0
 40
1.0
 40
1.0
 40
1.0
 10
-86.928400000000011
 20
-37.419699999999999
 30
0.0
 10
-86.928400000000011
 20
-37.419699999999999
 30
0.0
 10
-83.840500000000006
 20
-37.419699999999999
 30
0.0
 10
-83.840500000000006
 20
-37.419699999999999
 30
0.0
  0
SPLINE
  5
56
100
AcDbEntity
  8
LC-001-002-----0
370
    35
100
AcDbSpline
210
0.0
220
0.0
230
1.0
 70
     0
 71
     3
 72
     8
 73
     4
 74
     0
 42
0.0000000001
 43
0.0000000001
 40
0.0
 40
0.0
 40
0.0
 40
0.0
 40
1.0
 40
1.0
 40
1.0
 40
1.0
 10
-55.4696
 20
10.7432
 30
0.0
 10
-56.322400000000002
 20
10.7432
 30
0.0
 10
-57.013600000000004
 20
10.052
 30
0.0
 10
-57.013600000000004
 20
9.1992000000000012
 30
0.0
  0
SPLINE
  5
57
100
AcDbEntity
  8
LC-001-002-----0
370
    35
100
AcDbSpline
210
0.0
220
0.0
230
1.0
 70
     0
 71
     3
 72
     8
 73
     4
 74
     0
 42
0.0000000001
 43
0.0000000001
 40
0.0
 40
0.0
 40
0.0
 40
0.0
 40
1.0
 40
1.0
 40
1.0
 40
1.0
 10
-36.093299999999999
 20
10.743400000000001
 30
0.0
 10
-36.093299999999999
 20
10.743400000000001
 30
0.0
 10
-55.4696
 20
10.7432
 30
0.0
 10
-55.4696
 20
10.7432
 30
0.0
  0
SPLINE
  5
58
100
AcDbEntity
  8
LC-001-002-----0
370
    35
100
AcDbSpline
210
0.0
220
0.0
230
1.0
 70
     0
 71
     3
 72
     8
 73
     4
 74
     0
 42
0.0000000001
 43
0.0000000001
 40
0.0
 40
0.0
 40
0.0
 40
0.0
 40
1.0
 40
1.0
 40
1.0
 40
1.0
 10
-57.013500000000001
 20
-39.069800000000001
 30
0.0
 10
-57.013500000000001
 20
-39.922400000000003
 30
0.0
 10
-56.322200000000002
 20
-40.613800000000005
 30
0.0
 10
-55.469500000000004
 20
-40.613800000000005
 30
0.0
  0
SPLINE
  5
59
100
AcDbEntity
  8
LC-001-002-----0
370
    35
100
AcDbSpline
210
0.0
220
0.0
230
1.0
 70
     0
 71
     3
 72
     8
 73
     4
 74
     0
 42
0.0000000001
 43
0.0000000001
 40
0.0
 40
0.0
 40
0.0
 40
0.0
 40
1.0
 40
1.0
 40
1.0
 40
1.0
 10
-36.093200000000003
 20
-40.613700000000001
 30
0.0
 10
-36.093200000000003
 20
-40.613700000000001
 30
0.0
 10
-55.469500000000004
 20
-40.613800000000005
 30
0.0
 10
-55.469500000000004
 20
-40.613800000000005
 30
0.0
  0
SPLINE
  5
5A
100
AcDbEntity
  8
LC-001-002-----0
370
    35
100
AcDbSpline
210
0.0
220
0.0
230
1.0
 70
     0
 71
     3
 72
     8
 73
     4
 74
     0
 42
0.0000000001
 43
0.0000000001
 40
0.0
 40
0.0
 40
0.0
 40
0.0
 40
1.0
 40
1.0
 40
1.0
 40
1.0
 10
-36.469000000000001
 20
5.0354000000000001
 30
0.0
 10
-36.469000000000001
 20
5.0354000000000001
 30
0.0
 10
-34.239600000000003
 20
9.3925000000000001
 30
0.0
 10
-34.239600000000003
 20
9.3925000000000001
 30
0.0
  0
SPLINE
  5
5B
100
AcDbEntity
  8
LC-001-002-----0
370
    35
100
AcDbSpline
210
0.0
220
0.0
230
1.0
 70
     0
 71
     3
 72
     8
 73
     4
 74
     0
 42
0.0000000001
 43
0.0000000001
 40
0.0
 40
0.0
 40
0.0
 40
0.0
 40
1.0
 40
1.0
 40
1.0
 40
1.0
 10
-36.468900000000005
 20
-37.654800000000002
 30
0.0
 10
-36.468900000000005
 20
-37.654800000000002
 30
0.0
 10
-36.469000000000001
 20
7.7844000000000007
 30
0.0
 10
-36.469000000000001
 20
7.7844000000000007
 30
0.0
  0
SPLINE
  5
5C
100
AcDbEntity
  8
LC-001-002-----0
370
    35
100
AcDbSpline
210
0.0
220
0.0
230
1.0
 70
     0
 71
     3
 72
     8
 73
     4
 74
     0
 42
0.0000000001
 43
0.0000000001
 40
0.0
 40
0.0
 40
0.0
 40
0.0
 40
1.0
 40
1.0
 40
1.0
 40
1.0
 10
-43.764200000000002
 20
5.0353000000000003
 30
0.0
 10
-43.764200000000002
 20
5.0353000000000003
 30
0.0
 10
-42.063900000000004
 20
7.9804000000000004
 30
0.0
 10
-42.063900000000004
 20
7.9804000000000004
 30
0.0
  0
SPLINE
  5
5D
100
AcDbEntity
  8
LC-001-002-----0
370
    35
100
AcDbSpline
210
0.0
220
0.0
230
1.0
 70
     0
 71
     3
 72
     8
 73
     4
 74
     0
 42
0.0000000001
 43
0.0000000001
 40
0.0
 40
0.0
 40
0.0
 40
0.0
 40
1.0
 40
1.0
 40
1.0
 40
1.0
 10
-44.495699999999999
 20
7.9804000000000004
 30
0.0
 10
-44.495699999999999
 20
7.9804000000000004
 30
0.0
 10
-46.196000000000005
 20
5.0353000000000003
 30
0.0
 10
-46.196000000000005
 20
5.0353000000000003
 30
0.0
  0
SPLINE
  5
5E
100
AcDbEntity
  8
LC-001-002-----0
370
    35
100
AcDbSpline
210
0.0
220
0.0
230
1.0
 70
     0
 71
     3
 72
     8
 73
     4
 74
     0
 42
0.0000000001
 43
0.0000000001
 40
0.0
 40
0.0
 40
0.0
 40
0.0
 40
1.0
 40
1.0
 40
1.0
 40
1.0
 10
-46.927500000000002
 20
7.9804000000000004
 30
0.0
 10
-46.927500000000002
 20
7.9804000000000004
 30
0.0
 10
-48.640100000000004
 20
5.0141
 30
0.0
 10
-48.640100000000004
 20
5.0141
 30
0.0
  0
SPLINE
  5
5F
100
AcDbEntity
  8
LC-001-002-----0
370
    35
100
AcDbSpline
210
0.0
220
0.0
230
1.0
 70
     0
 71
     3
 72
     8
 73
     4
 74
     0
 42
0.0000000001
 43
0.0000000001
 40
0.0
 40
0.0
 40
0.0
 40
0.0
 40
1.0
 40
1.0
 40
1.0
 40
1.0
 10
-49.371500000000005
 20
7.9592000000000001
 30
0.0
 10
-49.371500000000005
 20
7.9592000000000001
 30
0.0
 10
-51.084099999999999
 20
4.9927999999999999
 30
0.0
 10
-51.084099999999999
 20
4.9927999999999999
 30
0.0
  0
SPLINE
  5
60
100
AcDbEntity
  8
LC-001-002-----0
370
    35
100
AcDbSpline
210
0.0
220
0.0
230
1.0
 70
     0
 71
     3
 72
     8
 73
     4
 74
     0
 42
0.0000000001
 43
0.0000000001
 40
0.0
 40
0.0
 40
0.0
 40
0.0
 40
1.0
 40
1.0
 40
1.0
 40
1.0
 10
-41.332500000000003
 20
-1.4301000000000001
 30
0.0
 10
-41.332500000000003
 20
-1.4301000000000001
 30
0.0
 10
-41.3324
 20
-31.189400000000003
 30
0.0
 10
-41.3324
 20
-31.189400000000003
 30
0.0
  0
SPLINE
  5
61
100
AcDbEntity
  8
LC-001-002-----0
370
    35
100
AcDbSpline
210
0.0
220
0.0
230
1.0
 70
     0
 71
     3
 72
     8
 73
     4
 74
     0
 42
0.0000000001
 43
0.0000000001
 40
0.0
 40
0.0
 40
0.0
 40
0.0
 40
1.0
 40
1.0
 40
1.0
 40
1.0
 10
-49.371400000000001
 20
-37.872100000000003
 30
0.0
 10
-49.371400000000001
 20
-37.872100000000003
 30
0.0
 10
-51.082800000000006
 20
-34.908000000000001
 30
0.0
 10
-51.082800000000006
 20
-34.908000000000001
 30
0.0
  0
SPLINE
  5
62
100
AcDbEntity
  8
LC-001-002-----0
370
    35
100
AcDbSpline
210
0.0
220
0.0
230
1.0
 70
     0
 71
     3
 72
     8
 73
     4
 74
     0
 42
0.0000000001
 43
0.0000000001
 40
0.0
 40
0.0
 40
0.0
 40
0.0
 40
1.0
 40
1.0
 40
1.0
 40
1.0
 10
-53.530000000000001
 20
-22.736700000000003
 30
0.0
 10
-53.530000000000001
 20
-22.736700000000003
 30
0.0
 10
-53.529900000000005
 20
-38.0045
 30
0.0
 10
-53.529900000000005
 20
-38.0045
 30
0.0
  0
SPLINE
  5
63
100
AcDbEntity
  8
LC-001-002-----0
370
    35
100
AcDbSpline
210
0.0
220
0.0
230
1.0
 70
     0
 71
     3
 72
     8
 73
     4
 74
     0
 42
0.0000000001
 43
0.0000000001
 40
0.0
 40
0.0
 40
0.0
 40
0.0
 40
1.0
 40
1.0
 40
1.0
 40
1.0
 10
-51.082800000000006
 20
-29.8733
 30
0.0
 10
-51.082800000000006
 20
-29.8733
 30
0.0
 10
-51.082800000000006
 20
-29.8733
 30
0.0
 10
-51.082800000000006
 20
-29.8733
 30
0.0
  0
SPLINE
  5
64
100
AcDbEntity
  8
LC-001-002-----0
370
    35
100
AcDbSpline
210
0.0
220
0.0
230
1.0
 70
     0
 71
     3
 72
     8
 73
     4
 74
     0
 42
0.0000000001
 43
0.0000000001
 40
0.0
 40
0.0
 40
0.0
 40
0.0
 40
1.0
 40
1.0
 40
1.0
 40
1.0
 10
-34.239600000000003
 20
9.3925000000000001
 30
0.0
 10
-34.239600000000003
 20
9.3925000000000001
 30
0.0
 10
-34.2393
 20
-39.262700000000002
 30
0.0
 10
-34.2393
 20
-39.262700000000002
 30
0.0
  0
SPLINE
  5
65
100
AcDbEntity
  8
LC-001-002-----0
370
    35
100
AcDbSpline
210
0.0
220
0.0
230
1.0
 70
     0
 71
     3
 72
     8
 73
     4
 74
     0
 42
0.0000000001
 43
0.0000000001
 40
0.0
 40
0.0
 40
0.0
 40
0.0
 40
1.0
 40
1.0
 40
1.0
 40
1.0
 10
-39.632100000000001
 20
7.9804000000000004
 30
0.0
 10
-39.632100000000001
 20
7.9804000000000004
 30
0.0
 10
-41.332500000000003
 20
5.0354000000000001
 30
0.0
 10
-41.332500000000003
 20
5.0354000000000001
 30
0.0
  0
SPLINE
  5
66
100
AcDbEntity
  8
LC-001-002-----0
370
    35
100
AcDbSpline
210
0.0
220
0.0
230
1.0
 70
     0
 71
     3
 72
     8
 73
     4
 74
     0
 42
0.0000000001
 43
0.0000000001
 40
0.0
 40
0.0
 40
0.0
 40
0.0
 40
1.0
 40
1.0
 40
1.0
 40
1.0
 10
-43.764099999999999
 20
-37.654800000000002
 30
0.0
 10
-43.764099999999999
 20
-37.654800000000002
 30
0.0
 10
-43.764200000000002
 20
7.7844000000000007
 30
0.0
 10
-43.764200000000002
 20
7.7844000000000007
 30
0.0
  0
SPLINE
  5
67
100
AcDbEntity
  8
LC-001-002-----0
370
    35
100
AcDbSpline
210
0.0
220
0.0
230
1.0
 70
     0
 71
     3
 72
     8
 73
     4
 74
     0
 42
0.0000000001
 43
0.0000000001
 40
0.0
 40
0.0
 40
0.0
 40
0.0
 40
1.0
 40
1.0
 40
1.0
 40
1.0
 10
-51.815600000000003
 20
7.9380000000000006
 30
0.0
 10
-51.815600000000003
 20
7.9380000000000006
 30
0.0
 10
-53.528300000000002
 20
4.9716000000000005
 30
0.0
 10
-53.528300000000002
 20
4.9716000000000005
 30
0.0
  0
SPLINE
  5
68
100
AcDbEntity
  8
LC-001-002-----0
370
    35
100
AcDbSpline
210
0.0
220
0.0
230
1.0
 70
     0
 71
     3
 72
     8
 73
     4
 74
     0
 42
0.0000000001
 43
0.0000000001
 40
0.0
 40
0.0
 40
0.0
 40
0.0
 40
1.0
 40
1.0
 40
1.0
 40
1.0
 10
-53.528200000000005
 20
-28.458300000000001
 30
0.0
 10
-53.528200000000005
 20
-28.458300000000001
 30
0.0
 10
-53.528300000000002
 20
8.1339000000000006
 30
0.0
 10
-53.528300000000002
 20
8.1339000000000006
 30
0.0
  0
SPLINE
  5
69
100
AcDbEntity
  8
LC-001-002-----0
370
    35
100
AcDbSpline
210
0.0
220
0.0
230
1.0
 70
     0
 71
     3
 72
     8
 73
     4
 74
     0
 42
0.0000000001
 43
0.0000000001
 40
0.0
 40
0.0
 40
0.0
 40
0.0
 40
1.0
 40
1.0
 40
1.0
 40
1.0
 10
-48.640000000000001
 20
-4.3836000000000004
 30
0.0
 10
-48.640000000000001
 20
-4.3836000000000004
 30
0.0
 10
-48.640000000000001
 20
-37.676100000000005
 30
0.0
 10
-48.640000000000001
 20
-37.676100000000005
 30
0.0
  0
SPLINE
  5
6A
100
AcDbEntity
  8
LC-001-002-----0
370
    35
100
AcDbSpline
210
0.0
220
0.0
230
1.0
 70
     0
 71
     3
 72
     8
 73
     4
 74
     0
 42
0.0000000001
 43
0.0000000001
 40
0.0
 40
0.0
 40
0.0
 40
0.0
 40
1.0
 40
1.0
 40
1.0
 40
1.0
 10
-44.495600000000003
 20
-37.8508
 30
0.0
 10
-44.495600000000003
 20
-37.8508
 30
0.0
 10
-46.195900000000002
 20
-34.905700000000003
 30
0.0
 10
-46.195900000000002
 20
-34.905700000000003
 30
0.0
  0
SPLINE
  5
6B
100
AcDbEntity
  8
LC-001-002-----0
370
    35
100
AcDbSpline
210
0.0
220
0.0
230
1.0
 70
     0
 71
     3
 72
     8
 73
     4
 74
     0
 42
0.0000000001
 43
0.0000000001
 40
0.0
 40
0.0
 40
0.0
 40
0.0
 40
1.0
 40
1.0
 40
1.0
 40
1.0
 10
-46.927400000000006
 20
-37.8508
 30
0.0
 10
-46.927400000000006
 20
-37.8508
 30
0.0
 10
-48.640000000000001
 20
-34.884500000000003
 30
0.0
 10
-48.640000000000001
 20
-34.884500000000003
 30
0.0
  0
SPLINE
  5
6C
100
AcDbEntity
  8
LC-001-002-----0
370
    35
100
AcDbSpline
210
0.0
220
0.0
230
1.0
 70
     0
 71
     3
 72
     8
 73
     4
 74
     0
 42
0.0000000001
 43
0.0000000001
 40
0.0
 40
0.0
 40
0.0
 40
0.0
 40
1.0
 40
1.0
 40
1.0
 40
1.0
 10
-55.482300000000002
 20
-37.408700000000003
 30
0.0
 10
-55.482300000000002
 20
-37.408700000000003
 30
0.0
 10
-54.278300000000002
 20
-37.408700000000003
 30
0.0
 10
-54.278300000000002
 20
-37.408700000000003
 30
0.0
  0
SPLINE
  5
6D
100
AcDbEntity
  8
LC-001-002-----0
370
    35
100
AcDbSpline
210
0.0
220
0.0
230
1.0
 70
     0
 71
     3
 72
     8
 73
     4
 74
     0
 42
0.0000000001
 43
0.0000000001
 40
0.0
 40
0.0
 40
0.0
 40
0.0
 40
1.0
 40
1.0
 40
1.0
 40
1.0
 10
-37.200400000000002
 20
7.9804000000000004
 30
0.0
 10
-37.200400000000002
 20
7.9804000000000004
 30
0.0
 10
-38.900700000000001
 20
5.0354000000000001
 30
0.0
 10
-38.900700000000001
 20
5.0354000000000001
 30
0.0
  0
SPLINE
  5
6E
100
AcDbEntity
  8
LC-001-002-----0
370
    35
100
AcDbSpline
210
0.0
220
0.0
230
1.0
 70
     0
 71
     3
 72
     8
 73
     4
 74
     0
 42
0.0000000001
 43
0.0000000001
 40
0.0
 40
0.0
 40
0.0
 40
0.0
 40
1.0
 40
1.0
 40
1.0
 40
1.0
 10
-37.200099999999999
 20
-37.8508
 30
0.0
 10
-37.200099999999999
 20
-37.8508
 30
0.0
 10
-38.900500000000001
 20
-34.905700000000003
 30
0.0
 10
-38.900500000000001
 20
-34.905700000000003
 30
0.0
  0
SPLINE
  5
6F
100
AcDbEntity
  8
LC-001-002-----0
370
    35
100
AcDbSpline
210
0.0
220
0.0
230
1.0
 70
     0
 71
     3
 72
     8
 73
     4
 74
     0
 42
0.0000000001
 43
0.0000000001
 40
0.0
 40
0.0
 40
0.0
 40
0.0
 40
1.0
 40
1.0
 40
1.0
 40
1.0
 10
-38.900500000000001
 20
-37.654800000000002
 30
0.0
 10
-38.900500000000001
 20
-37.654800000000002
 30
0.0
 10
-38.900700000000001
 20
7.7844000000000007
 30
0.0
 10
-38.900700000000001
 20
7.7844000000000007
 30
0.0
  0
SPLINE
  5
70
100
AcDbEntity
  8
LC-001-002-----0
370
    35
100
AcDbSpline
210
0.0
220
0.0
230
1.0
 70
     0
 71
     3
 72
     8
 73
     4
 74
     0
 42
0.0000000001
 43
0.0000000001
 40
0.0
 40
0.0
 40
0.0
 40
0.0
 40
1.0
 40
1.0
 40
1.0
 40
1.0
 10
-36.093200000000003
 20
-40.613700000000001
 30
0.0
 10
-36.093200000000003
 20
-40.613700000000001
 30
0.0
 10
-36.093200000000003
 20
-39.4557
 30
0.0
 10
-36.093200000000003
 20
-39.4557
 30
0.0
  0
SPLINE
  5
71
100
AcDbEntity
  8
LC-001-002-----0
370
    35
100
AcDbSpline
210
0.0
220
0.0
230
1.0
 70
     0
 71
     3
 72
     8
 73
     4
 74
     0
 42
0.0000000001
 43
0.0000000001
 40
0.0
 40
0.0
 40
0.0
 40
0.0
 40
1.0
 40
1.0
 40
1.0
 40
1.0
 10
-36.093299999999999
 20
9.5853999999999999
 30
0.0
 10
-36.093299999999999
 20
9.5853999999999999
 30
0.0
 10
-36.093299999999999
 20
10.743400000000001
 30
0.0
 10
-36.093299999999999
 20
10.743400000000001
 30
0.0
  0
SPLINE
  5
72
100
AcDbEntity
  8
LC-001-002-----0
370
    35
100
AcDbSpline
210
0.0
220
0.0
230
1.0
 70
     0
 71
     3
 72
     8
 73
     4
 74
     0
 42
0.0000000001
 43
0.0000000001
 40
0.0
 40
0.0
 40
0.0
 40
0.0
 40
1.0
 40
1.0
 40
1.0
 40
1.0
 10
-48.627800000000001
 20
9.5852000000000004
 30
0.0
 10
-48.627800000000001
 20
9.5852000000000004
 30
0.0
 10
-54.710500000000003
 20
9.5852000000000004
 30
0.0
 10
-54.710500000000003
 20
9.5852000000000004
 30
0.0
  0
SPLINE
  5
73
100
AcDbEntity
  8
LC-001-002-----0
370
    35
100
AcDbSpline
210
0.0
220
0.0
230
1.0
 70
     0
 71
     3
 72
     8
 73
     4
 74
     0
 42
0.0000000001
 43
0.0000000001
 40
0.0
 40
0.0
 40
0.0
 40
0.0
 40
1.0
 40
1.0
 40
1.0
 40
1.0
 10
-48.627800000000001
 20
9.3922000000000008
 30
0.0
 10
-48.627800000000001
 20
9.3922000000000008
 30
0.0
 10
-54.710500000000003
 20
9.3922000000000008
 30
0.0
 10
-54.710500000000003
 20
9.3922000000000008
 30
0.0
  0
SPLINE
  5
74
100
AcDbEntity
  8
LC-001-002-----0
370
    35
100
AcDbSpline
210
0.0
220
0.0
230
1.0
 70
     0
 71
     3
 72
     8
 73
     4
 74
     0
 42
0.0000000001
 43
0.0000000001
 40
0.0
 40
0.0
 40
0.0
 40
0.0
 40
1.0
 40
1.0
 40
1.0
 40
1.0
 10
-55.482500000000002
 20
8.6202000000000005
 30
0.0
 10
-55.482500000000002
 20
8.6202000000000005
 30
0.0
 10
-55.482500000000002
 20
7.5380000000000003
 30
0.0
 10
-55.482500000000002
 20
7.5380000000000003
 30
0.0
  0
SPLINE
  5
75
100
AcDbEntity
  8
LC-001-002-----0
370
    35
100
AcDbSpline
210
0.0
220
0.0
230
1.0
 70
     0
 71
     3
 72
     8
 73
     4
 74
     0
 42
0.0000000001
 43
0.0000000001
 40
0.0
 40
0.0
 40
0.0
 40
0.0
 40
1.0
 40
1.0
 40
1.0
 40
1.0
 10
-48.627600000000001
 20
-39.262900000000002
 30
0.0
 10
-48.627600000000001
 20
-39.262900000000002
 30
0.0
 10
-54.7102
 20
-39.262900000000002
 30
0.0
 10
-54.7102
 20
-39.262900000000002
 30
0.0
  0
SPLINE
  5
76
100
AcDbEntity
  8
LC-001-002-----0
370
    35
100
AcDbSpline
210
0.0
220
0.0
230
1.0
 70
     0
 71
     3
 72
     8
 73
     4
 74
     0
 42
0.0000000001
 43
0.0000000001
 40
0.0
 40
0.0
 40
0.0
 40
0.0
 40
1.0
 40
1.0
 40
1.0
 40
1.0
 10
-55.482300000000002
 20
-38.491
 30
0.0
 10
-55.482300000000002
 20
-38.491
 30
0.0
 10
-55.482300000000002
 20
-37.408700000000003
 30
0.0
 10
-55.482300000000002
 20
-37.408700000000003
 30
0.0
  0
SPLINE
  5
77
100
AcDbEntity
  8
LC-001-002-----0
370
    35
100
AcDbSpline
210
0.0
220
0.0
230
1.0
 70
     0
 71
     3
 72
     8
 73
     4
 74
     0
 42
0.0000000001
 43
0.0000000001
 40
0.0
 40
0.0
 40
0.0
 40
0.0
 40
1.0
 40
1.0
 40
1.0
 40
1.0
 10
-55.6755
 20
8.6202000000000005
 30
0.0
 10
-55.6755
 20
8.6202000000000005
 30
0.0
 10
-55.675400000000003
 20
-38.490900000000003
 30
0.0
 10
-55.675400000000003
 20
-38.490900000000003
 30
0.0
  0
SPLINE
  5
78
100
AcDbEntity
  8
LC-001-002-----0
370
    35
100
AcDbSpline
210
0.0
220
0.0
230
1.0
 70
     0
 71
     3
 72
     8
 73
     4
 74
     0
 42
0.0000000001
 43
0.0000000001
 40
0.0
 40
0.0
 40
0.0
 40
0.0
 40
1.0
 40
1.0
 40
1.0
 40
1.0
 10
-48.627600000000001
 20
-39.4559
 30
0.0
 10
-48.627600000000001
 20
-39.4559
 30
0.0
 10
-54.7104
 20
-39.4559
 30
0.0
 10
-54.7104
 20
-39.4559
 30
0.0
  0
SPLINE
  5
79
100
AcDbEntity
  8
LC-001-002-----0
370
    20
  6
New Line1
100
AcDbSpline
210
0.0
220
0.0
230
1.0
 70
     0
 71
     3
 72
     8
 73
     4
 74
     0
 42
0.0000000001
 43
0.0000000001
 40
0.0
 40
0.0
 40
0.0
 40
0.0
 40
1.0
 40
1.0
 40
1.0
 40
1.0
 10
-55.675400000000003
 20
-14.9352
 30
0.0
 10
-55.675400000000003
 20
-14.9352
 30
0.0
 10
-34.2395
 20
-14.9351
 30
0.0
 10
-34.2395
 20
-14.9351
 30
0.0
  0
SPLINE
  5
7B
100
AcDbEntity
  8
LC-001-002-----0
370
    35
100
AcDbSpline
210
0.0
220
0.0
230
1.0
 70
     0
 71
     3
 72
     8
 73
     4
 74
     0
 42
0.0000000001
 43
0.0000000001
 40
0.0
 40
0.0
 40
0.0
 40
0.0
 40
1.0
 40
1.0
 40
1.0
 40
1.0
 10
-57.013500000000001
 20
-39.069800000000001
 30
0.0
 10
-57.013500000000001
 20
-39.069800000000001
 30
0.0
 10
-57.013500000000001
 20
-34.621200000000002
 30
0.0
 10
-57.013500000000001
 20
-34.621200000000002
 30
0.0
  0
SPLINE
  5
7C
100
AcDbEntity
  8
LC-001-002-----0
370
    35
100
AcDbSpline
210
0.0
220
0.0
230
1.0
 70
     0
 71
     3
 72
     8
 73
     4
 74
     0
 42
0.0000000001
 43
0.0000000001
 40
0.0
 40
0.0
 40
0.0
 40
0.0
 40
1.0
 40
1.0
 40
1.0
 40
1.0
 10
-57.013600000000004
 20
0.9184
 30
0.0
 10
-57.013600000000004
 20
0.9184
 30
0.0
 10
-57.013600000000004
 20
9.1992000000000012
 30
0.0
 10
-57.013600000000004
 20
9.1992000000000012
 30
0.0
  0
SPLINE
  5
7D
100
AcDbEntity
  8
LC-001-002-----0
370
    35
100
AcDbSpline
210
0.0
220
0.0
230
1.0
 70
     0
 71
     3
 72
     8
 73
     4
 74
     0
 42
0.0000000001
 43
0.0000000001
 40
0.0
 40
0.0
 40
0.0
 40
0.0
 40
1.0
 40
1.0
 40
1.0
 40
1.0
 10
-36.468900000000005
 20
-34.905700000000003
 30
0.0
 10
-36.468900000000005
 20
-34.905700000000003
 30
0.0
 10
-34.2393
 20
-39.262799999999999
 30
0.0
 10
-34.2393
 20
-39.262799999999999
 30
0.0
  0
SPLINE
  5
7E
100
AcDbEntity
  8
LC-001-002-----0
370
    35
100
AcDbSpline
210
0.0
220
0.0
230
1.0
 70
     0
 71
     3
 72
     8
 73
     4
 74
     0
 42
0.0000000001
 43
0.0000000001
 40
0.0
 40
0.0
 40
0.0
 40
0.0
 40
1.0
 40
1.0
 40
1.0
 40
1.0
 10
-82.682500000000005
 20
-35.586300000000001
 30
0.0
 10
-82.682500000000005
 20
-35.586300000000001
 30
0.0
 10
-82.682500000000005
 20
-36.261700000000005
 30
0.0
 10
-82.682500000000005
 20
-36.261700000000005
 30
0.0
  0
SPLINE
  5
7F
100
AcDbEntity
  8
LC-001-002-----0
370
    35
100
AcDbSpline
210
0.0
220
0.0
230
1.0
 70
     0
 71
     3
 72
     8
 73
     4
 74
     0
 42
0.0000000001
 43
0.0000000001
 40
0.0
 40
0.0
 40
0.0
 40
0.0
 40
1.0
 40
1.0
 40
1.0
 40
1.0
 10
-88.086399999999998
 20
-35.586100000000002
 30
0.0
 10
-88.086399999999998
 20
-35.586100000000002
 30
0.0
 10
-88.086399999999998
 20
-36.261700000000005
 30
0.0
 10
-88.086399999999998
 20
-36.261700000000005
 30
0.0
  0
SPLINE
  5
80
100
AcDbEntity
  8
LC-001-002-----0
370
    35
100
AcDbSpline
210
0.0
220
0.0
230
1.0
 70
     0
 71
     3
 72
     8
 73
     4
 74
     0
 42
0.0000000001
 43
0.0000000001
 40
0.0
 40
0.0
 40
0.0
 40
0.0
 40
1.0
 40
1.0
 40
1.0
 40
1.0
 10
-86.928400000000011
 20
-35.103700000000003
 30
0.0
 10
-86.928400000000011
 20
-35.103700000000003
 30
0.0
 10
-85.12230000000001
 20
-34.479600000000005
 30
0.0
 10
-85.12230000000001
 20
-34.479600000000005
 30
0.0
  0
SPLINE
  5
81
100
AcDbEntity
  8
LC-001-002-----0
370
    35
100
AcDbSpline
210
0.0
220
0.0
230
1.0
 70
     0
 71
     3
 72
     8
 73
     4
 74
     0
 42
0.0000000001
 43
0.0000000001
 40
0.0
 40
0.0
 40
0.0
 40
0.0
 40
1.0
 40
1.0
 40
1.0
 40
1.0
 10
-84.875500000000002
 20
-34.721000000000004
 30
0.0
 10
-84.875500000000002
 20
-34.721000000000004
 30
0.0
 10
-84.998500000000007
 20
-35.103700000000003
 30
0.0
 10
-84.998500000000007
 20
-35.103700000000003
 30
0.0
  0
SPLINE
  5
82
100
AcDbEntity
  8
LC-001-002-----0
370
    35
100
AcDbSpline
210
0.0
220
0.0
230
1.0
 70
     0
 71
     3
 72
     8
 73
     4
 74
     0
 42
0.0000000001
 43
0.0000000001
 40
0.0
 40
0.0
 40
0.0
 40
0.0
 40
1.0
 40
1.0
 40
1.0
 40
1.0
 10
-83.840500000000006
 20
-35.103700000000003
 30
0.0
 10
-83.840500000000006
 20
-35.103700000000003
 30
0.0
 10
-84.998500000000007
 20
-35.103700000000003
 30
0.0
 10
-84.998500000000007
 20
-35.103700000000003
 30
0.0
  0
SPLINE
  5
83
100
AcDbEntity
  8
LC-001-002-----0
370
    35
100
AcDbSpline
210
0.0
220
0.0
230
1.0
 70
     0
 71
     3
 72
     8
 73
     4
 74
     0
 42
0.0000000001
 43
0.0000000001
 40
0.0
 40
0.0
 40
0.0
 40
0.0
 40
1.0
 40
1.0
 40
1.0
 40
1.0
 10
-84.612499999999997
 20
-35.875700000000002
 30
0.0
 10
-84.612499999999997
 20
-35.875700000000002
 30
0.0
 10
-84.612499999999997
 20
-36.261700000000005
 30
0.0
 10
-84.612499999999997
 20
-36.261700000000005
 30
0.0
  0
SPLINE
  5
84
100
AcDbEntity
  8
LC-001-002-----0
370
    35
100
AcDbSpline
210
0.0
220
0.0
230
1.0
 70
     0
 71
     3
 72
     8
 73
     4
 74
     0
 42
0.0000000001
 43
0.0000000001
 40
0.0
 40
0.0
 40
0.0
 40
0.0
 40
1.0
 40
1.0
 40
1.0
 40
1.0
 10
-84.226500000000001
 20
-36.261700000000005
 30
0.0
 10
-84.226500000000001
 20
-36.261700000000005
 30
0.0
 10
-84.226500000000001
 20
-35.875700000000002
 30
0.0
 10
-84.226500000000001
 20
-35.875700000000002
 30
0.0
  0
SPLINE
  5
85
100
AcDbEntity
  8
LC-001-002-----0
370
    35
100
AcDbSpline
210
0.0
220
0.0
230
1.0
 70
     0
 71
     3
 72
     8
 73
     4
 74
     0
 42
0.0000000001
 43
0.0000000001
 40
0.0
 40
0.0
 40
0.0
 40
0.0
 40
1.0
 40
1.0
 40
1.0
 40
1.0
 10
-84.226500000000001
 20
-35.875700000000002
 30
0.0
 10
-84.226500000000001
 20
-35.875700000000002
 30
0.0
 10
-84.612499999999997
 20
-35.875700000000002
 30
0.0
 10
-84.612499999999997
 20
-35.875700000000002
 30
0.0
  0
SPLINE
  5
86
100
AcDbEntity
  8
LC-001-002-----0
370
    35
100
AcDbSpline
210
0.0
220
0.0
230
1.0
 70
     0
 71
     3
 72
     8
 73
     4
 74
     0
 42
0.0000000001
 43
0.0000000001
 40
0.0
 40
0.0
 40
0.0
 40
0.0
 40
1.0
 40
1.0
 40
1.0
 40
1.0
 10
-89.244399999999999
 20
-35.586100000000002
 30
0.0
 10
-89.244399999999999
 20
-35.586100000000002
 30
0.0
 10
-89.244399999999999
 20
-34.4283
 30
0.0
 10
-89.244399999999999
 20
-34.4283
 30
0.0
  0
SPLINE
  5
87
100
AcDbEntity
  8
LC-001-002-----0
370
    20
  6
New Line2
100
AcDbSpline
210
0.0
220
0.0
230
1.0
 70
     0
 71
     3
 72
     8
 73
     4
 74
     0
 42
0.0000000001
 43
0.0000000001
 40
0.0
 40
0.0
 40
0.0
 40
0.0
 40
1.0
 40
1.0
 40
1.0
 40
1.0
 10
-89.244399999999999
 20
-24.5853
 30
0.0
 10
-89.244399999999999
 20
-24.5853
 30
0.0
 10
-55.675400000000003
 20
-24.5852
 30
0.0
 10
-55.675400000000003
 20
-24.5852
 30
0.0
  0
SPLINE
  5
89
100
AcDbEntity
  8
LC-001-002-----0
370
    35
100
AcDbSpline
210
0.0
220
0.0
230
1.0
 70
     0
 71
     3
 72
    12
 73
     8
 74
     0
 42
0.0000000001
 43
0.0000000001
 40
0.0
 40
0.0
 40
0.0
 40
0.0
 40
0.5
 40
0.5
 40
0.5
 40
0.5
 40
1.0
 40
1.0
 40
1.0
 40
1.0
 10
-82.682500000000005
 20
-12.908800000000001
 30
0.0
 10
-82.682500000000005
 20
-12.601700000000001
 30
0.0
 10
-82.804500000000004
 20
-12.3071
 30
0.0
 10
-83.02170000000001
 20
-12.0899
 30
0.0
 10
-83.02170000000001
 20
-12.0899
 30
0.0
 10
-83.238799999999998
 20
-11.8727
 30
0.0
 10
-83.5334
 20
-11.7508
 30
0.0
 10
-83.840600000000009
 20
-11.7508
 30
0.0
  0
SPLINE
  5
8A
100
AcDbEntity
  8
LC-001-002-----0
370
    35
100
AcDbSpline
210
0.0
220
0.0
230
1.0
 70
     0
 71
     3
 72
     8
 73
     4
 74
     0
 42
0.0000000001
 43
0.0000000001
 40
0.0
 40
0.0
 40
0.0
 40
0.0
 40
1.0
 40
1.0
 40
1.0
 40
1.0
 10
-86.928400000000011
 20
-11.7508
 30
0.0
 10
-86.928400000000011
 20
-11.7508
 30
0.0
 10
-83.840500000000006
 20
-11.7508
 30
0.0
 10
-83.840500000000006
 20
-11.7508
 30
0.0
  0
SPLINE
  5
8B
100
AcDbEntity
  8
LC-001-002-----0
370
    35
100
AcDbSpline
210
0.0
220
0.0
230
1.0
 70
     0
 71
     3
 72
     8
 73
     4
 74
     0
 42
0.0000000001
 43
0.0000000001
 40
0.0
 40
0.0
 40
0.0
 40
0.0
 40
1.0
 40
1.0
 40
1.0
 40
1.0
 10
-86.928600000000003
 20
-11.7508
 30
0.0
 10
-87.567999999999998
 20
-11.7508
 30
0.0
 10
-88.086399999999998
 20
-12.269200000000001
 30
0.0
 10
-88.086399999999998
 20
-12.908800000000001
 30
0.0
  0
SPLINE
  5
8C
100
AcDbEntity
  8
LC-001-002-----0
370
    35
100
AcDbSpline
210
0.0
220
0.0
230
1.0
 70
     0
 71
     3
 72
     8
 73
     4
 74
     0
 42
0.0000000001
 43
0.0000000001
 40
0.0
 40
0.0
 40
0.0
 40
0.0
 40
1.0
 40
1.0
 40
1.0
 40
1.0
 10
-89.244399999999999
 20
-13.584300000000001
 30
0.0
 10
-89.244399999999999
 20
-13.584300000000001
 30
0.0
 10
-88.086399999999998
 20
-13.584300000000001
 30
0.0
 10
-88.086399999999998
 20
-13.584300000000001
 30
0.0
  0
SPLINE
  5
8D
100
AcDbEntity
  8
LC-001-002-----0
370
    35
100
AcDbSpline
210
0.0
220
0.0
230
1.0
 70
     0
 71
     3
 72
     8
 73
     4
 74
     0
 42
0.0000000001
 43
0.0000000001
 40
0.0
 40
0.0
 40
0.0
 40
0.0
 40
1.0
 40
1.0
 40
1.0
 40
1.0
 10
-88.086399999999998
 20
-13.584300000000001
 30
0.0
 10
-88.086399999999998
 20
-13.584300000000001
 30
0.0
 10
-88.086399999999998
 20
-12.908800000000001
 30
0.0
 10
-88.086399999999998
 20
-12.908800000000001
 30
0.0
  0
SPLINE
  5
8E
100
AcDbEntity
  8
LC-001-002-----0
370
    35
100
AcDbSpline
210
0.0
220
0.0
230
1.0
 70
     0
 71
     3
 72
     8
 73
     4
 74
     0
 42
0.0000000001
 43
0.0000000001
 40
0.0
 40
0.0
 40
0.0
 40
0.0
 40
1.0
 40
1.0
 40
1.0
 40
1.0
 10
-82.682500000000005
 20
-13.584200000000001
 30
0.0
 10
-82.682500000000005
 20
-13.584200000000001
 30
0.0
 10
-82.682500000000005
 20
-12.908800000000001
 30
0.0
 10
-82.682500000000005
 20
-12.908800000000001
 30
0.0
  0
SPLINE
  5
8F
100
AcDbEntity
  8
LC-001-002-----0
370
    35
100
AcDbSpline
210
0.0
220
0.0
230
1.0
 70
     0
 71
     3
 72
     8
 73
     4
 74
     0
 42
0.0000000001
 43
0.0000000001
 40
0.0
 40
0.0
 40
0.0
 40
0.0
 40
1.0
 40
1.0
 40
1.0
 40
1.0
 10
-83.840500000000006
 20
-14.066800000000001
 30
0.0
 10
-83.840500000000006
 20
-14.066800000000001
 30
0.0
 10
-84.998500000000007
 20
-14.066800000000001
 30
0.0
 10
-84.998500000000007
 20
-14.066800000000001
 30
0.0
  0
SPLINE
  5
90
100
AcDbEntity
  8
LC-001-002-----0
370
    35
100
AcDbSpline
210
0.0
220
0.0
230
1.0
 70
     0
 71
     3
 72
     8
 73
     4
 74
     0
 42
0.0000000001
 43
0.0000000001
 40
0.0
 40
0.0
 40
0.0
 40
0.0
 40
1.0
 40
1.0
 40
1.0
 40
1.0
 10
-84.875500000000002
 20
-14.4495
 30
0.0
 10
-84.875500000000002
 20
-14.4495
 30
0.0
 10
-84.998500000000007
 20
-14.066800000000001
 30
0.0
 10
-84.998500000000007
 20
-14.066800000000001
 30
0.0
  0
SPLINE
  5
91
100
AcDbEntity
  8
LC-001-002-----0
370
    35
100
AcDbSpline
210
0.0
220
0.0
230
1.0
 70
     0
 71
     3
 72
     8
 73
     4
 74
     0
 42
0.0000000001
 43
0.0000000001
 40
0.0
 40
0.0
 40
0.0
 40
0.0
 40
1.0
 40
1.0
 40
1.0
 40
1.0
 10
-86.928400000000011
 20
-14.066800000000001
 30
0.0
 10
-86.928400000000011
 20
-14.066800000000001
 30
0.0
 10
-85.122399999999999
 20
-14.690900000000001
 30
0.0
 10
-85.122399999999999
 20
-14.690900000000001
 30
0.0
  0
SPLINE
  5
92
100
AcDbEntity
  8
LC-001-002-----0
370
    35
100
AcDbSpline
210
0.0
220
0.0
230
1.0
 70
     0
 71
     3
 72
     8
 73
     4
 74
     0
 42
0.0000000001
 43
0.0000000001
 40
0.0
 40
0.0
 40
0.0
 40
0.0
 40
1.0
 40
1.0
 40
1.0
 40
1.0
 10
-84.226500000000001
 20
-12.908800000000001
 30
0.0
 10
-84.226500000000001
 20
-12.908800000000001
 30
0.0
 10
-84.226500000000001
 20
-13.2948
 30
0.0
 10
-84.226500000000001
 20
-13.2948
 30
0.0
  0
SPLINE
  5
93
100
AcDbEntity
  8
LC-001-002-----0
370
    35
100
AcDbSpline
210
0.0
220
0.0
230
1.0
 70
     0
 71
     3
 72
     8
 73
     4
 74
     0
 42
0.0000000001
 43
0.0000000001
 40
0.0
 40
0.0
 40
0.0
 40
0.0
 40
1.0
 40
1.0
 40
1.0
 40
1.0
 10
-84.226500000000001
 20
-13.2948
 30
0.0
 10
-84.226500000000001
 20
-13.2948
 30
0.0
 10
-84.612499999999997
 20
-13.2948
 30
0.0
 10
-84.612499999999997
 20
-13.2948
 30
0.0
  0
SPLINE
  5
94
100
AcDbEntity
  8
LC-001-002-----0
370
    35
100
AcDbSpline
210
0.0
220
0.0
230
1.0
 70
     0
 71
     3
 72
     8
 73
     4
 74
     0
 42
0.0000000001
 43
0.0000000001
 40
0.0
 40
0.0
 40
0.0
 40
0.0
 40
1.0
 40
1.0
 40
1.0
 40
1.0
 10
-84.612499999999997
 20
-13.2948
 30
0.0
 10
-84.612499999999997
 20
-13.2948
 30
0.0
 10
-84.612499999999997
 20
-12.908800000000001
 30
0.0
 10
-84.612499999999997
 20
-12.908800000000001
 30
0.0
  0
SPLINE
  5
95
100
AcDbEntity
  8
LC-001-002-----0
370
    35
100
AcDbSpline
210
0.0
220
0.0
230
1.0
 70
     0
 71
     3
 72
     8
 73
     4
 74
     0
 42
0.0000000001
 43
0.0000000001
 40
0.0
 40
0.0
 40
0.0
 40
0.0
 40
1.0
 40
1.0
 40
1.0
 40
1.0
 10
-86.928400000000011
 20
-12.908800000000001
 30
0.0
 10
-86.928400000000011
 20
-12.908800000000001
 30
0.0
 10
-83.840500000000006
 20
-12.908800000000001
 30
0.0
 10
-83.840500000000006
 20
-12.908800000000001
 30
0.0
  0
SPLINE
  5
96
100
AcDbEntity
  8
LC-001-002-----0
370
    35
100
AcDbSpline
210
0.0
220
0.0
230
1.0
 70
     0
 71
     3
 72
     8
 73
     4
 74
     0
 42
0.0000000001
 43
0.0000000001
 40
0.0
 40
0.0
 40
0.0
 40
0.0
 40
1.0
 40
1.0
 40
1.0
 40
1.0
 10
-89.244399999999999
 20
-13.584300000000001
 30
0.0
 10
-89.244399999999999
 20
-13.584300000000001
 30
0.0
 10
-89.244399999999999
 20
-34.4283
 30
0.0
 10
-89.244399999999999
 20
-34.4283
 30
0.0
  0
SPLINE
  5
97
100
AcDbEntity
  8
LC-001-002-----0
370
    35
100
AcDbSpline
210
0.0
220
0.0
230
1.0
 70
     0
 71
     3
 72
     8
 73
     4
 74
     0
 42
0.0000000001
 43
0.0000000001
 40
0.0
 40
0.0
 40
0.0
 40
0.0
 40
1.0
 40
1.0
 40
1.0
 40
1.0
 10
-65.859200000000001
 20
-14.402700000000001
 30
0.0
 10
-65.859200000000001
 20
-14.402700000000001
 30
0.0
 10
-57.013600000000004
 20
0.9184
 30
0.0
 10
-57.013600000000004
 20
0.9184
 30
0.0
  0
SPLINE
  5
98
100
AcDbEntity
  8
LC-001-002-----0
370
    35
100
AcDbSpline
210
0.0
220
0.0
230
1.0
 70
     0
 71
     3
 72
     8
 73
     4
 74
     0
 42
0.0000000001
 43
0.0000000001
 40
0.0
 40
0.0
 40
0.0
 40
0.0
 40
1.0
 40
1.0
 40
1.0
 40
1.0
 10
-65.293000000000006
 20
-15.738000000000001
 30
0.0
 10
-65.293000000000006
 20
-15.738000000000001
 30
0.0
 10
-55.675400000000003
 20
0.9202
 30
0.0
 10
-55.675400000000003
 20
0.9202
 30
0.0
  0
SPLINE
  5
99
100
AcDbEntity
  8
LC-001-002-----0
370
    35
100
AcDbSpline
210
0.0
220
0.0
230
1.0
 70
     0
 71
     3
 72
     8
 73
     4
 74
     0
 42
0.0000000001
 43
0.0000000001
 40
0.0
 40
0.0
 40
0.0
 40
0.0
 40
1.0
 40
1.0
 40
1.0
 40
1.0
 10
-57.013600000000004
 20
7.7518000000000002
 30
0.0
 10
-57.013600000000004
 20
7.7518000000000002
 30
0.0
 10
-79.015500000000003
 20
-13.584200000000001
 30
0.0
 10
-79.015500000000003
 20
-13.584200000000001
 30
0.0
  0
SPLINE
  5
9A
100
AcDbEntity
  8
LC-001-002-----0
370
    35
100
AcDbSpline
210
0.0
220
0.0
230
1.0
 70
     0
 71
     3
 72
     8
 73
     4
 74
     0
 42
0.0000000001
 43
0.0000000001
 40
0.0
 40
0.0
 40
0.0
 40
0.0
 40
1.0
 40
1.0
 40
1.0
 40
1.0
 10
-57.013500000000001
 20
-37.622199999999999
 30
0.0
 10
-57.013500000000001
 20
-37.622199999999999
 30
0.0
 10
-79.015500000000003
 20
-35.586300000000001
 30
0.0
 10
-79.015500000000003
 20
-35.586300000000001
 30
0.0
  0
SPLINE
  5
9B
100
AcDbEntity
  8
LC-001-002-----0
370
    35
100
AcDbSpline
210
0.0
220
0.0
230
1.0
 70
     0
 71
     3
 72
     8
 73
     4
 74
     0
 42
0.0000000001
 43
0.0000000001
 40
0.0
 40
0.0
 40
0.0
 40
0.0
 40
1.0
 40
1.0
 40
1.0
 40
1.0
 10
-82.682500000000005
 20
-13.584200000000001
 30
0.0
 10
-82.682500000000005
 20
-13.584200000000001
 30
0.0
 10
-69.133499999999998
 20
-13.584200000000001
 30
0.0
 10
-69.133499999999998
 20
-13.584200000000001
 30
0.0
  0
SPLINE
  5
9C
100
AcDbEntity
  8
LC-001-002-----0
370
    35
100
AcDbSpline
210
0.0
220
0.0
230
1.0
 70
     0
 71
     3
 72
     8
 73
     4
 74
     0
 42
0.0000000001
 43
0.0000000001
 40
0.0
 40
0.0
 40
0.0
 40
0.0
 40
1.0
 40
1.0
 40
1.0
 40
1.0
 10
-65.859200000000001
 20
-14.402700000000001
 30
0.0
 10
-65.859200000000001
 20
-14.402700000000001
 30
0.0
 10
-69.133499999999998
 20
-13.584200000000001
 30
0.0
 10
-69.133499999999998
 20
-13.584200000000001
 30
0.0
  0
SPLINE
  5
9D
100
AcDbEntity
  8
LC-001-002-----0
370
    35
100
AcDbSpline
210
0.0
220
0.0
230
1.0
 70
     0
 71
     3
 72
     8
 73
     4
 74
     0
 42
0.0000000001
 43
0.0000000001
 40
0.0
 40
0.0
 40
0.0
 40
0.0
 40
1.0
 40
1.0
 40
1.0
 40
1.0
 10
-65.273499999999999
 20
-34.621200000000002
 30
0.0
 10
-65.273499999999999
 20
-34.621200000000002
 30
0.0
 10
-57.013500000000001
 20
-34.621200000000002
 30
0.0
 10
-57.013500000000001
 20
-34.621200000000002
 30
0.0
  0
SPLINE
  5
9E
100
AcDbEntity
  8
LC-001-002-----0
370
    35
100
AcDbSpline
210
0.0
220
0.0
230
1.0
 70
     0
 71
     3
 72
     8
 73
     4
 74
     0
 42
0.0000000001
 43
0.0000000001
 40
0.0
 40
0.0
 40
0.0
 40
0.0
 40
1.0
 40
1.0
 40
1.0
 40
1.0
 10
-82.296500000000009
 20
-35.586300000000001
 30
0.0
 10
-82.296500000000009
 20
-35.586300000000001
 30
0.0
 10
-69.133499999999998
 20
-35.586100000000002
 30
0.0
 10
-69.133499999999998
 20
-35.586100000000002
 30
0.0
  0
SPLINE
  5
9F
100
AcDbEntity
  8
LC-001-002-----0
370
    35
100
AcDbSpline
210
0.0
220
0.0
230
1.0
 70
     0
 71
     3
 72
     8
 73
     4
 74
     0
 42
0.0000000001
 43
0.0000000001
 40
0.0
 40
0.0
 40
0.0
 40
0.0
 40
1.0
 40
1.0
 40
1.0
 40
1.0
 10
-65.273499999999999
 20
-34.621200000000002
 30
0.0
 10
-65.273499999999999
 20
-34.621200000000002
 30
0.0
 10
-69.133499999999998
 20
-35.586100000000002
 30
0.0
 10
-69.133499999999998
 20
-35.586100000000002
 30
0.0
  0
SPLINE
  5
A0
100
AcDbEntity
  8
LC-001-002-----0
370
    35
100
AcDbSpline
210
0.0
220
0.0
230
1.0
 70
     0
 71
     3
 72
     8
 73
     4
 74
     0
 42
0.0000000001
 43
0.0000000001
 40
0.0
 40
0.0
 40
0.0
 40
0.0
 40
1.0
 40
1.0
 40
1.0
 40
1.0
 10
-65.293000000000006
 20
-15.738000000000001
 30
0.0
 10
-65.293000000000006
 20
-15.738000000000001
 30
0.0
 10
-65.293000000000006
 20
-33.463200000000001
 30
0.0
 10
-65.293000000000006
 20
-33.463200000000001
 30
0.0
  0
SPLINE
  5
A1
100
AcDbEntity
  8
LC-001-002-----0
370
    35
100
AcDbSpline
210
0.0
220
0.0
230
1.0
 70
     0
 71
     3
 72
     8
 73
     4
 74
     0
 42
0.0000000001
 43
0.0000000001
 40
0.0
 40
0.0
 40
0.0
 40
0.0
 40
1.0
 40
1.0
 40
1.0
 40
1.0
 10
-69.275999999999996
 20
-14.7422
 30
0.0
 10
-69.275999999999996
 20
-14.7422
 30
0.0
 10
-69.275999999999996
 20
-34.428200000000004
 30
0.0
 10
-69.275999999999996
 20
-34.428200000000004
 30
0.0
  0
SPLINE
  5
A3
100
AcDbEntity
  8
LC-002-000-----0
370
    35
100
AcDbSpline
210
0.0
220
0.0
230
1.0
 70
     0
 71
     3
 72
    12
 73
     8
 74
     0
 42
0.0000000001
 43
0.0000000001
 40
0.0
 40
0.0
 40
0.0
 40
0.0
 40
0.5
 40
0.5
 40
0.5
 40
0.5
 40
1.0
 40
1.0
 40
1.0
 40
1.0
 10
-38.900700000000001
 20
7.7844000000000007
 30
0.0
 10
-38.900700000000001
 20
7.9619
 30
0.0
 10
-39.0199
 20
8.1171000000000006
 30
0.0
 10
-39.191200000000002
 20
8.1631
 30
0.0
 10
-39.191200000000002
 20
8.1631
 30
0.0
 10
-39.3626
 20
8.2088999999999999
 30
0.0
 10
-39.543400000000005
 20
8.1341000000000001
 30
0.0
 10
-39.632100000000001
 20
7.9804000000000004
 30
0.0
  0
SPLINE
  5
A4
100
AcDbEntity
  8
LC-002-000-----0
370
    35
100
AcDbSpline
210
0.0
220
0.0
230
1.0
 70
     0
 71
     3
 72
    12
 73
     8
 74
     0
 42
0.0000000001
 43
0.0000000001
 40
0.0
 40
0.0
 40
0.0
 40
0.0
 40
0.5
 40
0.5
 40
0.5
 40
0.5
 40
1.0
 40
1.0
 40
1.0
 40
1.0
 10
-41.332500000000003
 20
7.7844000000000007
 30
0.0
 10
-41.332500000000003
 20
7.9619
 30
0.0
 10
-41.451599999999999
 20
8.1171000000000006
 30
0.0
 10
-41.623000000000005
 20
8.1631
 30
0.0
 10
-41.623000000000005
 20
8.1631
 30
0.0
 10
-41.794400000000003
 20
8.2088999999999999
 30
0.0
 10
-41.975200000000001
 20
8.1341000000000001
 30
0.0
 10
-42.063900000000004
 20
7.9804000000000004
 30
0.0
  0
SPLINE
  5
A5
100
AcDbEntity
  8
LC-002-000-----0
370
    35
100
AcDbSpline
210
0.0
220
0.0
230
1.0
 70
     0
 71
     3
 72
    12
 73
     8
 74
     0
 42
0.0000000001
 43
0.0000000001
 40
0.0
 40
0.0
 40
0.0
 40
0.0
 40
0.5
 40
0.5
 40
0.5
 40
0.5
 40
1.0
 40
1.0
 40
1.0
 40
1.0
 10
-43.764200000000002
 20
7.7844000000000007
 30
0.0
 10
-43.764200000000002
 20
7.9619
 30
0.0
 10
-43.883400000000002
 20
8.1171000000000006
 30
0.0
 10
-44.0548
 20
8.1631
 30
0.0
 10
-44.0548
 20
8.1631
 30
0.0
 10
-44.226100000000002
 20
8.2088999999999999
 30
0.0
 10
-44.407000000000004
 20
8.1341000000000001
 30
0.0
 10
-44.495699999999999
 20
7.9804000000000004
 30
0.0
  0
SPLINE
  5
A6
100
AcDbEntity
  8
LC-002-000-----0
370
    35
100
AcDbSpline
210
0.0
220
0.0
230
1.0
 70
     0
 71
     3
 72
    12
 73
     8
 74
     0
 42
0.0000000001
 43
0.0000000001
 40
0.0
 40
0.0
 40
0.0
 40
0.0
 40
0.5
 40
0.5
 40
0.5
 40
0.5
 40
1.0
 40
1.0
 40
1.0
 40
1.0
 10
-46.196000000000005
 20
7.7844000000000007
 30
0.0
 10
-46.196000000000005
 20
7.9619
 30
0.0
 10
-46.315200000000004
 20
8.1171000000000006
 30
0.0
 10
-46.486600000000003
 20
8.1631
 30
0.0
 10
-46.486600000000003
 20
8.1631
 30
0.0
 10
-46.657900000000005
 20
8.2088999999999999
 30
0.0
 10
-46.838900000000002
 20
8.1341000000000001
 30
0.0
 10
-46.927500000000002
 20
7.9804000000000004
 30
0.0
  0
SPLINE
  5
A7
100
AcDbEntity
  8
LC-002-000-----0
370
    35
100
AcDbSpline
210
0.0
220
0.0
230
1.0
 70
     0
 71
     3
 72
    12
 73
     8
 74
     0
 42
0.0000000001
 43
0.0000000001
 40
0.0
 40
0.0
 40
0.0
 40
0.0
 40
0.5
 40
0.5
 40
0.5
 40
0.5
 40
1.0
 40
1.0
 40
1.0
 40
1.0
 10
-39.632000000000005
 20
-37.8508
 30
0.0
 10
-39.543300000000002
 20
-38.0045
 30
0.0
 10
-39.362400000000001
 20
-38.0794
 30
0.0
 10
-39.191099999999999
 20
-38.0334
 30
0.0
 10
-39.191099999999999
 20
-38.0334
 30
0.0
 10
-39.019600000000004
 20
-37.9876
 30
0.0
 10
-38.900500000000001
 20
-37.832300000000004
 30
0.0
 10
-38.900500000000001
 20
-37.654800000000002
 30
0.0
  0
SPLINE
  5
A8
100
AcDbEntity
  8
LC-002-000-----0
370
    35
100
AcDbSpline
210
0.0
220
0.0
230
1.0
 70
     0
 71
     3
 72
    12
 73
     8
 74
     0
 42
0.0000000001
 43
0.0000000001
 40
0.0
 40
0.0
 40
0.0
 40
0.0
 40
0.5
 40
0.5
 40
0.5
 40
0.5
 40
1.0
 40
1.0
 40
1.0
 40
1.0
 10
-44.495600000000003
 20
-37.8508
 30
0.0
 10
-44.406800000000004
 20
-38.0045
 30
0.0
 10
-44.225999999999999
 20
-38.0794
 30
0.0
 10
-44.054600000000001
 20
-38.033500000000004
 30
0.0
 10
-44.054600000000001
 20
-38.033500000000004
 30
0.0
 10
-43.883300000000006
 20
-37.9876
 30
0.0
 10
-43.764099999999999
 20
-37.832300000000004
 30
0.0
 10
-43.764099999999999
 20
-37.654800000000002
 30
0.0
  0
SPLINE
  5
A9
100
AcDbEntity
  8
LC-002-000-----0
370
    35
100
AcDbSpline
210
0.0
220
0.0
230
1.0
 70
     0
 71
     3
 72
    12
 73
     8
 74
     0
 42
0.0000000001
 43
0.0000000001
 40
0.0
 40
0.0
 40
0.0
 40
0.0
 40
0.5
 40
0.5
 40
0.5
 40
0.5
 40
1.0
 40
1.0
 40
1.0
 40
1.0
 10
-46.927300000000002
 20
-37.8508
 30
0.0
 10
-46.8386
 20
-38.0045
 30
0.0
 10
-46.657800000000002
 20
-38.0794
 30
0.0
 10
-46.486400000000003
 20
-38.033500000000004
 30
0.0
 10
-46.486400000000003
 20
-38.033500000000004
 30
0.0
 10
-46.315100000000001
 20
-37.9876
 30
0.0
 10
-46.195900000000002
 20
-37.832300000000004
 30
0.0
 10
-46.195900000000002
 20
-37.654800000000002
 30
0.0
  0
SPLINE
  5
AA
100
AcDbEntity
  8
LC-002-000-----0
370
    35
100
AcDbSpline
210
0.0
220
0.0
230
1.0
 70
     0
 71
     3
 72
    12
 73
     8
 74
     0
 42
0.0000000001
 43
0.0000000001
 40
0.0
 40
0.0
 40
0.0
 40
0.0
 40
0.5
 40
0.5
 40
0.5
 40
0.5
 40
1.0
 40
1.0
 40
1.0
 40
1.0
 10
-42.063700000000004
 20
-37.8508
 30
0.0
 10
-41.974900000000005
 20
-38.0045
 30
0.0
 10
-41.7941
 20
-38.0794
 30
0.0
 10
-41.622599999999998
 20
-38.0334
 30
0.0
 10
-41.622599999999998
 20
-38.0334
 30
0.0
 10
-41.451300000000003
 20
-37.9876
 30
0.0
 10
-41.3322
 20
-37.832300000000004
 30
0.0
 10
-41.3322
 20
-37.654800000000002
 30
0.0
  0
SPLINE
  5
AB
100
AcDbEntity
  8
LC-002-000-----0
370
    35
100
AcDbSpline
210
0.0
220
0.0
230
1.0
 70
     0
 71
     3
 72
    12
 73
     8
 74
     0
 42
0.0000000001
 43
0.0000000001
 40
0.0
 40
0.0
 40
0.0
 40
0.0
 40
0.5
 40
0.5
 40
0.5
 40
0.5
 40
1.0
 40
1.0
 40
1.0
 40
1.0
 10
-48.640100000000004
 20
7.7632000000000003
 30
0.0
 10
-48.640100000000004
 20
7.9406000000000008
 30
0.0
 10
-48.759300000000003
 20
8.0959000000000003
 30
0.0
 10
-48.930600000000005
 20
8.1417999999999999
 30
0.0
 10
-48.930600000000005
 20
8.1417999999999999
 30
0.0
 10
-49.102000000000004
 20
8.1876999999999995
 30
0.0
 10
-49.282900000000005
 20
8.1128999999999998
 30
0.0
 10
-49.371500000000005
 20
7.9592000000000001
 30
0.0
  0
SPLINE
  5
AC
100
AcDbEntity
  8
LC-002-000-----0
370
    35
100
AcDbSpline
210
0.0
220
0.0
230
1.0
 70
     0
 71
     3
 72
    12
 73
     8
 74
     0
 42
0.0000000001
 43
0.0000000001
 40
0.0
 40
0.0
 40
0.0
 40
0.0
 40
0.5
 40
0.5
 40
0.5
 40
0.5
 40
1.0
 40
1.0
 40
1.0
 40
1.0
 10
-51.084099999999999
 20
7.7419000000000002
 30
0.0
 10
-51.084099999999999
 20
7.9193000000000007
 30
0.0
 10
-51.203300000000006
 20
8.0747
 30
0.0
 10
-51.374700000000004
 20
8.1204999999999998
 30
0.0
 10
-51.374700000000004
 20
8.1204999999999998
 30
0.0
 10
-51.545999999999999
 20
8.166500000000001
 30
0.0
 10
-51.727000000000004
 20
8.0914999999999999
 30
0.0
 10
-51.815600000000003
 20
7.9380000000000006
 30
0.0
  0
SPLINE
  5
AD
100
AcDbEntity
  8
LC-002-000-----0
370
    35
100
AcDbSpline
210
0.0
220
0.0
230
1.0
 70
     0
 71
     3
 72
    12
 73
     8
 74
     0
 42
0.0000000001
 43
0.0000000001
 40
0.0
 40
0.0
 40
0.0
 40
0.0
 40
0.5
 40
0.5
 40
0.5
 40
0.5
 40
1.0
 40
1.0
 40
1.0
 40
1.0
 10
-49.371400000000001
 20
-37.872100000000003
 30
0.0
 10
-49.282700000000006
 20
-38.025700000000001
 30
0.0
 10
-49.101800000000004
 20
-38.100700000000003
 30
0.0
 10
-48.930500000000002
 20
-38.0548
 30
0.0
 10
-48.930500000000002
 20
-38.0548
 30
0.0
 10
-48.759100000000004
 20
-38.008800000000001
 30
0.0
 10
-48.639900000000004
 20
-37.853500000000004
 30
0.0
 10
-48.639900000000004
 20
-37.676100000000005
 30
0.0
  0
SPLINE
  5
AE
100
AcDbEntity
  8
LC-002-000-----0
370
    35
100
AcDbSpline
210
0.0
220
0.0
230
1.0
 70
     0
 71
     3
 72
    12
 73
     8
 74
     0
 42
0.0000000001
 43
0.0000000001
 40
0.0
 40
0.0
 40
0.0
 40
0.0
 40
0.5
 40
0.5
 40
0.5
 40
0.5
 40
1.0
 40
1.0
 40
1.0
 40
1.0
 10
-51.815400000000004
 20
-37.893300000000004
 30
0.0
 10
-51.726700000000001
 20
-38.047000000000004
 30
0.0
 10
-51.545900000000003
 20
-38.122
 30
0.0
 10
-51.374500000000005
 20
-38.076000000000001
 30
0.0
 10
-51.374500000000005
 20
-38.076000000000001
 30
0.0
 10
-51.203200000000002
 20
-38.030000000000001
 30
0.0
 10
-51.084000000000003
 20
-37.8748
 30
0.0
 10
-51.084000000000003
 20
-37.697400000000002
 30
0.0
  0
SPLINE
  5
AF
100
AcDbEntity
  8
LC-002-000-----0
370
    35
100
AcDbSpline
210
0.0
220
0.0
230
1.0
 70
     0
 71
     3
 72
    12
 73
     8
 74
     0
 42
0.0000000001
 43
0.0000000001
 40
0.0
 40
0.0
 40
0.0
 40
0.0
 40
0.5
 40
0.5
 40
0.5
 40
0.5
 40
1.0
 40
1.0
 40
1.0
 40
1.0
 10
-36.469000000000001
 20
7.7844000000000007
 30
0.0
 10
-36.469000000000001
 20
7.9619
 30
0.0
 10
-36.588200000000001
 20
8.1171000000000006
 30
0.0
 10
-36.759500000000003
 20
8.1631
 30
0.0
 10
-36.759500000000003
 20
8.1631
 30
0.0
 10
-36.930900000000001
 20
8.2091000000000012
 30
0.0
 10
-37.111600000000003
 20
8.1341000000000001
 30
0.0
 10
-37.200400000000002
 20
7.9804000000000004
 30
0.0
  0
SPLINE
  5
B0
100
AcDbEntity
  8
LC-002-000-----0
370
    35
100
AcDbSpline
210
0.0
220
0.0
230
1.0
 70
     0
 71
     3
 72
    12
 73
     8
 74
     0
 42
0.0000000001
 43
0.0000000001
 40
0.0
 40
0.0
 40
0.0
 40
0.0
 40
0.5
 40
0.5
 40
0.5
 40
0.5
 40
1.0
 40
1.0
 40
1.0
 40
1.0
 10
-37.200099999999999
 20
-37.8508
 30
0.0
 10
-37.111499999999999
 20
-38.0045
 30
0.0
 10
-36.930800000000005
 20
-38.0794
 30
0.0
 10
-36.759399999999999
 20
-38.0334
 30
0.0
 10
-36.759399999999999
 20
-38.0334
 30
0.0
 10
-36.587900000000005
 20
-37.9876
 30
0.0
 10
-36.468900000000005
 20
-37.832300000000004
 30
0.0
 10
-36.468900000000005
 20
-37.654800000000002
 30
0.0
  0
SPLINE
  5
B2
100
AcDbEntity
  8
LC-003-001-----0
370
    35
100
AcDbSpline
210
0.0
220
0.0
230
1.0
 70
     0
 71
     3
 72
     8
 73
     4
 74
     0
 42
0.0000000001
 43
0.0000000001
 40
0.0
 40
0.0
 40
0.0
 40
0.0
 40
1.0
 40
1.0
 40
1.0
 40
1.0
 10
-89.244399999999999
 20
-34.4283
 30
0.0
 10
-89.244399999999999
 20
-34.4283
 30
0.0
 10
-86.928400000000011
 20
-34.4283
 30
0.0
 10
-86.928400000000011
 20
-34.4283
 30
0.0
  0
SPLINE
  5
B3
100
AcDbEntity
  8
LC-003-001-----0
370
    35
100
AcDbSpline
210
0.0
220
0.0
230
1.0
 70
     0
 71
     3
 72
     8
 73
     4
 74
     0
 42
0.0000000001
 43
0.0000000001
 40
0.0
 40
0.0
 40
0.0
 40
0.0
 40
1.0
 40
1.0
 40
1.0
 40
1.0
 10
-89.244399999999999
 20
-14.7422
 30
0.0
 10
-89.244399999999999
 20
-14.7422
 30
0.0
 10
-86.928400000000011
 20
-14.7422
 30
0.0
 10
-86.928400000000011
 20
-14.7422
 30
0.0
  0
SPLINE
  5
B4
100
AcDbEntity
  8
LC-003-001-----0
370
    35
100
AcDbSpline
210
0.0
220
0.0
230
1.0
 70
     0
 71
     3
 72
     8
 73
     4
 74
     0
 42
0.0000000001
 43
0.0000000001
 40
0.0
 40
0.0
 40
0.0
 40
0.0
 40
1.0
 40
1.0
 40
1.0
 40
1.0
 10
-83.840500000000006
 20
-36.261700000000005
 30
0.0
 10
-83.840500000000006
 20
-36.261700000000005
 30
0.0
 10
-83.840500000000006
 20
-12.908800000000001
 30
0.0
 10
-83.840500000000006
 20
-12.908800000000001
 30
0.0
  0
SPLINE
  5
B5
100
AcDbEntity
  8
LC-003-001-----0
370
    35
100
AcDbSpline
210
0.0
220
0.0
230
1.0
 70
     0
 71
     3
 72
     8
 73
     4
 74
     0
 42
0.0000000001
 43
0.0000000001
 40
0.0
 40
0.0
 40
0.0
 40
0.0
 40
1.0
 40
1.0
 40
1.0
 40
1.0
 10
-83.840500000000006
 20
-14.7422
 30
0.0
 10
-83.840500000000006
 20
-14.7422
 30
0.0
 10
-69.275999999999996
 20
-14.7422
 30
0.0
 10
-69.275999999999996
 20
-14.7422
 30
0.0
  0
SPLINE
  5
B6
100
AcDbEntity
  8
LC-003-001-----0
370
    35
100
AcDbSpline
210
0.0
220
0.0
230
1.0
 70
     0
 71
     3
 72
     8
 73
     4
 74
     0
 42
0.0000000001
 43
0.0000000001
 40
0.0
 40
0.0
 40
0.0
 40
0.0
 40
1.0
 40
1.0
 40
1.0
 40
1.0
 10
-65.293000000000006
 20
-15.738000000000001
 30
0.0
 10
-65.293000000000006
 20
-15.738000000000001
 30
0.0
 10
-69.275999999999996
 20
-14.7422
 30
0.0
 10
-69.275999999999996
 20
-14.7422
 30
0.0
  0
SPLINE
  5
B7
100
AcDbEntity
  8
LC-003-001-----0
370
    35
100
AcDbSpline
210
0.0
220
0.0
230
1.0
 70
     0
 71
     3
 72
     8
 73
     4
 74
     0
 42
0.0000000001
 43
0.0000000001
 40
0.0
 40
0.0
 40
0.0
 40
0.0
 40
1.0
 40
1.0
 40
1.0
 40
1.0
 10
-65.415999999999997
 20
-33.463200000000001
 30
0.0
 10
-65.415999999999997
 20
-33.463200000000001
 30
0.0
 10
-55.675400000000003
 20
-33.463200000000001
 30
0.0
 10
-55.675400000000003
 20
-33.463200000000001
 30
0.0
  0
SPLINE
  5
B8
100
AcDbEntity
  8
LC-003-001-----0
370
    35
100
AcDbSpline
210
0.0
220
0.0
230
1.0
 70
     0
 71
     3
 72
     8
 73
     4
 74
     0
 42
0.0000000001
 43
0.0000000001
 40
0.0
 40
0.0
 40
0.0
 40
0.0
 40
1.0
 40
1.0
 40
1.0
 40
1.0
 10
-65.415999999999997
 20
-33.463200000000001
 30
0.0
 10
-65.415999999999997
 20
-33.463200000000001
 30
0.0
 10
-69.275999999999996
 20
-34.428200000000004
 30
0.0
 10
-69.275999999999996
 20
-34.428200000000004
 30
0.0
  0
SPLINE
  5
B9
100
AcDbEntity
  8
LC-003-001-----0
370
    35
100
AcDbSpline
210
0.0
220
0.0
230
1.0
 70
     0
 71
     3
 72
     8
 73
     4
 74
     0
 42
0.0000000001
 43
0.0000000001
 40
0.0
 40
0.0
 40
0.0
 40
0.0
 40
1.0
 40
1.0
 40
1.0
 40
1.0
 10
-83.840500000000006
 20
-34.4283
 30
0.0
 10
-83.840500000000006
 20
-34.4283
 30
0.0
 10
-69.275999999999996
 20
-34.428200000000004
 30
0.0
 10
-69.275999999999996
 20
-34.428200000000004
 30
0.0
  0
SPLINE
  5
BB
100
AcDbEntity
  8
LC-004-005-----0
370
    35
100
AcDbSpline
210
0.0
220
0.0
230
1.0
 70
     0
 71
     3
 72
     8
 73
     4
 74
     0
 42
0.0000000001
 43
0.0000000001
 40
0.0
 40
0.0
 40
0.0
 40
0.0
 40
1.0
 40
1.0
 40
1.0
 40
1.0
 10
-46.0717
 20
-1.2148000000000001
 30
0.0
 10
-46.0717
 20
-1.2148000000000001
 30
0.0
 10
-46.196000000000005
 20
-1.3391
 30
0.0
 10
-46.196000000000005
 20
-1.3391
 30
0.0
  0
SPLINE
  5
BC
100
AcDbEntity
  8
LC-004-005-----0
370
    20
100
AcDbSpline
210
0.0
220
0.0
230
1.0
 70
     0
 71
     3
 72
     8
 73
     4
 74
     0
 42
0.0000000001
 43
0.0000000001
 40
0.0
 40
0.0
 40
0.0
 40
0.0
 40
1.0
 40
1.0
 40
1.0
 40
1.0
 10
-36.469000000000001
 20
5.9640000000000004
 30
0.0
 10
-36.469000000000001
 20
5.9640000000000004
 30
0.0
 10
-35.496000000000002
 20
6.9370000000000003
 30
0.0
 10
-35.496000000000002
 20
6.9370000000000003
 30
0.0
  0
SPLINE
  5
BD
100
AcDbEntity
  8
LC-004-005-----0
370
    20
100
AcDbSpline
210
0.0
220
0.0
230
1.0
 70
     0
 71
     3
 72
     8
 73
     4
 74
     0
 42
0.0000000001
 43
0.0000000001
 40
0.0
 40
0.0
 40
0.0
 40
0.0
 40
1.0
 40
1.0
 40
1.0
 40
1.0
 10
-36.469000000000001
 20
7.0557000000000007
 30
0.0
 10
-36.469000000000001
 20
7.0557000000000007
 30
0.0
 10
-34.351900000000001
 20
9.1728000000000005
 30
0.0
 10
-34.351900000000001
 20
9.1728000000000005
 30
0.0
  0
SPLINE
  5
BE
100
AcDbEntity
  8
LC-004-005-----0
370
    20
100
AcDbSpline
210
0.0
220
0.0
230
1.0
 70
     0
 71
     3
 72
     8
 73
     4
 74
     0
 42
0.0000000001
 43
0.0000000001
 40
0.0
 40
0.0
 40
0.0
 40
0.0
 40
1.0
 40
1.0
 40
1.0
 40
1.0
 10
-38.900700000000001
 20
5.7156000000000002
 30
0.0
 10
-38.900700000000001
 20
5.7156000000000002
 30
0.0
 10
-37.971299999999999
 20
6.6450000000000005
 30
0.0
 10
-37.971299999999999
 20
6.6450000000000005
 30
0.0
  0
SPLINE
  5
BF
100
AcDbEntity
  8
LC-004-005-----0
370
    20
100
AcDbSpline
210
0.0
220
0.0
230
1.0
 70
     0
 71
     3
 72
     8
 73
     4
 74
     0
 42
0.0000000001
 43
0.0000000001
 40
0.0
 40
0.0
 40
0.0
 40
0.0
 40
1.0
 40
1.0
 40
1.0
 40
1.0
 10
-36.569700000000005
 20
8.0468000000000011
 30
0.0
 10
-36.569700000000005
 20
8.0468000000000011
 30
0.0
 10
-34.4878
 20
10.1287
 30
0.0
 10
-34.4878
 20
10.1287
 30
0.0
  0
SPLINE
  5
C0
100
AcDbEntity
  8
LC-004-005-----0
370
    20
100
AcDbSpline
210
0.0
220
0.0
230
1.0
 70
     0
 71
     3
 72
     8
 73
     4
 74
     0
 42
0.0000000001
 43
0.0000000001
 40
0.0
 40
0.0
 40
0.0
 40
0.0
 40
1.0
 40
1.0
 40
1.0
 40
1.0
 10
-38.900700000000001
 20
6.8075000000000001
 30
0.0
 10
-38.900700000000001
 20
6.8075000000000001
 30
0.0
 10
-36.315899999999999
 20
9.3924000000000003
 30
0.0
 10
-36.315899999999999
 20
9.3924000000000003
 30
0.0
  0
SPLINE
  5
C1
100
AcDbEntity
  8
LC-004-005-----0
370
    20
100
AcDbSpline
210
0.0
220
0.0
230
1.0
 70
     0
 71
     3
 72
     8
 73
     4
 74
     0
 42
0.0000000001
 43
0.0000000001
 40
0.0
 40
0.0
 40
0.0
 40
0.0
 40
1.0
 40
1.0
 40
1.0
 40
1.0
 10
-35.860700000000001
 20
9.8475000000000001
 30
0.0
 10
-35.860700000000001
 20
9.8475000000000001
 30
0.0
 10
-35.141200000000005
 20
10.5671
 30
0.0
 10
-35.141200000000005
 20
10.5671
 30
0.0
  0
SPLINE
  5
C2
100
AcDbEntity
  8
LC-004-005-----0
370
    20
100
AcDbSpline
210
0.0
220
0.0
230
1.0
 70
     0
 71
     3
 72
     8
 73
     4
 74
     0
 42
0.0000000001
 43
0.0000000001
 40
0.0
 40
0.0
 40
0.0
 40
0.0
 40
1.0
 40
1.0
 40
1.0
 40
1.0
 10
-41.332500000000003
 20
5.4674000000000005
 30
0.0
 10
-41.332500000000003
 20
5.4674000000000005
 30
0.0
 10
-40.742200000000004
 20
6.0575999999999999
 30
0.0
 10
-40.742200000000004
 20
6.0575999999999999
 30
0.0
  0
SPLINE
  5
C3
100
AcDbEntity
  8
LC-004-005-----0
370
    20
100
AcDbSpline
210
0.0
220
0.0
230
1.0
 70
     0
 71
     3
 72
     8
 73
     4
 74
     0
 42
0.0000000001
 43
0.0000000001
 40
0.0
 40
0.0
 40
0.0
 40
0.0
 40
1.0
 40
1.0
 40
1.0
 40
1.0
 10
-38.914000000000001
 20
7.8859000000000004
 30
0.0
 10
-38.914000000000001
 20
7.8859000000000004
 30
0.0
 10
-37.407499999999999
 20
9.3924000000000003
 30
0.0
 10
-37.407499999999999
 20
9.3924000000000003
 30
0.0
  0
SPLINE
  5
C4
100
AcDbEntity
  8
LC-004-005-----0
370
    20
100
AcDbSpline
210
0.0
220
0.0
230
1.0
 70
     0
 71
     3
 72
     8
 73
     4
 74
     0
 42
0.0000000001
 43
0.0000000001
 40
0.0
 40
0.0
 40
0.0
 40
0.0
 40
1.0
 40
1.0
 40
1.0
 40
1.0
 10
-41.332500000000003
 20
6.5592000000000006
 30
0.0
 10
-41.332500000000003
 20
6.5592000000000006
 30
0.0
 10
-38.499300000000005
 20
9.3924000000000003
 30
0.0
 10
-38.499300000000005
 20
9.3924000000000003
 30
0.0
  0
SPLINE
  5
C5
100
AcDbEntity
  8
LC-004-005-----0
370
    20
100
AcDbSpline
210
0.0
220
0.0
230
1.0
 70
     0
 71
     3
 72
     8
 73
     4
 74
     0
 42
0.0000000001
 43
0.0000000001
 40
0.0
 40
0.0
 40
0.0
 40
0.0
 40
1.0
 40
1.0
 40
1.0
 40
1.0
 10
-43.764200000000002
 20
5.2191000000000001
 30
0.0
 10
-43.764200000000002
 20
5.2191000000000001
 30
0.0
 10
-43.513200000000005
 20
5.4702999999999999
 30
0.0
 10
-43.513200000000005
 20
5.4702999999999999
 30
0.0
  0
SPLINE
  5
C6
100
AcDbEntity
  8
LC-004-005-----0
370
    20
100
AcDbSpline
210
0.0
220
0.0
230
1.0
 70
     0
 71
     3
 72
     8
 73
     4
 74
     0
 42
0.0000000001
 43
0.0000000001
 40
0.0
 40
0.0
 40
0.0
 40
0.0
 40
1.0
 40
1.0
 40
1.0
 40
1.0
 10
-41.332500000000003
 20
7.6510000000000007
 30
0.0
 10
-41.332500000000003
 20
7.6510000000000007
 30
0.0
 10
-39.591100000000004
 20
9.3924000000000003
 30
0.0
 10
-39.591100000000004
 20
9.3924000000000003
 30
0.0
  0
SPLINE
  5
C7
100
AcDbEntity
  8
LC-004-005-----0
370
    20
100
AcDbSpline
210
0.0
220
0.0
230
1.0
 70
     0
 71
     3
 72
     8
 73
     4
 74
     0
 42
0.0000000001
 43
0.0000000001
 40
0.0
 40
0.0
 40
0.0
 40
0.0
 40
1.0
 40
1.0
 40
1.0
 40
1.0
 10
-43.764200000000002
 20
6.3109999999999999
 30
0.0
 10
-43.764200000000002
 20
6.3109999999999999
 30
0.0
 10
-40.6828
 20
9.3924000000000003
 30
0.0
 10
-40.6828
 20
9.3924000000000003
 30
0.0
  0
SPLINE
  5
C8
100
AcDbEntity
  8
LC-004-005-----0
370
    20
100
AcDbSpline
210
0.0
220
0.0
230
1.0
 70
     0
 71
     3
 72
     8
 73
     4
 74
     0
 42
0.0000000001
 43
0.0000000001
 40
0.0
 40
0.0
 40
0.0
 40
0.0
 40
1.0
 40
1.0
 40
1.0
 40
1.0
 10
-43.764200000000002
 20
7.4027000000000003
 30
0.0
 10
-43.764200000000002
 20
7.4027000000000003
 30
0.0
 10
-41.774700000000003
 20
9.3924000000000003
 30
0.0
 10
-41.774700000000003
 20
9.3924000000000003
 30
0.0
  0
SPLINE
  5
C9
100
AcDbEntity
  8
LC-004-005-----0
370
    20
100
AcDbSpline
210
0.0
220
0.0
230
1.0
 70
     0
 71
     3
 72
     8
 73
     4
 74
     0
 42
0.0000000001
 43
0.0000000001
 40
0.0
 40
0.0
 40
0.0
 40
0.0
 40
1.0
 40
1.0
 40
1.0
 40
1.0
 10
-46.196000000000005
 20
6.0626000000000007
 30
0.0
 10
-46.196000000000005
 20
6.0626000000000007
 30
0.0
 10
-44.792700000000004
 20
7.4661
 30
0.0
 10
-44.792700000000004
 20
7.4661
 30
0.0
  0
SPLINE
  5
CA
100
AcDbEntity
  8
LC-004-005-----0
370
    20
100
AcDbSpline
210
0.0
220
0.0
230
1.0
 70
     0
 71
     3
 72
     8
 73
     4
 74
     0
 42
0.0000000001
 43
0.0000000001
 40
0.0
 40
0.0
 40
0.0
 40
0.0
 40
1.0
 40
1.0
 40
1.0
 40
1.0
 10
-44.088200000000001
 20
8.1705000000000005
 30
0.0
 10
-44.088200000000001
 20
8.1705000000000005
 30
0.0
 10
-42.866399999999999
 20
9.3924000000000003
 30
0.0
 10
-42.866399999999999
 20
9.3924000000000003
 30
0.0
  0
SPLINE
  5
CB
100
AcDbEntity
  8
LC-004-005-----0
370
    20
100
AcDbSpline
210
0.0
220
0.0
230
1.0
 70
     0
 71
     3
 72
     8
 73
     4
 74
     0
 42
0.0000000001
 43
0.0000000001
 40
0.0
 40
0.0
 40
0.0
 40
0.0
 40
1.0
 40
1.0
 40
1.0
 40
1.0
 10
-46.196000000000005
 20
7.1545000000000005
 30
0.0
 10
-46.196000000000005
 20
7.1545000000000005
 30
0.0
 10
-43.958100000000002
 20
9.3924000000000003
 30
0.0
 10
-43.958100000000002
 20
9.3924000000000003
 30
0.0
  0
SPLINE
  5
CC
100
AcDbEntity
  8
LC-004-005-----0
370
    20
100
AcDbSpline
210
0.0
220
0.0
230
1.0
 70
     0
 71
     3
 72
     8
 73
     4
 74
     0
 42
0.0000000001
 43
0.0000000001
 40
0.0
 40
0.0
 40
0.0
 40
0.0
 40
1.0
 40
1.0
 40
1.0
 40
1.0
 10
-48.640100000000004
 20
5.8022
 30
0.0
 10
-48.640100000000004
 20
5.8022
 30
0.0
 10
-47.563600000000001
 20
6.8787000000000003
 30
0.0
 10
-47.563600000000001
 20
6.8787000000000003
 30
0.0
  0
SPLINE
  5
CD
100
AcDbEntity
  8
LC-004-005-----0
370
    20
100
AcDbSpline
210
0.0
220
0.0
230
1.0
 70
     0
 71
     3
 72
     8
 73
     4
 74
     0
 42
0.0000000001
 43
0.0000000001
 40
0.0
 40
0.0
 40
0.0
 40
0.0
 40
1.0
 40
1.0
 40
1.0
 40
1.0
 10
-46.347900000000003
 20
8.0943000000000005
 30
0.0
 10
-46.347900000000003
 20
8.0943000000000005
 30
0.0
 10
-45.050000000000004
 20
9.3924000000000003
 30
0.0
 10
-45.050000000000004
 20
9.3924000000000003
 30
0.0
  0
SPLINE
  5
CE
100
AcDbEntity
  8
LC-004-005-----0
370
    20
100
AcDbSpline
210
0.0
220
0.0
230
1.0
 70
     0
 71
     3
 72
     8
 73
     4
 74
     0
 42
0.0000000001
 43
0.0000000001
 40
0.0
 40
0.0
 40
0.0
 40
0.0
 40
1.0
 40
1.0
 40
1.0
 40
1.0
 10
-48.640100000000004
 20
6.8939000000000004
 30
0.0
 10
-48.640100000000004
 20
6.8939000000000004
 30
0.0
 10
-46.1417
 20
9.3924000000000003
 30
0.0
 10
-46.1417
 20
9.3924000000000003
 30
0.0
  0
SPLINE
  5
CF
100
AcDbEntity
  8
LC-004-005-----0
370
    20
100
AcDbSpline
210
0.0
220
0.0
230
1.0
 70
     0
 71
     3
 72
     8
 73
     4
 74
     0
 42
0.0000000001
 43
0.0000000001
 40
0.0
 40
0.0
 40
0.0
 40
0.0
 40
1.0
 40
1.0
 40
1.0
 40
1.0
 10
-51.084099999999999
 20
5.5417000000000005
 30
0.0
 10
-51.084099999999999
 20
5.5417000000000005
 30
0.0
 10
-50.334400000000002
 20
6.2914000000000003
 30
0.0
 10
-50.334400000000002
 20
6.2914000000000003
 30
0.0
  0
SPLINE
  5
D0
100
AcDbEntity
  8
LC-004-005-----0
370
    20
100
AcDbSpline
210
0.0
220
0.0
230
1.0
 70
     0
 71
     3
 72
     8
 73
     4
 74
     0
 42
0.0000000001
 43
0.0000000001
 40
0.0
 40
0.0
 40
0.0
 40
0.0
 40
1.0
 40
1.0
 40
1.0
 40
1.0
 10
-48.683399999999999
 20
7.9424000000000001
 30
0.0
 10
-48.683399999999999
 20
7.9424000000000001
 30
0.0
 10
-47.233600000000003
 20
9.3924000000000003
 30
0.0
 10
-47.233600000000003
 20
9.3924000000000003
 30
0.0
  0
SPLINE
  5
D1
100
AcDbEntity
  8
LC-004-005-----0
370
    20
100
AcDbSpline
210
0.0
220
0.0
230
1.0
 70
     0
 71
     3
 72
     8
 73
     4
 74
     0
 42
0.0000000001
 43
0.0000000001
 40
0.0
 40
0.0
 40
0.0
 40
0.0
 40
1.0
 40
1.0
 40
1.0
 40
1.0
 10
-51.084099999999999
 20
6.6334
 30
0.0
 10
-51.084099999999999
 20
6.6334
 30
0.0
 10
-48.325300000000006
 20
9.3922000000000008
 30
0.0
 10
-48.325300000000006
 20
9.3922000000000008
 30
0.0
  0
SPLINE
  5
D2
100
AcDbEntity
  8
LC-004-005-----0
370
    20
100
AcDbSpline
210
0.0
220
0.0
230
1.0
 70
     0
 71
     3
 72
     8
 73
     4
 74
     0
 42
0.0000000001
 43
0.0000000001
 40
0.0
 40
0.0
 40
0.0
 40
0.0
 40
1.0
 40
1.0
 40
1.0
 40
1.0
 10
-53.528300000000002
 20
5.2811000000000003
 30
0.0
 10
-53.528300000000002
 20
5.2811000000000003
 30
0.0
 10
-53.105400000000003
 20
5.7040000000000006
 30
0.0
 10
-53.105400000000003
 20
5.7040000000000006
 30
0.0
  0
SPLINE
  5
D3
100
AcDbEntity
  8
LC-004-005-----0
370
    20
100
AcDbSpline
210
0.0
220
0.0
230
1.0
 70
     0
 71
     3
 72
     8
 73
     4
 74
     0
 42
0.0000000001
 43
0.0000000001
 40
0.0
 40
0.0
 40
0.0
 40
0.0
 40
1.0
 40
1.0
 40
1.0
 40
1.0
 10
-51.084099999999999
 20
7.7252000000000001
 30
0.0
 10
-51.084099999999999
 20
7.7252000000000001
 30
0.0
 10
-49.417000000000002
 20
9.3922000000000008
 30
0.0
 10
-49.417000000000002
 20
9.3922000000000008
 30
0.0
  0
SPLINE
  5
D4
100
AcDbEntity
  8
LC-004-005-----0
370
    20
100
AcDbSpline
210
0.0
220
0.0
230
1.0
 70
     0
 71
     3
 72
     8
 73
     4
 74
     0
 42
0.0000000001
 43
0.0000000001
 40
0.0
 40
0.0
 40
0.0
 40
0.0
 40
1.0
 40
1.0
 40
1.0
 40
1.0
 10
-53.528300000000002
 20
6.3728000000000007
 30
0.0
 10
-53.528300000000002
 20
6.3728000000000007
 30
0.0
 10
-50.508900000000004
 20
9.3922000000000008
 30
0.0
 10
-50.508900000000004
 20
9.3922000000000008
 30
0.0
  0
SPLINE
  5
D5
100
AcDbEntity
  8
LC-004-005-----0
370
    20
100
AcDbSpline
210
0.0
220
0.0
230
1.0
 70
     0
 71
     3
 72
     8
 73
     4
 74
     0
 42
0.0000000001
 43
0.0000000001
 40
0.0
 40
0.0
 40
0.0
 40
0.0
 40
1.0
 40
1.0
 40
1.0
 40
1.0
 10
-53.528300000000002
 20
7.4647000000000006
 30
0.0
 10
-53.528300000000002
 20
7.4647000000000006
 30
0.0
 10
-51.6006
 20
9.3922000000000008
 30
0.0
 10
-51.6006
 20
9.3922000000000008
 30
0.0
  0
SPLINE
  5
D6
100
AcDbEntity
  8
LC-004-005-----0
370
    20
100
AcDbSpline
210
0.0
220
0.0
230
1.0
 70
     0
 71
     3
 72
     8
 73
     4
 74
     0
 42
0.0000000001
 43
0.0000000001
 40
0.0
 40
0.0
 40
0.0
 40
0.0
 40
1.0
 40
1.0
 40
1.0
 40
1.0
 10
-54.546600000000005
 20
7.5380000000000003
 30
0.0
 10
-54.546600000000005
 20
7.5380000000000003
 30
0.0
 10
-54.278300000000002
 20
7.8062000000000005
 30
0.0
 10
-54.278300000000002
 20
7.8062000000000005
 30
0.0
  0
SPLINE
  5
D7
100
AcDbEntity
  8
LC-004-005-----0
370
    20
100
AcDbSpline
210
0.0
220
0.0
230
1.0
 70
     0
 71
     3
 72
     8
 73
     4
 74
     0
 42
0.0000000001
 43
0.0000000001
 40
0.0
 40
0.0
 40
0.0
 40
0.0
 40
1.0
 40
1.0
 40
1.0
 40
1.0
 10
-53.950800000000001
 20
8.1339000000000006
 30
0.0
 10
-53.950800000000001
 20
8.1339000000000006
 30
0.0
 10
-52.692300000000003
 20
9.3922000000000008
 30
0.0
 10
-52.692300000000003
 20
9.3922000000000008
 30
0.0
  0
SPLINE
  5
D8
100
AcDbEntity
  8
LC-004-005-----0
370
    20
100
AcDbSpline
210
0.0
220
0.0
230
1.0
 70
     0
 71
     3
 72
     8
 73
     4
 74
     0
 42
0.0000000001
 43
0.0000000001
 40
0.0
 40
0.0
 40
0.0
 40
0.0
 40
1.0
 40
1.0
 40
1.0
 40
1.0
 10
-55.482500000000002
 20
7.694
 30
0.0
 10
-55.482500000000002
 20
7.694
 30
0.0
 10
-53.784200000000006
 20
9.3922000000000008
 30
0.0
 10
-53.784200000000006
 20
9.3922000000000008
 30
0.0
  0
SPLINE
  5
D9
100
AcDbEntity
  8
LC-004-005-----0
370
    20
100
AcDbSpline
210
0.0
220
0.0
230
1.0
 70
     0
 71
     3
 72
     8
 73
     4
 74
     0
 42
0.0000000001
 43
0.0000000001
 40
0.0
 40
0.0
 40
0.0
 40
0.0
 40
1.0
 40
1.0
 40
1.0
 40
1.0
 10
-55.459000000000003
 20
8.8092000000000006
 30
0.0
 10
-55.459000000000003
 20
8.8092000000000006
 30
0.0
 10
-54.899300000000004
 20
9.3688000000000002
 30
0.0
 10
-54.899300000000004
 20
9.3688000000000002
 30
0.0
  0
SPLINE
  5
DA
100
AcDbEntity
  8
LC-004-005-----0
370
    20
100
AcDbSpline
210
0.0
220
0.0
230
1.0
 70
     0
 71
     3
 72
     8
 73
     4
 74
     0
 42
0.0000000001
 43
0.0000000001
 40
0.0
 40
0.0
 40
0.0
 40
0.0
 40
1.0
 40
1.0
 40
1.0
 40
1.0
 10
-35.860900000000001
 20
-40.373899999999999
 30
0.0
 10
-35.860900000000001
 20
-40.373899999999999
 30
0.0
 10
-34.412100000000002
 20
-38.925200000000004
 30
0.0
 10
-34.412100000000002
 20
-38.925200000000004
 30
0.0
  0
SPLINE
  5
DB
100
AcDbEntity
  8
LC-004-005-----0
370
    20
100
AcDbSpline
210
0.0
220
0.0
230
1.0
 70
     0
 71
     3
 72
     8
 73
     4
 74
     0
 42
0.0000000001
 43
0.0000000001
 40
0.0
 40
0.0
 40
0.0
 40
0.0
 40
1.0
 40
1.0
 40
1.0
 40
1.0
 10
-35.860900000000001
 20
-39.282200000000003
 30
0.0
 10
-35.860900000000001
 20
-39.282200000000003
 30
0.0
 10
-34.781700000000001
 20
-38.203000000000003
 30
0.0
 10
-34.781700000000001
 20
-38.203000000000003
 30
0.0
  0
SPLINE
  5
DC
100
AcDbEntity
  8
LC-004-005-----0
370
    20
100
AcDbSpline
210
0.0
220
0.0
230
1.0
 70
     0
 71
     3
 72
     8
 73
     4
 74
     0
 42
0.0000000001
 43
0.0000000001
 40
0.0
 40
0.0
 40
0.0
 40
0.0
 40
1.0
 40
1.0
 40
1.0
 40
1.0
 10
-36.933199999999999
 20
-39.262700000000002
 30
0.0
 10
-36.933199999999999
 20
-39.262700000000002
 30
0.0
 10
-35.151299999999999
 20
-37.480699999999999
 30
0.0
 10
-35.151299999999999
 20
-37.480699999999999
 30
0.0
  0
SPLINE
  5
DD
100
AcDbEntity
  8
LC-004-005-----0
370
    20
100
AcDbSpline
210
0.0
220
0.0
230
1.0
 70
     0
 71
     3
 72
     8
 73
     4
 74
     0
 42
0.0000000001
 43
0.0000000001
 40
0.0
 40
0.0
 40
0.0
 40
0.0
 40
1.0
 40
1.0
 40
1.0
 40
1.0
 10
-38.024799999999999
 20
-39.262700000000002
 30
0.0
 10
-38.024799999999999
 20
-39.262700000000002
 30
0.0
 10
-36.805100000000003
 20
-38.0428
 30
0.0
 10
-36.805100000000003
 20
-38.0428
 30
0.0
  0
SPLINE
  5
DE
100
AcDbEntity
  8
LC-004-005-----0
370
    20
100
AcDbSpline
210
0.0
220
0.0
230
1.0
 70
     0
 71
     3
 72
     8
 73
     4
 74
     0
 42
0.0000000001
 43
0.0000000001
 40
0.0
 40
0.0
 40
0.0
 40
0.0
 40
1.0
 40
1.0
 40
1.0
 40
1.0
 10
-36.472799999999999
 20
-37.710500000000003
 30
0.0
 10
-36.472799999999999
 20
-37.710500000000003
 30
0.0
 10
-35.520800000000001
 20
-36.758500000000005
 30
0.0
 10
-35.520800000000001
 20
-36.758500000000005
 30
0.0
  0
SPLINE
  5
DF
100
AcDbEntity
  8
LC-004-005-----0
370
    20
100
AcDbSpline
210
0.0
220
0.0
230
1.0
 70
     0
 71
     3
 72
     8
 73
     4
 74
     0
 42
0.0000000001
 43
0.0000000001
 40
0.0
 40
0.0
 40
0.0
 40
0.0
 40
1.0
 40
1.0
 40
1.0
 40
1.0
 10
-39.116500000000002
 20
-39.262700000000002
 30
0.0
 10
-39.116500000000002
 20
-39.262700000000002
 30
0.0
 10
-37.384900000000002
 20
-37.530999999999999
 30
0.0
 10
-37.384900000000002
 20
-37.530999999999999
 30
0.0
  0
SPLINE
  5
E0
100
AcDbEntity
  8
LC-004-005-----0
370
    20
100
AcDbSpline
210
0.0
220
0.0
230
1.0
 70
     0
 71
     3
 72
     8
 73
     4
 74
     0
 42
0.0000000001
 43
0.0000000001
 40
0.0
 40
0.0
 40
0.0
 40
0.0
 40
1.0
 40
1.0
 40
1.0
 40
1.0
 10
-36.468900000000005
 20
-36.614899999999999
 30
0.0
 10
-36.468900000000005
 20
-36.614899999999999
 30
0.0
 10
-35.890300000000003
 20
-36.036300000000004
 30
0.0
 10
-35.890300000000003
 20
-36.036300000000004
 30
0.0
  0
SPLINE
  5
E1
100
AcDbEntity
  8
LC-004-005-----0
370
    20
100
AcDbSpline
210
0.0
220
0.0
230
1.0
 70
     0
 71
     3
 72
     8
 73
     4
 74
     0
 42
0.0000000001
 43
0.0000000001
 40
0.0
 40
0.0
 40
0.0
 40
0.0
 40
1.0
 40
1.0
 40
1.0
 40
1.0
 10
-40.208400000000005
 20
-39.262799999999999
 30
0.0
 10
-40.208400000000005
 20
-39.262799999999999
 30
0.0
 10
-37.784500000000001
 20
-36.838799999999999
 30
0.0
 10
-37.784500000000001
 20
-36.838799999999999
 30
0.0
  0
SPLINE
  5
E2
100
AcDbEntity
  8
LC-004-005-----0
370
    20
100
AcDbSpline
210
0.0
220
0.0
230
1.0
 70
     0
 71
     3
 72
     8
 73
     4
 74
     0
 42
0.0000000001
 43
0.0000000001
 40
0.0
 40
0.0
 40
0.0
 40
0.0
 40
1.0
 40
1.0
 40
1.0
 40
1.0
 10
-36.468900000000005
 20
-35.523000000000003
 30
0.0
 10
-36.468900000000005
 20
-35.523000000000003
 30
0.0
 10
-36.259900000000002
 20
-35.314100000000003
 30
0.0
 10
-36.259900000000002
 20
-35.314100000000003
 30
0.0
  0
SPLINE
  5
E3
100
AcDbEntity
  8
LC-004-005-----0
370
    20
100
AcDbSpline
210
0.0
220
0.0
230
1.0
 70
     0
 71
     3
 72
     8
 73
     4
 74
     0
 42
0.0000000001
 43
0.0000000001
 40
0.0
 40
0.0
 40
0.0
 40
0.0
 40
1.0
 40
1.0
 40
1.0
 40
1.0
 10
-41.3001
 20
-39.262799999999999
 30
0.0
 10
-41.3001
 20
-39.262799999999999
 30
0.0
 10
-39.725700000000003
 20
-37.688400000000001
 30
0.0
 10
-39.725700000000003
 20
-37.688400000000001
 30
0.0
  0
SPLINE
  5
E4
100
AcDbEntity
  8
LC-004-005-----0
370
    20
100
AcDbSpline
210
0.0
220
0.0
230
1.0
 70
     0
 71
     3
 72
     8
 73
     4
 74
     0
 42
0.0000000001
 43
0.0000000001
 40
0.0
 40
0.0
 40
0.0
 40
0.0
 40
1.0
 40
1.0
 40
1.0
 40
1.0
 10
-38.900500000000001
 20
-36.863100000000003
 30
0.0
 10
-38.900500000000001
 20
-36.863100000000003
 30
0.0
 10
-38.184000000000005
 20
-36.146700000000003
 30
0.0
 10
-38.184000000000005
 20
-36.146700000000003
 30
0.0
  0
SPLINE
  5
E5
100
AcDbEntity
  8
LC-004-005-----0
370
    20
100
AcDbSpline
210
0.0
220
0.0
230
1.0
 70
     0
 71
     3
 72
     8
 73
     4
 74
     0
 42
0.0000000001
 43
0.0000000001
 40
0.0
 40
0.0
 40
0.0
 40
0.0
 40
1.0
 40
1.0
 40
1.0
 40
1.0
 10
-42.392000000000003
 20
-39.262799999999999
 30
0.0
 10
-42.392000000000003
 20
-39.262799999999999
 30
0.0
 10
-40.125399999999999
 20
-36.996200000000002
 30
0.0
 10
-40.125399999999999
 20
-36.996200000000002
 30
0.0
  0
SPLINE
  5
E6
100
AcDbEntity
  8
LC-004-005-----0
370
    20
100
AcDbSpline
210
0.0
220
0.0
230
1.0
 70
     0
 71
     3
 72
     8
 73
     4
 74
     0
 42
0.0000000001
 43
0.0000000001
 40
0.0
 40
0.0
 40
0.0
 40
0.0
 40
1.0
 40
1.0
 40
1.0
 40
1.0
 10
-38.900500000000001
 20
-35.771300000000004
 30
0.0
 10
-38.900500000000001
 20
-35.771300000000004
 30
0.0
 10
-38.5837
 20
-35.454500000000003
 30
0.0
 10
-38.5837
 20
-35.454500000000003
 30
0.0
  0
SPLINE
  5
E7
100
AcDbEntity
  8
LC-004-005-----0
370
    20
100
AcDbSpline
210
0.0
220
0.0
230
1.0
 70
     0
 71
     3
 72
     8
 73
     4
 74
     0
 42
0.0000000001
 43
0.0000000001
 40
0.0
 40
0.0
 40
0.0
 40
0.0
 40
1.0
 40
1.0
 40
1.0
 40
1.0
 10
-43.483699999999999
 20
-39.262799999999999
 30
0.0
 10
-43.483699999999999
 20
-39.262799999999999
 30
0.0
 10
-42.066600000000001
 20
-37.845600000000005
 30
0.0
 10
-42.066600000000001
 20
-37.845600000000005
 30
0.0
  0
SPLINE
  5
E8
100
AcDbEntity
  8
LC-004-005-----0
370
    20
100
AcDbSpline
210
0.0
220
0.0
230
1.0
 70
     0
 71
     3
 72
     8
 73
     4
 74
     0
 42
0.0000000001
 43
0.0000000001
 40
0.0
 40
0.0
 40
0.0
 40
0.0
 40
1.0
 40
1.0
 40
1.0
 40
1.0
 10
-41.3322
 20
-37.111200000000004
 30
0.0
 10
-41.3322
 20
-37.111200000000004
 30
0.0
 10
-40.524999999999999
 20
-36.304099999999998
 30
0.0
 10
-40.524999999999999
 20
-36.304099999999998
 30
0.0
  0
SPLINE
  5
E9
100
AcDbEntity
  8
LC-004-005-----0
370
    20
100
AcDbSpline
210
0.0
220
0.0
230
1.0
 70
     0
 71
     3
 72
     8
 73
     4
 74
     0
 42
0.0000000001
 43
0.0000000001
 40
0.0
 40
0.0
 40
0.0
 40
0.0
 40
1.0
 40
1.0
 40
1.0
 40
1.0
 10
-44.575400000000002
 20
-39.262799999999999
 30
0.0
 10
-44.575400000000002
 20
-39.262799999999999
 30
0.0
 10
-42.466200000000001
 20
-37.153500000000001
 30
0.0
 10
-42.466200000000001
 20
-37.153500000000001
 30
0.0
  0
SPLINE
  5
EA
100
AcDbEntity
  8
LC-004-005-----0
370
    20
100
AcDbSpline
210
0.0
220
0.0
230
1.0
 70
     0
 71
     3
 72
     8
 73
     4
 74
     0
 42
0.0000000001
 43
0.0000000001
 40
0.0
 40
0.0
 40
0.0
 40
0.0
 40
1.0
 40
1.0
 40
1.0
 40
1.0
 10
-41.3322
 20
-36.019500000000001
 30
0.0
 10
-41.3322
 20
-36.019500000000001
 30
0.0
 10
-40.924600000000005
 20
-35.611899999999999
 30
0.0
 10
-40.924600000000005
 20
-35.611899999999999
 30
0.0
  0
SPLINE
  5
EB
100
AcDbEntity
  8
LC-004-005-----0
370
    20
100
AcDbSpline
210
0.0
220
0.0
230
1.0
 70
     0
 71
     3
 72
     8
 73
     4
 74
     0
 42
0.0000000001
 43
0.0000000001
 40
0.0
 40
0.0
 40
0.0
 40
0.0
 40
1.0
 40
1.0
 40
1.0
 40
1.0
 10
-45.667300000000004
 20
-39.262799999999999
 30
0.0
 10
-45.667300000000004
 20
-39.262799999999999
 30
0.0
 10
-44.380700000000004
 20
-37.976199999999999
 30
0.0
 10
-44.380700000000004
 20
-37.976199999999999
 30
0.0
  0
SPLINE
  5
EC
100
AcDbEntity
  8
LC-004-005-----0
370
    20
100
AcDbSpline
210
0.0
220
0.0
230
1.0
 70
     0
 71
     3
 72
     8
 73
     4
 74
     0
 42
0.0000000001
 43
0.0000000001
 40
0.0
 40
0.0
 40
0.0
 40
0.0
 40
1.0
 40
1.0
 40
1.0
 40
1.0
 10
-43.764099999999999
 20
-37.3596
 30
0.0
 10
-43.764099999999999
 20
-37.3596
 30
0.0
 10
-42.865900000000003
 20
-36.461300000000001
 30
0.0
 10
-42.865900000000003
 20
-36.461300000000001
 30
0.0
  0
SPLINE
  5
ED
100
AcDbEntity
  8
LC-004-005-----0
370
    20
100
AcDbSpline
210
0.0
220
0.0
230
1.0
 70
     0
 71
     3
 72
     8
 73
     4
 74
     0
 42
0.0000000001
 43
0.0000000001
 40
0.0
 40
0.0
 40
0.0
 40
0.0
 40
1.0
 40
1.0
 40
1.0
 40
1.0
 10
-41.3322
 20
-34.927700000000002
 30
0.0
 10
-41.3322
 20
-34.927700000000002
 30
0.0
 10
-41.324300000000001
 20
-34.919800000000002
 30
0.0
 10
-41.324300000000001
 20
-34.919800000000002
 30
0.0
  0
SPLINE
  5
EE
100
AcDbEntity
  8
LC-004-005-----0
370
    20
100
AcDbSpline
210
0.0
220
0.0
230
1.0
 70
     0
 71
     3
 72
     8
 73
     4
 74
     0
 42
0.0000000001
 43
0.0000000001
 40
0.0
 40
0.0
 40
0.0
 40
0.0
 40
1.0
 40
1.0
 40
1.0
 40
1.0
 10
-46.759
 20
-39.262799999999999
 30
0.0
 10
-46.759
 20
-39.262799999999999
 30
0.0
 10
-44.807200000000002
 20
-37.311
 30
0.0
 10
-44.807200000000002
 20
-37.311
 30
0.0
  0
SPLINE
  5
EF
100
AcDbEntity
  8
LC-004-005-----0
370
    20
100
AcDbSpline
210
0.0
220
0.0
230
1.0
 70
     0
 71
     3
 72
     8
 73
     4
 74
     0
 42
0.0000000001
 43
0.0000000001
 40
0.0
 40
0.0
 40
0.0
 40
0.0
 40
1.0
 40
1.0
 40
1.0
 40
1.0
 10
-43.764099999999999
 20
-36.267900000000004
 30
0.0
 10
-43.764099999999999
 20
-36.267900000000004
 30
0.0
 10
-43.265500000000003
 20
-35.769300000000001
 30
0.0
 10
-43.265500000000003
 20
-35.769300000000001
 30
0.0
  0
SPLINE
  5
F0
100
AcDbEntity
  8
LC-004-005-----0
370
    20
100
AcDbSpline
210
0.0
220
0.0
230
1.0
 70
     0
 71
     3
 72
     8
 73
     4
 74
     0
 42
0.0000000001
 43
0.0000000001
 40
0.0
 40
0.0
 40
0.0
 40
0.0
 40
1.0
 40
1.0
 40
1.0
 40
1.0
 10
-47.850900000000003
 20
-39.262799999999999
 30
0.0
 10
-47.850900000000003
 20
-39.262799999999999
 30
0.0
 10
-46.632400000000004
 20
-38.0443
 30
0.0
 10
-46.632400000000004
 20
-38.0443
 30
0.0
  0
SPLINE
  5
F1
100
AcDbEntity
  8
LC-004-005-----0
370
    20
100
AcDbSpline
210
0.0
220
0.0
230
1.0
 70
     0
 71
     3
 72
     8
 73
     4
 74
     0
 42
0.0000000001
 43
0.0000000001
 40
0.0
 40
0.0
 40
0.0
 40
0.0
 40
1.0
 40
1.0
 40
1.0
 40
1.0
 10
-46.195900000000002
 20
-37.607800000000005
 30
0.0
 10
-46.195900000000002
 20
-37.607800000000005
 30
0.0
 10
-45.206900000000005
 20
-36.6188
 30
0.0
 10
-45.206900000000005
 20
-36.6188
 30
0.0
  0
SPLINE
  5
F2
100
AcDbEntity
  8
LC-004-005-----0
370
    20
100
AcDbSpline
210
0.0
220
0.0
230
1.0
 70
     0
 71
     3
 72
     8
 73
     4
 74
     0
 42
0.0000000001
 43
0.0000000001
 40
0.0
 40
0.0
 40
0.0
 40
0.0
 40
1.0
 40
1.0
 40
1.0
 40
1.0
 10
-43.764099999999999
 20
-35.176000000000002
 30
0.0
 10
-43.764099999999999
 20
-35.176000000000002
 30
0.0
 10
-43.665199999999999
 20
-35.077100000000002
 30
0.0
 10
-43.665199999999999
 20
-35.077100000000002
 30
0.0
  0
SPLINE
  5
F3
100
AcDbEntity
  8
LC-004-005-----0
370
    20
100
AcDbSpline
210
0.0
220
0.0
230
1.0
 70
     0
 71
     3
 72
     8
 73
     4
 74
     0
 42
0.0000000001
 43
0.0000000001
 40
0.0
 40
0.0
 40
0.0
 40
0.0
 40
1.0
 40
1.0
 40
1.0
 40
1.0
 10
-48.942600000000006
 20
-39.262799999999999
 30
0.0
 10
-48.942600000000006
 20
-39.262799999999999
 30
0.0
 10
-47.148099999999999
 20
-37.468299999999999
 30
0.0
 10
-47.148099999999999
 20
-37.468299999999999
 30
0.0
  0
SPLINE
  5
F4
100
AcDbEntity
  8
LC-004-005-----0
370
    20
100
AcDbSpline
210
0.0
220
0.0
230
1.0
 70
     0
 71
     3
 72
     8
 73
     4
 74
     0
 42
0.0000000001
 43
0.0000000001
 40
0.0
 40
0.0
 40
0.0
 40
0.0
 40
1.0
 40
1.0
 40
1.0
 40
1.0
 10
-46.195900000000002
 20
-36.516100000000002
 30
0.0
 10
-46.195900000000002
 20
-36.516100000000002
 30
0.0
 10
-45.606500000000004
 20
-35.926700000000004
 30
0.0
 10
-45.606500000000004
 20
-35.926700000000004
 30
0.0
  0
SPLINE
  5
F5
100
AcDbEntity
  8
LC-004-005-----0
370
    20
100
AcDbSpline
210
0.0
220
0.0
230
1.0
 70
     0
 71
     3
 72
     8
 73
     4
 74
     0
 42
0.0000000001
 43
0.0000000001
 40
0.0
 40
0.0
 40
0.0
 40
0.0
 40
1.0
 40
1.0
 40
1.0
 40
1.0
 10
-50.034400000000005
 20
-39.262799999999999
 30
0.0
 10
-50.034400000000005
 20
-39.262799999999999
 30
0.0
 10
-47.547800000000002
 20
-36.776200000000003
 30
0.0
 10
-47.547800000000002
 20
-36.776200000000003
 30
0.0
  0
SPLINE
  5
F6
100
AcDbEntity
  8
LC-004-005-----0
370
    20
100
AcDbSpline
210
0.0
220
0.0
230
1.0
 70
     0
 71
     3
 72
     8
 73
     4
 74
     0
 42
0.0000000001
 43
0.0000000001
 40
0.0
 40
0.0
 40
0.0
 40
0.0
 40
1.0
 40
1.0
 40
1.0
 40
1.0
 10
-46.195900000000002
 20
-35.424300000000002
 30
0.0
 10
-46.195900000000002
 20
-35.424300000000002
 30
0.0
 10
-46.0062
 20
-35.234500000000004
 30
0.0
 10
-46.0062
 20
-35.234500000000004
 30
0.0
  0
SPLINE
  5
F7
100
AcDbEntity
  8
LC-004-005-----0
370
    20
100
AcDbSpline
210
0.0
220
0.0
230
1.0
 70
     0
 71
     3
 72
     8
 73
     4
 74
     0
 42
0.0000000001
 43
0.0000000001
 40
0.0
 40
0.0
 40
0.0
 40
0.0
 40
1.0
 40
1.0
 40
1.0
 40
1.0
 10
-51.126200000000004
 20
-39.262799999999999
 30
0.0
 10
-51.126200000000004
 20
-39.262799999999999
 30
0.0
 10
-49.504600000000003
 20
-37.641300000000001
 30
0.0
 10
-49.504600000000003
 20
-37.641300000000001
 30
0.0
  0
SPLINE
  5
F8
100
AcDbEntity
  8
LC-004-005-----0
370
    20
100
AcDbSpline
210
0.0
220
0.0
230
1.0
 70
     0
 71
     3
 72
     8
 73
     4
 74
     0
 42
0.0000000001
 43
0.0000000001
 40
0.0
 40
0.0
 40
0.0
 40
0.0
 40
1.0
 40
1.0
 40
1.0
 40
1.0
 10
-48.639900000000004
 20
-36.776600000000002
 30
0.0
 10
-48.639900000000004
 20
-36.776600000000002
 30
0.0
 10
-47.947400000000002
 20
-36.084000000000003
 30
0.0
 10
-47.947400000000002
 20
-36.084000000000003
 30
0.0
  0
SPLINE
  5
F9
100
AcDbEntity
  8
LC-004-005-----0
370
    20
100
AcDbSpline
210
0.0
220
0.0
230
1.0
 70
     0
 71
     3
 72
     8
 73
     4
 74
     0
 42
0.0000000001
 43
0.0000000001
 40
0.0
 40
0.0
 40
0.0
 40
0.0
 40
1.0
 40
1.0
 40
1.0
 40
1.0
 10
-52.218000000000004
 20
-39.262900000000002
 30
0.0
 10
-52.218000000000004
 20
-39.262900000000002
 30
0.0
 10
-49.904299999999999
 20
-36.949100000000001
 30
0.0
 10
-49.904299999999999
 20
-36.949100000000001
 30
0.0
  0
SPLINE
  5
FA
100
AcDbEntity
  8
LC-004-005-----0
370
    20
100
AcDbSpline
210
0.0
220
0.0
230
1.0
 70
     0
 71
     3
 72
     8
 73
     4
 74
     0
 42
0.0000000001
 43
0.0000000001
 40
0.0
 40
0.0
 40
0.0
 40
0.0
 40
1.0
 40
1.0
 40
1.0
 40
1.0
 10
-48.639900000000004
 20
-35.684800000000003
 30
0.0
 10
-48.639900000000004
 20
-35.684800000000003
 30
0.0
 10
-48.347000000000001
 20
-35.3919
 30
0.0
 10
-48.347000000000001
 20
-35.3919
 30
0.0
  0
SPLINE
  5
FB
100
AcDbEntity
  8
LC-004-005-----0
370
    20
100
AcDbSpline
210
0.0
220
0.0
230
1.0
 70
     0
 71
     3
 72
     8
 73
     4
 74
     0
 42
0.0000000001
 43
0.0000000001
 40
0.0
 40
0.0
 40
0.0
 40
0.0
 40
1.0
 40
1.0
 40
1.0
 40
1.0
 10
-53.309900000000006
 20
-39.262900000000002
 30
0.0
 10
-53.309900000000006
 20
-39.262900000000002
 30
0.0
 10
-51.8611
 20
-37.814300000000003
 30
0.0
 10
-51.8611
 20
-37.814300000000003
 30
0.0
  0
SPLINE
  5
FC
100
AcDbEntity
  8
LC-004-005-----0
370
    20
100
AcDbSpline
210
0.0
220
0.0
230
1.0
 70
     0
 71
     3
 72
     8
 73
     4
 74
     0
 42
0.0000000001
 43
0.0000000001
 40
0.0
 40
0.0
 40
0.0
 40
0.0
 40
1.0
 40
1.0
 40
1.0
 40
1.0
 10
-51.084000000000003
 20
-37.037100000000002
 30
0.0
 10
-51.084000000000003
 20
-37.037100000000002
 30
0.0
 10
-50.303900000000006
 20
-36.256900000000002
 30
0.0
 10
-50.303900000000006
 20
-36.256900000000002
 30
0.0
  0
SPLINE
  5
FD
100
AcDbEntity
  8
LC-004-005-----0
370
    20
100
AcDbSpline
210
0.0
220
0.0
230
1.0
 70
     0
 71
     3
 72
     8
 73
     4
 74
     0
 42
0.0000000001
 43
0.0000000001
 40
0.0
 40
0.0
 40
0.0
 40
0.0
 40
1.0
 40
1.0
 40
1.0
 40
1.0
 10
-54.401600000000002
 20
-39.262900000000002
 30
0.0
 10
-54.401600000000002
 20
-39.262900000000002
 30
0.0
 10
-52.2607
 20
-37.122100000000003
 30
0.0
 10
-52.2607
 20
-37.122100000000003
 30
0.0
  0
SPLINE
  5
FE
100
AcDbEntity
  8
LC-004-005-----0
370
    20
100
AcDbSpline
210
0.0
220
0.0
230
1.0
 70
     0
 71
     3
 72
     8
 73
     4
 74
     0
 42
0.0000000001
 43
0.0000000001
 40
0.0
 40
0.0
 40
0.0
 40
0.0
 40
1.0
 40
1.0
 40
1.0
 40
1.0
 10
-51.084000000000003
 20
-35.945300000000003
 30
0.0
 10
-51.084000000000003
 20
-35.945300000000003
 30
0.0
 10
-50.703500000000005
 20
-35.564799999999998
 30
0.0
 10
-50.703500000000005
 20
-35.564799999999998
 30
0.0
  0
SPLINE
  5
FF
100
AcDbEntity
  8
LC-004-005-----0
370
    20
100
AcDbSpline
210
0.0
220
0.0
230
1.0
 70
     0
 71
     3
 72
     8
 73
     4
 74
     0
 42
0.0000000001
 43
0.0000000001
 40
0.0
 40
0.0
 40
0.0
 40
0.0
 40
1.0
 40
1.0
 40
1.0
 40
1.0
 10
-55.261700000000005
 20
-39.031199999999998
 30
0.0
 10
-55.261700000000005
 20
-39.031199999999998
 30
0.0
 10
-54.234900000000003
 20
-38.0045
 30
0.0
 10
-54.234900000000003
 20
-38.0045
 30
0.0
  0
SPLINE
  5
100
100
AcDbEntity
  8
LC-004-005-----0
370
    20
100
AcDbSpline
210
0.0
220
0.0
230
1.0
 70
     0
 71
     3
 72
     8
 73
     4
 74
     0
 42
0.0000000001
 43
0.0000000001
 40
0.0
 40
0.0
 40
0.0
 40
0.0
 40
1.0
 40
1.0
 40
1.0
 40
1.0
 10
-53.530000000000001
 20
-37.299500000000002
 30
0.0
 10
-53.530000000000001
 20
-37.299500000000002
 30
0.0
 10
-52.660400000000003
 20
-36.43
 30
0.0
 10
-52.660400000000003
 20
-36.43
 30
0.0
  0
SPLINE
  5
101
100
AcDbEntity
  8
LC-004-005-----0
370
    20
100
AcDbSpline
210
0.0
220
0.0
230
1.0
 70
     0
 71
     3
 72
     8
 73
     4
 74
     0
 42
0.0000000001
 43
0.0000000001
 40
0.0
 40
0.0
 40
0.0
 40
0.0
 40
1.0
 40
1.0
 40
1.0
 40
1.0
 10
-55.482300000000002
 20
-38.160000000000004
 30
0.0
 10
-55.482300000000002
 20
-38.160000000000004
 30
0.0
 10
-54.730900000000005
 20
-37.408700000000003
 30
0.0
 10
-54.730900000000005
 20
-37.408700000000003
 30
0.0
  0
SPLINE
  5
102
100
AcDbEntity
  8
LC-004-005-----0
370
    20
100
AcDbSpline
210
0.0
220
0.0
230
1.0
 70
     0
 71
     3
 72
     8
 73
     4
 74
     0
 42
0.0000000001
 43
0.0000000001
 40
0.0
 40
0.0
 40
0.0
 40
0.0
 40
1.0
 40
1.0
 40
1.0
 40
1.0
 10
-53.530000000000001
 20
-36.207700000000003
 30
0.0
 10
-53.530000000000001
 20
-36.207700000000003
 30
0.0
 10
-53.060000000000002
 20
-35.7378
 30
0.0
 10
-53.060000000000002
 20
-35.7378
 30
0.0
  0
SPLINE
  5
103
100
AcDbEntity
  8
LC-004-005-----0
370
    20
100
AcDbSpline
210
0.0
220
0.0
230
1.0
 70
     0
 71
     3
 72
     8
 73
     4
 74
     0
 42
0.0000000001
 43
0.0000000001
 40
0.0
 40
0.0
 40
0.0
 40
0.0
 40
1.0
 40
1.0
 40
1.0
 40
1.0
 10
-53.530000000000001
 20
-35.116
 30
0.0
 10
-53.530000000000001
 20
-35.116
 30
0.0
 10
-53.459600000000002
 20
-35.045700000000004
 30
0.0
 10
-53.459600000000002
 20
-35.045700000000004
 30
0.0
  0
SPLINE
  5
104
100
AcDbEntity
  8
LC-004-005-----0
370
    35
100
AcDbSpline
210
0.0
220
0.0
230
1.0
 70
     0
 71
     3
 72
     8
 73
     4
 74
     0
 42
0.0000000001
 43
0.0000000001
 40
0.0
 40
0.0
 40
0.0
 40
0.0
 40
1.0
 40
1.0
 40
1.0
 40
1.0
 10
-83.880499999999998
 20
-36.261700000000005
 30
0.0
 10
-83.880499999999998
 20
-36.261700000000005
 30
0.0
 10
-83.840500000000006
 20
-36.221600000000002
 30
0.0
 10
-83.840500000000006
 20
-36.221600000000002
 30
0.0
  0
SPLINE
  5
105
100
AcDbEntity
  8
LC-004-005-----0
370
    35
100
AcDbSpline
210
0.0
220
0.0
230
1.0
 70
     0
 71
     3
 72
     8
 73
     4
 74
     0
 42
0.0000000001
 43
0.0000000001
 40
0.0
 40
0.0
 40
0.0
 40
0.0
 40
1.0
 40
1.0
 40
1.0
 40
1.0
 10
-84.01700000000001
 20
-36.261700000000005
 30
0.0
 10
-84.01700000000001
 20
-36.261700000000005
 30
0.0
 10
-83.840500000000006
 20
-36.0852
 30
0.0
 10
-83.840500000000006
 20
-36.0852
 30
0.0
  0
SPLINE
  5
106
100
AcDbEntity
  8
LC-004-005-----0
370
    35
100
AcDbSpline
210
0.0
220
0.0
230
1.0
 70
     0
 71
     3
 72
     8
 73
     4
 74
     0
 42
0.0000000001
 43
0.0000000001
 40
0.0
 40
0.0
 40
0.0
 40
0.0
 40
1.0
 40
1.0
 40
1.0
 40
1.0
 10
-84.153500000000008
 20
-36.261700000000005
 30
0.0
 10
-84.153500000000008
 20
-36.261700000000005
 30
0.0
 10
-83.840500000000006
 20
-35.948700000000002
 30
0.0
 10
-83.840500000000006
 20
-35.948700000000002
 30
0.0
  0
SPLINE
  5
107
100
AcDbEntity
  8
LC-004-005-----0
370
    35
100
AcDbSpline
210
0.0
220
0.0
230
1.0
 70
     0
 71
     3
 72
     8
 73
     4
 74
     0
 42
0.0000000001
 43
0.0000000001
 40
0.0
 40
0.0
 40
0.0
 40
0.0
 40
1.0
 40
1.0
 40
1.0
 40
1.0
 10
-84.226500000000001
 20
-36.1982
 30
0.0
 10
-84.226500000000001
 20
-36.1982
 30
0.0
 10
-83.840500000000006
 20
-35.812200000000004
 30
0.0
 10
-83.840500000000006
 20
-35.812200000000004
 30
0.0
  0
SPLINE
  5
108
100
AcDbEntity
  8
LC-004-005-----0
370
    35
100
AcDbSpline
210
0.0
220
0.0
230
1.0
 70
     0
 71
     3
 72
     8
 73
     4
 74
     0
 42
0.0000000001
 43
0.0000000001
 40
0.0
 40
0.0
 40
0.0
 40
0.0
 40
1.0
 40
1.0
 40
1.0
 40
1.0
 10
-84.226500000000001
 20
-36.061700000000002
 30
0.0
 10
-84.226500000000001
 20
-36.061700000000002
 30
0.0
 10
-83.840500000000006
 20
-35.675699999999999
 30
0.0
 10
-83.840500000000006
 20
-35.675699999999999
 30
0.0
  0
SPLINE
  5
109
100
AcDbEntity
  8
LC-004-005-----0
370
    35
100
AcDbSpline
210
0.0
220
0.0
230
1.0
 70
     0
 71
     3
 72
     8
 73
     4
 74
     0
 42
0.0000000001
 43
0.0000000001
 40
0.0
 40
0.0
 40
0.0
 40
0.0
 40
1.0
 40
1.0
 40
1.0
 40
1.0
 10
-84.226500000000001
 20
-35.9253
 30
0.0
 10
-84.226500000000001
 20
-35.9253
 30
0.0
 10
-83.840500000000006
 20
-35.539300000000004
 30
0.0
 10
-83.840500000000006
 20
-35.539300000000004
 30
0.0
  0
SPLINE
  5
10A
100
AcDbEntity
  8
LC-004-005-----0
370
    35
100
AcDbSpline
210
0.0
220
0.0
230
1.0
 70
     0
 71
     3
 72
     8
 73
     4
 74
     0
 42
0.0000000001
 43
0.0000000001
 40
0.0
 40
0.0
 40
0.0
 40
0.0
 40
1.0
 40
1.0
 40
1.0
 40
1.0
 10
-84.699399999999997
 20
-36.261700000000005
 30
0.0
 10
-84.699399999999997
 20
-36.261700000000005
 30
0.0
 10
-84.612499999999997
 20
-36.174800000000005
 30
0.0
 10
-84.612499999999997
 20
-36.174800000000005
 30
0.0
  0
SPLINE
  5
10B
100
AcDbEntity
  8
LC-004-005-----0
370
    35
100
AcDbSpline
210
0.0
220
0.0
230
1.0
 70
     0
 71
     3
 72
     8
 73
     4
 74
     0
 42
0.0000000001
 43
0.0000000001
 40
0.0
 40
0.0
 40
0.0
 40
0.0
 40
1.0
 40
1.0
 40
1.0
 40
1.0
 10
-84.313400000000001
 20
-35.875700000000002
 30
0.0
 10
-84.313400000000001
 20
-35.875700000000002
 30
0.0
 10
-83.840500000000006
 20
-35.402799999999999
 30
0.0
 10
-83.840500000000006
 20
-35.402799999999999
 30
0.0
  0
SPLINE
  5
10C
100
AcDbEntity
  8
LC-004-005-----0
370
    35
100
AcDbSpline
210
0.0
220
0.0
230
1.0
 70
     0
 71
     3
 72
     8
 73
     4
 74
     0
 42
0.0000000001
 43
0.0000000001
 40
0.0
 40
0.0
 40
0.0
 40
0.0
 40
1.0
 40
1.0
 40
1.0
 40
1.0
 10
-84.835900000000009
 20
-36.261700000000005
 30
0.0
 10
-84.835900000000009
 20
-36.261700000000005
 30
0.0
 10
-84.612499999999997
 20
-36.0383
 30
0.0
 10
-84.612499999999997
 20
-36.0383
 30
0.0
  0
SPLINE
  5
10D
100
AcDbEntity
  8
LC-004-005-----0
370
    35
100
AcDbSpline
210
0.0
220
0.0
230
1.0
 70
     0
 71
     3
 72
     8
 73
     4
 74
     0
 42
0.0000000001
 43
0.0000000001
 40
0.0
 40
0.0
 40
0.0
 40
0.0
 40
1.0
 40
1.0
 40
1.0
 40
1.0
 10
-84.4499
 20
-35.875700000000002
 30
0.0
 10
-84.4499
 20
-35.875700000000002
 30
0.0
 10
-83.840500000000006
 20
-35.266300000000001
 30
0.0
 10
-83.840500000000006
 20
-35.266300000000001
 30
0.0
  0
SPLINE
  5
10E
100
AcDbEntity
  8
LC-004-005-----0
370
    35
100
AcDbSpline
210
0.0
220
0.0
230
1.0
 70
     0
 71
     3
 72
     8
 73
     4
 74
     0
 42
0.0000000001
 43
0.0000000001
 40
0.0
 40
0.0
 40
0.0
 40
0.0
 40
1.0
 40
1.0
 40
1.0
 40
1.0
 10
-84.972300000000004
 20
-36.261700000000005
 30
0.0
 10
-84.972300000000004
 20
-36.261700000000005
 30
0.0
 10
-84.612499999999997
 20
-35.901800000000001
 30
0.0
 10
-84.612499999999997
 20
-35.901800000000001
 30
0.0
  0
SPLINE
  5
10F
100
AcDbEntity
  8
LC-004-005-----0
370
    35
100
AcDbSpline
210
0.0
220
0.0
230
1.0
 70
     0
 71
     3
 72
     8
 73
     4
 74
     0
 42
0.0000000001
 43
0.0000000001
 40
0.0
 40
0.0
 40
0.0
 40
0.0
 40
1.0
 40
1.0
 40
1.0
 40
1.0
 10
-84.586300000000008
 20
-35.875700000000002
 30
0.0
 10
-84.586300000000008
 20
-35.875700000000002
 30
0.0
 10
-83.840500000000006
 20
-35.129800000000003
 30
0.0
 10
-83.840500000000006
 20
-35.129800000000003
 30
0.0
  0
SPLINE
  5
110
100
AcDbEntity
  8
LC-004-005-----0
370
    35
100
AcDbSpline
210
0.0
220
0.0
230
1.0
 70
     0
 71
     3
 72
     8
 73
     4
 74
     0
 42
0.0000000001
 43
0.0000000001
 40
0.0
 40
0.0
 40
0.0
 40
0.0
 40
1.0
 40
1.0
 40
1.0
 40
1.0
 10
-85.108800000000002
 20
-36.261700000000005
 30
0.0
 10
-85.108800000000002
 20
-36.261700000000005
 30
0.0
 10
-83.950800000000001
 20
-35.103700000000003
 30
0.0
 10
-83.950800000000001
 20
-35.103700000000003
 30
0.0
  0
SPLINE
  5
111
100
AcDbEntity
  8
LC-004-005-----0
370
    35
100
AcDbSpline
210
0.0
220
0.0
230
1.0
 70
     0
 71
     3
 72
     8
 73
     4
 74
     0
 42
0.0000000001
 43
0.0000000001
 40
0.0
 40
0.0
 40
0.0
 40
0.0
 40
1.0
 40
1.0
 40
1.0
 40
1.0
 10
-85.2453
 20
-36.261700000000005
 30
0.0
 10
-85.2453
 20
-36.261700000000005
 30
0.0
 10
-84.087299999999999
 20
-35.103700000000003
 30
0.0
 10
-84.087299999999999
 20
-35.103700000000003
 30
0.0
  0
SPLINE
  5
112
100
AcDbEntity
  8
LC-004-005-----0
370
    35
100
AcDbSpline
210
0.0
220
0.0
230
1.0
 70
     0
 71
     3
 72
     8
 73
     4
 74
     0
 42
0.0000000001
 43
0.0000000001
 40
0.0
 40
0.0
 40
0.0
 40
0.0
 40
1.0
 40
1.0
 40
1.0
 40
1.0
 10
-85.381799999999998
 20
-36.261700000000005
 30
0.0
 10
-85.381799999999998
 20
-36.261700000000005
 30
0.0
 10
-84.223700000000008
 20
-35.103700000000003
 30
0.0
 10
-84.223700000000008
 20
-35.103700000000003
 30
0.0
  0
SPLINE
  5
113
100
AcDbEntity
  8
LC-004-005-----0
370
    35
100
AcDbSpline
210
0.0
220
0.0
230
1.0
 70
     0
 71
     3
 72
     8
 73
     4
 74
     0
 42
0.0000000001
 43
0.0000000001
 40
0.0
 40
0.0
 40
0.0
 40
0.0
 40
1.0
 40
1.0
 40
1.0
 40
1.0
 10
-85.518100000000004
 20
-36.261700000000005
 30
0.0
 10
-85.518100000000004
 20
-36.261700000000005
 30
0.0
 10
-84.360100000000003
 20
-35.103700000000003
 30
0.0
 10
-84.360100000000003
 20
-35.103700000000003
 30
0.0
  0
SPLINE
  5
114
100
AcDbEntity
  8
LC-004-005-----0
370
    35
100
AcDbSpline
210
0.0
220
0.0
230
1.0
 70
     0
 71
     3
 72
     8
 73
     4
 74
     0
 42
0.0000000001
 43
0.0000000001
 40
0.0
 40
0.0
 40
0.0
 40
0.0
 40
1.0
 40
1.0
 40
1.0
 40
1.0
 10
-85.654600000000002
 20
-36.261700000000005
 30
0.0
 10
-85.654600000000002
 20
-36.261700000000005
 30
0.0
 10
-84.496600000000001
 20
-35.103700000000003
 30
0.0
 10
-84.496600000000001
 20
-35.103700000000003
 30
0.0
  0
SPLINE
  5
115
100
AcDbEntity
  8
LC-004-005-----0
370
    35
100
AcDbSpline
210
0.0
220
0.0
230
1.0
 70
     0
 71
     3
 72
     8
 73
     4
 74
     0
 42
0.0000000001
 43
0.0000000001
 40
0.0
 40
0.0
 40
0.0
 40
0.0
 40
1.0
 40
1.0
 40
1.0
 40
1.0
 10
-85.7911
 20
-36.261700000000005
 30
0.0
 10
-85.7911
 20
-36.261700000000005
 30
0.0
 10
-84.633099999999999
 20
-35.103700000000003
 30
0.0
 10
-84.633099999999999
 20
-35.103700000000003
 30
0.0
  0
SPLINE
  5
116
100
AcDbEntity
  8
LC-004-005-----0
370
    35
100
AcDbSpline
210
0.0
220
0.0
230
1.0
 70
     0
 71
     3
 72
     8
 73
     4
 74
     0
 42
0.0000000001
 43
0.0000000001
 40
0.0
 40
0.0
 40
0.0
 40
0.0
 40
1.0
 40
1.0
 40
1.0
 40
1.0
 10
-85.927599999999998
 20
-36.261700000000005
 30
0.0
 10
-85.927599999999998
 20
-36.261700000000005
 30
0.0
 10
-84.769600000000011
 20
-35.103700000000003
 30
0.0
 10
-84.769600000000011
 20
-35.103700000000003
 30
0.0
  0
SPLINE
  5
117
100
AcDbEntity
  8
LC-004-005-----0
370
    35
100
AcDbSpline
210
0.0
220
0.0
230
1.0
 70
     0
 71
     3
 72
     8
 73
     4
 74
     0
 42
0.0000000001
 43
0.0000000001
 40
0.0
 40
0.0
 40
0.0
 40
0.0
 40
1.0
 40
1.0
 40
1.0
 40
1.0
 10
-86.06410000000001
 20
-36.261700000000005
 30
0.0
 10
-86.06410000000001
 20
-36.261700000000005
 30
0.0
 10
-84.906100000000009
 20
-35.103700000000003
 30
0.0
 10
-84.906100000000009
 20
-35.103700000000003
 30
0.0
  0
SPLINE
  5
118
100
AcDbEntity
  8
LC-004-005-----0
370
    35
100
AcDbSpline
210
0.0
220
0.0
230
1.0
 70
     0
 71
     3
 72
     8
 73
     4
 74
     0
 42
0.0000000001
 43
0.0000000001
 40
0.0
 40
0.0
 40
0.0
 40
0.0
 40
1.0
 40
1.0
 40
1.0
 40
1.0
 10
-86.200500000000005
 20
-36.261700000000005
 30
0.0
 10
-86.200500000000005
 20
-36.261700000000005
 30
0.0
 10
-84.97760000000001
 20
-35.038699999999999
 30
0.0
 10
-84.97760000000001
 20
-35.038699999999999
 30
0.0
  0
SPLINE
  5
119
100
AcDbEntity
  8
LC-004-005-----0
370
    35
100
AcDbSpline
210
0.0
220
0.0
230
1.0
 70
     0
 71
     3
 72
     8
 73
     4
 74
     0
 42
0.0000000001
 43
0.0000000001
 40
0.0
 40
0.0
 40
0.0
 40
0.0
 40
1.0
 40
1.0
 40
1.0
 40
1.0
 10
-86.337000000000003
 20
-36.261700000000005
 30
0.0
 10
-86.337000000000003
 20
-36.261700000000005
 30
0.0
 10
-84.913000000000011
 20
-34.837700000000005
 30
0.0
 10
-84.913000000000011
 20
-34.837700000000005
 30
0.0
  0
SPLINE
  5
11A
100
AcDbEntity
  8
LC-004-005-----0
370
    35
100
AcDbSpline
210
0.0
220
0.0
230
1.0
 70
     0
 71
     3
 72
     8
 73
     4
 74
     0
 42
0.0000000001
 43
0.0000000001
 40
0.0
 40
0.0
 40
0.0
 40
0.0
 40
1.0
 40
1.0
 40
1.0
 40
1.0
 10
-86.473500000000001
 20
-36.261700000000005
 30
0.0
 10
-86.473500000000001
 20
-36.261700000000005
 30
0.0
 10
-84.866399999999999
 20
-34.654600000000002
 30
0.0
 10
-84.866399999999999
 20
-34.654600000000002
 30
0.0
  0
SPLINE
  5
11B
100
AcDbEntity
  8
LC-004-005-----0
370
    35
100
AcDbSpline
210
0.0
220
0.0
230
1.0
 70
     0
 71
     3
 72
     8
 73
     4
 74
     0
 42
0.0000000001
 43
0.0000000001
 40
0.0
 40
0.0
 40
0.0
 40
0.0
 40
1.0
 40
1.0
 40
1.0
 40
1.0
 10
-86.609999999999999
 20
-36.261700000000005
 30
0.0
 10
-86.609999999999999
 20
-36.261700000000005
 30
0.0
 10
-84.900500000000008
 20
-34.552199999999999
 30
0.0
 10
-84.900500000000008
 20
-34.552199999999999
 30
0.0
  0
SPLINE
  5
11C
100
AcDbEntity
  8
LC-004-005-----0
370
    35
100
AcDbSpline
210
0.0
220
0.0
230
1.0
 70
     0
 71
     3
 72
     8
 73
     4
 74
     0
 42
0.0000000001
 43
0.0000000001
 40
0.0
 40
0.0
 40
0.0
 40
0.0
 40
1.0
 40
1.0
 40
1.0
 40
1.0
 10
-86.746499999999997
 20
-36.261700000000005
 30
0.0
 10
-86.746499999999997
 20
-36.261700000000005
 30
0.0
 10
-84.973700000000008
 20
-34.489000000000004
 30
0.0
 10
-84.973700000000008
 20
-34.489000000000004
 30
0.0
  0
SPLINE
  5
11D
100
AcDbEntity
  8
LC-004-005-----0
370
    35
100
AcDbSpline
210
0.0
220
0.0
230
1.0
 70
     0
 71
     3
 72
     8
 73
     4
 74
     0
 42
0.0000000001
 43
0.0000000001
 40
0.0
 40
0.0
 40
0.0
 40
0.0
 40
1.0
 40
1.0
 40
1.0
 40
1.0
 10
-86.88300000000001
 20
-36.261700000000005
 30
0.0
 10
-86.88300000000001
 20
-36.261700000000005
 30
0.0
 10
-85.09320000000001
 20
-34.471900000000005
 30
0.0
 10
-85.09320000000001
 20
-34.471900000000005
 30
0.0
  0
SPLINE
  5
11E
100
AcDbEntity
  8
LC-004-005-----0
370
    35
100
AcDbSpline
210
0.0
220
0.0
230
1.0
 70
     0
 71
     3
 72
     8
 73
     4
 74
     0
 42
0.0000000001
 43
0.0000000001
 40
0.0
 40
0.0
 40
0.0
 40
0.0
 40
1.0
 40
1.0
 40
1.0
 40
1.0
 10
-86.928400000000011
 20
-36.170700000000004
 30
0.0
 10
-86.928400000000011
 20
-36.170700000000004
 30
0.0
 10
-85.297899999999998
 20
-34.540100000000002
 30
0.0
 10
-85.297899999999998
 20
-34.540100000000002
 30
0.0
  0
SPLINE
  5
11F
100
AcDbEntity
  8
LC-004-005-----0
370
    35
100
AcDbSpline
210
0.0
220
0.0
230
1.0
 70
     0
 71
     3
 72
     8
 73
     4
 74
     0
 42
0.0000000001
 43
0.0000000001
 40
0.0
 40
0.0
 40
0.0
 40
0.0
 40
1.0
 40
1.0
 40
1.0
 40
1.0
 10
-86.928400000000011
 20
-36.034199999999998
 30
0.0
 10
-86.928400000000011
 20
-36.034199999999998
 30
0.0
 10
-85.506399999999999
 20
-34.612200000000001
 30
0.0
 10
-85.506399999999999
 20
-34.612200000000001
 30
0.0
  0
SPLINE
  5
120
100
AcDbEntity
  8
LC-004-005-----0
370
    35
100
AcDbSpline
210
0.0
220
0.0
230
1.0
 70
     0
 71
     3
 72
     8
 73
     4
 74
     0
 42
0.0000000001
 43
0.0000000001
 40
0.0
 40
0.0
 40
0.0
 40
0.0
 40
1.0
 40
1.0
 40
1.0
 40
1.0
 10
-86.928400000000011
 20
-35.8979
 30
0.0
 10
-86.928400000000011
 20
-35.8979
 30
0.0
 10
-85.715000000000003
 20
-34.6843
 30
0.0
 10
-85.715000000000003
 20
-34.6843
 30
0.0
  0
SPLINE
  5
121
100
AcDbEntity
  8
LC-004-005-----0
370
    35
100
AcDbSpline
210
0.0
220
0.0
230
1.0
 70
     0
 71
     3
 72
     8
 73
     4
 74
     0
 42
0.0000000001
 43
0.0000000001
 40
0.0
 40
0.0
 40
0.0
 40
0.0
 40
1.0
 40
1.0
 40
1.0
 40
1.0
 10
-86.928400000000011
 20
-35.761400000000002
 30
0.0
 10
-86.928400000000011
 20
-35.761400000000002
 30
0.0
 10
-85.923500000000004
 20
-34.756399999999999
 30
0.0
 10
-85.923500000000004
 20
-34.756399999999999
 30
0.0
  0
SPLINE
  5
122
100
AcDbEntity
  8
LC-004-005-----0
370
    35
100
AcDbSpline
210
0.0
220
0.0
230
1.0
 70
     0
 71
     3
 72
     8
 73
     4
 74
     0
 42
0.0000000001
 43
0.0000000001
 40
0.0
 40
0.0
 40
0.0
 40
0.0
 40
1.0
 40
1.0
 40
1.0
 40
1.0
 10
-86.928400000000011
 20
-35.624900000000004
 30
0.0
 10
-86.928400000000011
 20
-35.624900000000004
 30
0.0
 10
-86.132100000000008
 20
-34.828400000000002
 30
0.0
 10
-86.132100000000008
 20
-34.828400000000002
 30
0.0
  0
SPLINE
  5
123
100
AcDbEntity
  8
LC-004-005-----0
370
    35
100
AcDbSpline
210
0.0
220
0.0
230
1.0
 70
     0
 71
     3
 72
     8
 73
     4
 74
     0
 42
0.0000000001
 43
0.0000000001
 40
0.0
 40
0.0
 40
0.0
 40
0.0
 40
1.0
 40
1.0
 40
1.0
 40
1.0
 10
-86.928400000000011
 20
-35.488399999999999
 30
0.0
 10
-86.928400000000011
 20
-35.488399999999999
 30
0.0
 10
-86.340600000000009
 20
-34.900500000000001
 30
0.0
 10
-86.340600000000009
 20
-34.900500000000001
 30
0.0
  0
SPLINE
  5
124
100
AcDbEntity
  8
LC-004-005-----0
370
    35
100
AcDbSpline
210
0.0
220
0.0
230
1.0
 70
     0
 71
     3
 72
     8
 73
     4
 74
     0
 42
0.0000000001
 43
0.0000000001
 40
0.0
 40
0.0
 40
0.0
 40
0.0
 40
1.0
 40
1.0
 40
1.0
 40
1.0
 10
-86.928400000000011
 20
-35.352000000000004
 30
0.0
 10
-86.928400000000011
 20
-35.352000000000004
 30
0.0
 10
-86.549199999999999
 20
-34.9726
 30
0.0
 10
-86.549199999999999
 20
-34.9726
 30
0.0
  0
SPLINE
  5
125
100
AcDbEntity
  8
LC-004-005-----0
370
    35
100
AcDbSpline
210
0.0
220
0.0
230
1.0
 70
     0
 71
     3
 72
     8
 73
     4
 74
     0
 42
0.0000000001
 43
0.0000000001
 40
0.0
 40
0.0
 40
0.0
 40
0.0
 40
1.0
 40
1.0
 40
1.0
 40
1.0
 10
-86.928400000000011
 20
-35.215499999999999
 30
0.0
 10
-86.928400000000011
 20
-35.215499999999999
 30
0.0
 10
-86.757600000000011
 20
-35.044600000000003
 30
0.0
 10
-86.757600000000011
 20
-35.044600000000003
 30
0.0
  0
SPLINE
  5
126
100
AcDbEntity
  8
LC-004-005-----0
370
    35
100
AcDbSpline
210
0.0
220
0.0
230
1.0
 70
     0
 71
     3
 72
     8
 73
     4
 74
     0
 42
0.0000000001
 43
0.0000000001
 40
0.0
 40
0.0
 40
0.0
 40
0.0
 40
1.0
 40
1.0
 40
1.0
 40
1.0
 10
-83.930400000000006
 20
-14.066800000000001
 30
0.0
 10
-83.930400000000006
 20
-14.066800000000001
 30
0.0
 10
-83.840500000000006
 20
-13.976800000000001
 30
0.0
 10
-83.840500000000006
 20
-13.976800000000001
 30
0.0
  0
SPLINE
  5
127
100
AcDbEntity
  8
LC-004-005-----0
370
    35
100
AcDbSpline
210
0.0
220
0.0
230
1.0
 70
     0
 71
     3
 72
     8
 73
     4
 74
     0
 42
0.0000000001
 43
0.0000000001
 40
0.0
 40
0.0
 40
0.0
 40
0.0
 40
1.0
 40
1.0
 40
1.0
 40
1.0
 10
-84.066900000000004
 20
-14.066800000000001
 30
0.0
 10
-84.066900000000004
 20
-14.066800000000001
 30
0.0
 10
-83.840500000000006
 20
-13.840300000000001
 30
0.0
 10
-83.840500000000006
 20
-13.840300000000001
 30
0.0
  0
SPLINE
  5
128
100
AcDbEntity
  8
LC-004-005-----0
370
    35
100
AcDbSpline
210
0.0
220
0.0
230
1.0
 70
     0
 71
     3
 72
     8
 73
     4
 74
     0
 42
0.0000000001
 43
0.0000000001
 40
0.0
 40
0.0
 40
0.0
 40
0.0
 40
1.0
 40
1.0
 40
1.0
 40
1.0
 10
-84.203400000000002
 20
-14.066800000000001
 30
0.0
 10
-84.203400000000002
 20
-14.066800000000001
 30
0.0
 10
-83.840500000000006
 20
-13.703900000000001
 30
0.0
 10
-83.840500000000006
 20
-13.703900000000001
 30
0.0
  0
SPLINE
  5
129
100
AcDbEntity
  8
LC-004-005-----0
370
    35
100
AcDbSpline
210
0.0
220
0.0
230
1.0
 70
     0
 71
     3
 72
     8
 73
     4
 74
     0
 42
0.0000000001
 43
0.0000000001
 40
0.0
 40
0.0
 40
0.0
 40
0.0
 40
1.0
 40
1.0
 40
1.0
 40
1.0
 10
-84.339800000000011
 20
-14.066800000000001
 30
0.0
 10
-84.339800000000011
 20
-14.066800000000001
 30
0.0
 10
-83.840500000000006
 20
-13.567500000000001
 30
0.0
 10
-83.840500000000006
 20
-13.567500000000001
 30
0.0
  0
SPLINE
  5
12A
100
AcDbEntity
  8
LC-004-005-----0
370
    35
100
AcDbSpline
210
0.0
220
0.0
230
1.0
 70
     0
 71
     3
 72
     8
 73
     4
 74
     0
 42
0.0000000001
 43
0.0000000001
 40
0.0
 40
0.0
 40
0.0
 40
0.0
 40
1.0
 40
1.0
 40
1.0
 40
1.0
 10
-85.105500000000006
 20
-14.6959
 30
0.0
 10
-85.105500000000006
 20
-14.6959
 30
0.0
 10
-84.872
 20
-14.462400000000001
 30
0.0
 10
-84.872
 20
-14.462400000000001
 30
0.0
  0
SPLINE
  5
12B
100
AcDbEntity
  8
LC-004-005-----0
370
    35
100
AcDbSpline
210
0.0
220
0.0
230
1.0
 70
     0
 71
     3
 72
     8
 73
     4
 74
     0
 42
0.0000000001
 43
0.0000000001
 40
0.0
 40
0.0
 40
0.0
 40
0.0
 40
1.0
 40
1.0
 40
1.0
 40
1.0
 10
-84.476300000000009
 20
-14.066800000000001
 30
0.0
 10
-84.476300000000009
 20
-14.066800000000001
 30
0.0
 10
-83.840500000000006
 20
-13.431000000000001
 30
0.0
 10
-83.840500000000006
 20
-13.431000000000001
 30
0.0
  0
SPLINE
  5
12C
100
AcDbEntity
  8
LC-004-005-----0
370
    35
100
AcDbSpline
210
0.0
220
0.0
230
1.0
 70
     0
 71
     3
 72
     8
 73
     4
 74
     0
 42
0.0000000001
 43
0.0000000001
 40
0.0
 40
0.0
 40
0.0
 40
0.0
 40
1.0
 40
1.0
 40
1.0
 40
1.0
 10
-85.207599999999999
 20
-14.6615
 30
0.0
 10
-85.207599999999999
 20
-14.6615
 30
0.0
 10
-84.904700000000005
 20
-14.3588
 30
0.0
 10
-84.904700000000005
 20
-14.3588
 30
0.0
  0
SPLINE
  5
12D
100
AcDbEntity
  8
LC-004-005-----0
370
    35
100
AcDbSpline
210
0.0
220
0.0
230
1.0
 70
     0
 71
     3
 72
     8
 73
     4
 74
     0
 42
0.0000000001
 43
0.0000000001
 40
0.0
 40
0.0
 40
0.0
 40
0.0
 40
1.0
 40
1.0
 40
1.0
 40
1.0
 10
-84.612800000000007
 20
-14.066800000000001
 30
0.0
 10
-84.612800000000007
 20
-14.066800000000001
 30
0.0
 10
-83.840500000000006
 20
-13.294500000000001
 30
0.0
 10
-83.840500000000006
 20
-13.294500000000001
 30
0.0
  0
SPLINE
  5
12E
100
AcDbEntity
  8
LC-004-005-----0
370
    35
100
AcDbSpline
210
0.0
220
0.0
230
1.0
 70
     0
 71
     3
 72
     8
 73
     4
 74
     0
 42
0.0000000001
 43
0.0000000001
 40
0.0
 40
0.0
 40
0.0
 40
0.0
 40
1.0
 40
1.0
 40
1.0
 40
1.0
 10
-85.308900000000008
 20
-14.6265
 30
0.0
 10
-85.308900000000008
 20
-14.6265
 30
0.0
 10
-84.937899999999999
 20
-14.255500000000001
 30
0.0
 10
-84.937899999999999
 20
-14.255500000000001
 30
0.0
  0
SPLINE
  5
12F
100
AcDbEntity
  8
LC-004-005-----0
370
    35
100
AcDbSpline
210
0.0
220
0.0
230
1.0
 70
     0
 71
     3
 72
     8
 73
     4
 74
     0
 42
0.0000000001
 43
0.0000000001
 40
0.0
 40
0.0
 40
0.0
 40
0.0
 40
1.0
 40
1.0
 40
1.0
 40
1.0
 10
-84.749300000000005
 20
-14.066800000000001
 30
0.0
 10
-84.749300000000005
 20
-14.066800000000001
 30
0.0
 10
-83.840500000000006
 20
-13.158100000000001
 30
0.0
 10
-83.840500000000006
 20
-13.158100000000001
 30
0.0
  0
SPLINE
  5
130
100
AcDbEntity
  8
LC-004-005-----0
370
    35
100
AcDbSpline
210
0.0
220
0.0
230
1.0
 70
     0
 71
     3
 72
     8
 73
     4
 74
     0
 42
0.0000000001
 43
0.0000000001
 40
0.0
 40
0.0
 40
0.0
 40
0.0
 40
1.0
 40
1.0
 40
1.0
 40
1.0
 10
-85.410300000000007
 20
-14.5915
 30
0.0
 10
-85.410300000000007
 20
-14.5915
 30
0.0
 10
-84.971100000000007
 20
-14.152200000000001
 30
0.0
 10
-84.971100000000007
 20
-14.152200000000001
 30
0.0
  0
SPLINE
  5
131
100
AcDbEntity
  8
LC-004-005-----0
370
    35
100
AcDbSpline
210
0.0
220
0.0
230
1.0
 70
     0
 71
     3
 72
     8
 73
     4
 74
     0
 42
0.0000000001
 43
0.0000000001
 40
0.0
 40
0.0
 40
0.0
 40
0.0
 40
1.0
 40
1.0
 40
1.0
 40
1.0
 10
-84.885800000000003
 20
-14.066800000000001
 30
0.0
 10
-84.885800000000003
 20
-14.066800000000001
 30
0.0
 10
-83.840500000000006
 20
-13.021600000000001
 30
0.0
 10
-83.840500000000006
 20
-13.021600000000001
 30
0.0
  0
SPLINE
  5
132
100
AcDbEntity
  8
LC-004-005-----0
370
    35
100
AcDbSpline
210
0.0
220
0.0
230
1.0
 70
     0
 71
     3
 72
     8
 73
     4
 74
     0
 42
0.0000000001
 43
0.0000000001
 40
0.0
 40
0.0
 40
0.0
 40
0.0
 40
1.0
 40
1.0
 40
1.0
 40
1.0
 10
-85.511800000000008
 20
-14.5564
 30
0.0
 10
-85.511800000000008
 20
-14.5564
 30
0.0
 10
-84.250100000000003
 20
-13.2948
 30
0.0
 10
-84.250100000000003
 20
-13.2948
 30
0.0
  0
SPLINE
  5
133
100
AcDbEntity
  8
LC-004-005-----0
370
    35
100
AcDbSpline
210
0.0
220
0.0
230
1.0
 70
     0
 71
     3
 72
     8
 73
     4
 74
     0
 42
0.0000000001
 43
0.0000000001
 40
0.0
 40
0.0
 40
0.0
 40
0.0
 40
1.0
 40
1.0
 40
1.0
 40
1.0
 10
-84.226500000000001
 20
-13.271100000000001
 30
0.0
 10
-84.226500000000001
 20
-13.271100000000001
 30
0.0
 10
-83.864100000000008
 20
-12.908800000000001
 30
0.0
 10
-83.864100000000008
 20
-12.908800000000001
 30
0.0
  0
SPLINE
  5
134
100
AcDbEntity
  8
LC-004-005-----0
370
    35
100
AcDbSpline
210
0.0
220
0.0
230
1.0
 70
     0
 71
     3
 72
     8
 73
     4
 74
     0
 42
0.0000000001
 43
0.0000000001
 40
0.0
 40
0.0
 40
0.0
 40
0.0
 40
1.0
 40
1.0
 40
1.0
 40
1.0
 10
-85.613200000000006
 20
-14.5214
 30
0.0
 10
-85.613200000000006
 20
-14.5214
 30
0.0
 10
-84.386600000000001
 20
-13.2948
 30
0.0
 10
-84.386600000000001
 20
-13.2948
 30
0.0
  0
SPLINE
  5
135
100
AcDbEntity
  8
LC-004-005-----0
370
    35
100
AcDbSpline
210
0.0
220
0.0
230
1.0
 70
     0
 71
     3
 72
     8
 73
     4
 74
     0
 42
0.0000000001
 43
0.0000000001
 40
0.0
 40
0.0
 40
0.0
 40
0.0
 40
1.0
 40
1.0
 40
1.0
 40
1.0
 10
-84.226500000000001
 20
-13.134600000000001
 30
0.0
 10
-84.226500000000001
 20
-13.134600000000001
 30
0.0
 10
-84.000600000000006
 20
-12.908800000000001
 30
0.0
 10
-84.000600000000006
 20
-12.908800000000001
 30
0.0
  0
SPLINE
  5
136
100
AcDbEntity
  8
LC-004-005-----0
370
    35
100
AcDbSpline
210
0.0
220
0.0
230
1.0
 70
     0
 71
     3
 72
     8
 73
     4
 74
     0
 42
0.0000000001
 43
0.0000000001
 40
0.0
 40
0.0
 40
0.0
 40
0.0
 40
1.0
 40
1.0
 40
1.0
 40
1.0
 10
-85.714600000000004
 20
-14.4863
 30
0.0
 10
-85.714600000000004
 20
-14.4863
 30
0.0
 10
-84.523099999999999
 20
-13.2948
 30
0.0
 10
-84.523099999999999
 20
-13.2948
 30
0.0
  0
SPLINE
  5
137
100
AcDbEntity
  8
LC-004-005-----0
370
    35
100
AcDbSpline
210
0.0
220
0.0
230
1.0
 70
     0
 71
     3
 72
     8
 73
     4
 74
     0
 42
0.0000000001
 43
0.0000000001
 40
0.0
 40
0.0
 40
0.0
 40
0.0
 40
1.0
 40
1.0
 40
1.0
 40
1.0
 10
-84.226500000000001
 20
-12.998100000000001
 30
0.0
 10
-84.226500000000001
 20
-12.998100000000001
 30
0.0
 10
-84.137100000000004
 20
-12.908800000000001
 30
0.0
 10
-84.137100000000004
 20
-12.908800000000001
 30
0.0
  0
SPLINE
  5
138
100
AcDbEntity
  8
LC-004-005-----0
370
    35
100
AcDbSpline
210
0.0
220
0.0
230
1.0
 70
     0
 71
     3
 72
     8
 73
     4
 74
     0
 42
0.0000000001
 43
0.0000000001
 40
0.0
 40
0.0
 40
0.0
 40
0.0
 40
1.0
 40
1.0
 40
1.0
 40
1.0
 10
-85.816100000000006
 20
-14.4513
 30
0.0
 10
-85.816100000000006
 20
-14.4513
 30
0.0
 10
-84.612499999999997
 20
-13.2476
 30
0.0
 10
-84.612499999999997
 20
-13.2476
 30
0.0
  0
SPLINE
  5
139
100
AcDbEntity
  8
LC-004-005-----0
370
    35
100
AcDbSpline
210
0.0
220
0.0
230
1.0
 70
     0
 71
     3
 72
     8
 73
     4
 74
     0
 42
0.0000000001
 43
0.0000000001
 40
0.0
 40
0.0
 40
0.0
 40
0.0
 40
1.0
 40
1.0
 40
1.0
 40
1.0
 10
-85.917500000000004
 20
-14.4162
 30
0.0
 10
-85.917500000000004
 20
-14.4162
 30
0.0
 10
-84.612499999999997
 20
-13.1112
 30
0.0
 10
-84.612499999999997
 20
-13.1112
 30
0.0
  0
SPLINE
  5
13A
100
AcDbEntity
  8
LC-004-005-----0
370
    35
100
AcDbSpline
210
0.0
220
0.0
230
1.0
 70
     0
 71
     3
 72
     8
 73
     4
 74
     0
 42
0.0000000001
 43
0.0000000001
 40
0.0
 40
0.0
 40
0.0
 40
0.0
 40
1.0
 40
1.0
 40
1.0
 40
1.0
 10
-86.018900000000002
 20
-14.381200000000002
 30
0.0
 10
-86.018900000000002
 20
-14.381200000000002
 30
0.0
 10
-84.612499999999997
 20
-12.9747
 30
0.0
 10
-84.612499999999997
 20
-12.9747
 30
0.0
  0
SPLINE
  5
13B
100
AcDbEntity
  8
LC-004-005-----0
370
    35
100
AcDbSpline
210
0.0
220
0.0
230
1.0
 70
     0
 71
     3
 72
     8
 73
     4
 74
     0
 42
0.0000000001
 43
0.0000000001
 40
0.0
 40
0.0
 40
0.0
 40
0.0
 40
1.0
 40
1.0
 40
1.0
 40
1.0
 10
-86.120400000000004
 20
-14.3461
 30
0.0
 10
-86.120400000000004
 20
-14.3461
 30
0.0
 10
-84.683000000000007
 20
-12.908800000000001
 30
0.0
 10
-84.683000000000007
 20
-12.908800000000001
 30
0.0
  0
SPLINE
  5
13C
100
AcDbEntity
  8
LC-004-005-----0
370
    35
100
AcDbSpline
210
0.0
220
0.0
230
1.0
 70
     0
 71
     3
 72
     8
 73
     4
 74
     0
 42
0.0000000001
 43
0.0000000001
 40
0.0
 40
0.0
 40
0.0
 40
0.0
 40
1.0
 40
1.0
 40
1.0
 40
1.0
 10
-86.221800000000002
 20
-14.311100000000001
 30
0.0
 10
-86.221800000000002
 20
-14.311100000000001
 30
0.0
 10
-84.819500000000005
 20
-12.908800000000001
 30
0.0
 10
-84.819500000000005
 20
-12.908800000000001
 30
0.0
  0
SPLINE
  5
13D
100
AcDbEntity
  8
LC-004-005-----0
370
    35
100
AcDbSpline
210
0.0
220
0.0
230
1.0
 70
     0
 71
     3
 72
     8
 73
     4
 74
     0
 42
0.0000000001
 43
0.0000000001
 40
0.0
 40
0.0
 40
0.0
 40
0.0
 40
1.0
 40
1.0
 40
1.0
 40
1.0
 10
-86.323100000000011
 20
-14.276
 30
0.0
 10
-86.323100000000011
 20
-14.276
 30
0.0
 10
-84.956000000000003
 20
-12.908800000000001
 30
0.0
 10
-84.956000000000003
 20
-12.908800000000001
 30
0.0
  0
SPLINE
  5
13E
100
AcDbEntity
  8
LC-004-005-----0
370
    35
100
AcDbSpline
210
0.0
220
0.0
230
1.0
 70
     0
 71
     3
 72
     8
 73
     4
 74
     0
 42
0.0000000001
 43
0.0000000001
 40
0.0
 40
0.0
 40
0.0
 40
0.0
 40
1.0
 40
1.0
 40
1.0
 40
1.0
 10
-86.424500000000009
 20
-14.241000000000001
 30
0.0
 10
-86.424500000000009
 20
-14.241000000000001
 30
0.0
 10
-85.092500000000001
 20
-12.908800000000001
 30
0.0
 10
-85.092500000000001
 20
-12.908800000000001
 30
0.0
  0
SPLINE
  5
13F
100
AcDbEntity
  8
LC-004-005-----0
370
    35
100
AcDbSpline
210
0.0
220
0.0
230
1.0
 70
     0
 71
     3
 72
     8
 73
     4
 74
     0
 42
0.0000000001
 43
0.0000000001
 40
0.0
 40
0.0
 40
0.0
 40
0.0
 40
1.0
 40
1.0
 40
1.0
 40
1.0
 10
-86.52600000000001
 20
-14.205900000000002
 30
0.0
 10
-86.52600000000001
 20
-14.205900000000002
 30
0.0
 10
-85.22890000000001
 20
-12.908800000000001
 30
0.0
 10
-85.22890000000001
 20
-12.908800000000001
 30
0.0
  0
SPLINE
  5
140
100
AcDbEntity
  8
LC-004-005-----0
370
    35
100
AcDbSpline
210
0.0
220
0.0
230
1.0
 70
     0
 71
     3
 72
     8
 73
     4
 74
     0
 42
0.0000000001
 43
0.0000000001
 40
0.0
 40
0.0
 40
0.0
 40
0.0
 40
1.0
 40
1.0
 40
1.0
 40
1.0
 10
-86.627400000000009
 20
-14.170900000000001
 30
0.0
 10
-86.627400000000009
 20
-14.170900000000001
 30
0.0
 10
-85.365400000000008
 20
-12.908800000000001
 30
0.0
 10
-85.365400000000008
 20
-12.908800000000001
 30
0.0
  0
SPLINE
  5
141
100
AcDbEntity
  8
LC-004-005-----0
370
    35
100
AcDbSpline
210
0.0
220
0.0
230
1.0
 70
     0
 71
     3
 72
     8
 73
     4
 74
     0
 42
0.0000000001
 43
0.0000000001
 40
0.0
 40
0.0
 40
0.0
 40
0.0
 40
1.0
 40
1.0
 40
1.0
 40
1.0
 10
-86.728800000000007
 20
-14.135800000000001
 30
0.0
 10
-86.728800000000007
 20
-14.135800000000001
 30
0.0
 10
-85.501900000000006
 20
-12.908800000000001
 30
0.0
 10
-85.501900000000006
 20
-12.908800000000001
 30
0.0
  0
SPLINE
  5
142
100
AcDbEntity
  8
LC-004-005-----0
370
    35
100
AcDbSpline
210
0.0
220
0.0
230
1.0
 70
     0
 71
     3
 72
     8
 73
     4
 74
     0
 42
0.0000000001
 43
0.0000000001
 40
0.0
 40
0.0
 40
0.0
 40
0.0
 40
1.0
 40
1.0
 40
1.0
 40
1.0
 10
-86.830300000000008
 20
-14.100800000000001
 30
0.0
 10
-86.830300000000008
 20
-14.100800000000001
 30
0.0
 10
-85.638300000000001
 20
-12.908800000000001
 30
0.0
 10
-85.638300000000001
 20
-12.908800000000001
 30
0.0
  0
SPLINE
  5
143
100
AcDbEntity
  8
LC-004-005-----0
370
    35
100
AcDbSpline
210
0.0
220
0.0
230
1.0
 70
     0
 71
     3
 72
     8
 73
     4
 74
     0
 42
0.0000000001
 43
0.0000000001
 40
0.0
 40
0.0
 40
0.0
 40
0.0
 40
1.0
 40
1.0
 40
1.0
 40
1.0
 10
-86.928400000000011
 20
-14.0625
 30
0.0
 10
-86.928400000000011
 20
-14.0625
 30
0.0
 10
-85.77470000000001
 20
-12.908800000000001
 30
0.0
 10
-85.77470000000001
 20
-12.908800000000001
 30
0.0
  0
SPLINE
  5
144
100
AcDbEntity
  8
LC-004-005-----0
370
    35
100
AcDbSpline
210
0.0
220
0.0
230
1.0
 70
     0
 71
     3
 72
     8
 73
     4
 74
     0
 42
0.0000000001
 43
0.0000000001
 40
0.0
 40
0.0
 40
0.0
 40
0.0
 40
1.0
 40
1.0
 40
1.0
 40
1.0
 10
-86.928400000000011
 20
-13.926
 30
0.0
 10
-86.928400000000011
 20
-13.926
 30
0.0
 10
-85.911200000000008
 20
-12.908800000000001
 30
0.0
 10
-85.911200000000008
 20
-12.908800000000001
 30
0.0
  0
SPLINE
  5
145
100
AcDbEntity
  8
LC-004-005-----0
370
    35
100
AcDbSpline
210
0.0
220
0.0
230
1.0
 70
     0
 71
     3
 72
     8
 73
     4
 74
     0
 42
0.0000000001
 43
0.0000000001
 40
0.0
 40
0.0
 40
0.0
 40
0.0
 40
1.0
 40
1.0
 40
1.0
 40
1.0
 10
-86.928400000000011
 20
-13.7895
 30
0.0
 10
-86.928400000000011
 20
-13.7895
 30
0.0
 10
-86.047700000000006
 20
-12.908800000000001
 30
0.0
 10
-86.047700000000006
 20
-12.908800000000001
 30
0.0
  0
SPLINE
  5
146
100
AcDbEntity
  8
LC-004-005-----0
370
    35
100
AcDbSpline
210
0.0
220
0.0
230
1.0
 70
     0
 71
     3
 72
     8
 73
     4
 74
     0
 42
0.0000000001
 43
0.0000000001
 40
0.0
 40
0.0
 40
0.0
 40
0.0
 40
1.0
 40
1.0
 40
1.0
 40
1.0
 10
-86.928400000000011
 20
-13.653
 30
0.0
 10
-86.928400000000011
 20
-13.653
 30
0.0
 10
-86.184200000000004
 20
-12.908800000000001
 30
0.0
 10
-86.184200000000004
 20
-12.908800000000001
 30
0.0
  0
SPLINE
  5
147
100
AcDbEntity
  8
LC-004-005-----0
370
    35
100
AcDbSpline
210
0.0
220
0.0
230
1.0
 70
     0
 71
     3
 72
     8
 73
     4
 74
     0
 42
0.0000000001
 43
0.0000000001
 40
0.0
 40
0.0
 40
0.0
 40
0.0
 40
1.0
 40
1.0
 40
1.0
 40
1.0
 10
-86.928400000000011
 20
-13.516500000000001
 30
0.0
 10
-86.928400000000011
 20
-13.516500000000001
 30
0.0
 10
-86.320700000000002
 20
-12.908800000000001
 30
0.0
 10
-86.320700000000002
 20
-12.908800000000001
 30
0.0
  0
SPLINE
  5
148
100
AcDbEntity
  8
LC-004-005-----0
370
    35
100
AcDbSpline
210
0.0
220
0.0
230
1.0
 70
     0
 71
     3
 72
     8
 73
     4
 74
     0
 42
0.0000000001
 43
0.0000000001
 40
0.0
 40
0.0
 40
0.0
 40
0.0
 40
1.0
 40
1.0
 40
1.0
 40
1.0
 10
-86.928400000000011
 20
-13.380100000000001
 30
0.0
 10
-86.928400000000011
 20
-13.380100000000001
 30
0.0
 10
-86.457100000000011
 20
-12.908800000000001
 30
0.0
 10
-86.457100000000011
 20
-12.908800000000001
 30
0.0
  0
SPLINE
  5
149
100
AcDbEntity
  8
LC-004-005-----0
370
    35
100
AcDbSpline
210
0.0
220
0.0
230
1.0
 70
     0
 71
     3
 72
     8
 73
     4
 74
     0
 42
0.0000000001
 43
0.0000000001
 40
0.0
 40
0.0
 40
0.0
 40
0.0
 40
1.0
 40
1.0
 40
1.0
 40
1.0
 10
-86.928400000000011
 20
-13.2437
 30
0.0
 10
-86.928400000000011
 20
-13.2437
 30
0.0
 10
-86.593600000000009
 20
-12.908800000000001
 30
0.0
 10
-86.593600000000009
 20
-12.908800000000001
 30
0.0
  0
SPLINE
  5
14A
100
AcDbEntity
  8
LC-004-005-----0
370
    35
100
AcDbSpline
210
0.0
220
0.0
230
1.0
 70
     0
 71
     3
 72
     8
 73
     4
 74
     0
 42
0.0000000001
 43
0.0000000001
 40
0.0
 40
0.0
 40
0.0
 40
0.0
 40
1.0
 40
1.0
 40
1.0
 40
1.0
 10
-86.928400000000011
 20
-13.107200000000001
 30
0.0
 10
-86.928400000000011
 20
-13.107200000000001
 30
0.0
 10
-86.730100000000007
 20
-12.908800000000001
 30
0.0
 10
-86.730100000000007
 20
-12.908800000000001
 30
0.0
  0
SPLINE
  5
14B
100
AcDbEntity
  8
LC-004-005-----0
370
    35
100
AcDbSpline
210
0.0
220
0.0
230
1.0
 70
     0
 71
     3
 72
     8
 73
     4
 74
     0
 42
0.0000000001
 43
0.0000000001
 40
0.0
 40
0.0
 40
0.0
 40
0.0
 40
1.0
 40
1.0
 40
1.0
 40
1.0
 10
-86.928400000000011
 20
-12.970700000000001
 30
0.0
 10
-86.928400000000011
 20
-12.970700000000001
 30
0.0
 10
-86.866600000000005
 20
-12.908800000000001
 30
0.0
 10
-86.866600000000005
 20
-12.908800000000001
 30
0.0
  0
SPLINE
  5
14C
100
AcDbEntity
  8
LC-004-005-----0
370
    35
100
AcDbSpline
210
0.0
220
0.0
230
1.0
 70
     0
 71
     3
 72
     8
 73
     4
 74
     0
 42
0.0000000001
 43
0.0000000001
 40
0.0
 40
0.0
 40
0.0
 40
0.0
 40
1.0
 40
1.0
 40
1.0
 40
1.0
 10
-86.928400000000011
 20
-12.908800000000001
 30
0.0
 10
-86.928400000000011
 20
-12.908800000000001
 30
0.0
 10
-86.928400000000011
 20
-36.261700000000005
 30
0.0
 10
-86.928400000000011
 20
-36.261700000000005
 30
0.0
  0
SPLINE
  5
14D
100
AcDbEntity
  8
LC-004-005-----0
370
    20
100
AcDbSpline
210
0.0
220
0.0
230
1.0
 70
     0
 71
     3
 72
     8
 73
     4
 74
     0
 42
0.0000000001
 43
0.0000000001
 40
0.0
 40
0.0
 40
0.0
 40
0.0
 40
1.0
 40
1.0
 40
1.0
 40
1.0
 10
-89.244399999999999
 20
-14.3696
 30
0.0
 10
-89.244399999999999
 20
-14.3696
 30
0.0
 10
-88.871900000000011
 20
-14.7422
 30
0.0
 10
-88.871900000000011
 20
-14.7422
 30
0.0
  0
SPLINE
  5
14E
100
AcDbEntity
  8
LC-004-005-----0
370
    20
100
AcDbSpline
210
0.0
220
0.0
230
1.0
 70
     0
 71
     3
 72
     8
 73
     4
 74
     0
 42
0.0000000001
 43
0.0000000001
 40
0.0
 40
0.0
 40
0.0
 40
0.0
 40
1.0
 40
1.0
 40
1.0
 40
1.0
 10
-88.938100000000006
 20
-13.584300000000001
 30
0.0
 10
-88.938100000000006
 20
-13.584300000000001
 30
0.0
 10
-87.780100000000004
 20
-14.7422
 30
0.0
 10
-87.780100000000004
 20
-14.7422
 30
0.0
  0
SPLINE
  5
14F
100
AcDbEntity
  8
LC-004-005-----0
370
    20
100
AcDbSpline
210
0.0
220
0.0
230
1.0
 70
     0
 71
     3
 72
     8
 73
     4
 74
     0
 42
0.0000000001
 43
0.0000000001
 40
0.0
 40
0.0
 40
0.0
 40
0.0
 40
1.0
 40
1.0
 40
1.0
 40
1.0
 10
-88.086399999999998
 20
-13.344100000000001
 30
0.0
 10
-88.086399999999998
 20
-13.344100000000001
 30
0.0
 10
-86.928400000000011
 20
-14.5021
 30
0.0
 10
-86.928400000000011
 20
-14.5021
 30
0.0
  0
SPLINE
  5
150
100
AcDbEntity
  8
LC-004-005-----0
370
    20
100
AcDbSpline
210
0.0
220
0.0
230
1.0
 70
     0
 71
     3
 72
     8
 73
     4
 74
     0
 42
0.0000000001
 43
0.0000000001
 40
0.0
 40
0.0
 40
0.0
 40
0.0
 40
1.0
 40
1.0
 40
1.0
 40
1.0
 10
-87.958800000000011
 20
-12.380000000000001
 30
0.0
 10
-87.958800000000011
 20
-12.380000000000001
 30
0.0
 10
-86.928400000000011
 20
-13.410200000000001
 30
0.0
 10
-86.928400000000011
 20
-13.410200000000001
 30
0.0
  0
SPLINE
  5
151
100
AcDbEntity
  8
LC-004-005-----0
370
    20
100
AcDbSpline
210
0.0
220
0.0
230
1.0
 70
     0
 71
     3
 72
     8
 73
     4
 74
     0
 42
0.0000000001
 43
0.0000000001
 40
0.0
 40
0.0
 40
0.0
 40
0.0
 40
1.0
 40
1.0
 40
1.0
 40
1.0
 10
-87.397199999999998
 20
-11.8499
 30
0.0
 10
-87.397199999999998
 20
-11.8499
 30
0.0
 10
-86.338300000000004
 20
-12.908800000000001
 30
0.0
 10
-86.338300000000004
 20
-12.908800000000001
 30
0.0
  0
SPLINE
  5
152
100
AcDbEntity
  8
LC-004-005-----0
370
    20
100
AcDbSpline
210
0.0
220
0.0
230
1.0
 70
     0
 71
     3
 72
     8
 73
     4
 74
     0
 42
0.0000000001
 43
0.0000000001
 40
0.0
 40
0.0
 40
0.0
 40
0.0
 40
1.0
 40
1.0
 40
1.0
 40
1.0
 10
-86.404499999999999
 20
-11.7508
 30
0.0
 10
-86.404499999999999
 20
-11.7508
 30
0.0
 10
-85.246499999999997
 20
-12.908800000000001
 30
0.0
 10
-85.246499999999997
 20
-12.908800000000001
 30
0.0
  0
SPLINE
  5
153
100
AcDbEntity
  8
LC-004-005-----0
370
    20
100
AcDbSpline
210
0.0
220
0.0
230
1.0
 70
     0
 71
     3
 72
     8
 73
     4
 74
     0
 42
0.0000000001
 43
0.0000000001
 40
0.0
 40
0.0
 40
0.0
 40
0.0
 40
1.0
 40
1.0
 40
1.0
 40
1.0
 10
-83.840500000000006
 20
-14.3148
 30
0.0
 10
-83.840500000000006
 20
-14.3148
 30
0.0
 10
-83.413000000000011
 20
-14.7422
 30
0.0
 10
-83.413000000000011
 20
-14.7422
 30
0.0
  0
SPLINE
  5
154
100
AcDbEntity
  8
LC-004-005-----0
370
    20
100
AcDbSpline
210
0.0
220
0.0
230
1.0
 70
     0
 71
     3
 72
     8
 73
     4
 74
     0
 42
0.0000000001
 43
0.0000000001
 40
0.0
 40
0.0
 40
0.0
 40
0.0
 40
1.0
 40
1.0
 40
1.0
 40
1.0
 10
-85.312700000000007
 20
-11.7508
 30
0.0
 10
-85.312700000000007
 20
-11.7508
 30
0.0
 10
-84.154700000000005
 20
-12.908800000000001
 30
0.0
 10
-84.154700000000005
 20
-12.908800000000001
 30
0.0
  0
SPLINE
  5
155
100
AcDbEntity
  8
LC-004-005-----0
370
    20
100
AcDbSpline
210
0.0
220
0.0
230
1.0
 70
     0
 71
     3
 72
     8
 73
     4
 74
     0
 42
0.0000000001
 43
0.0000000001
 40
0.0
 40
0.0
 40
0.0
 40
0.0
 40
1.0
 40
1.0
 40
1.0
 40
1.0
 10
-83.840500000000006
 20
-13.222900000000001
 30
0.0
 10
-83.840500000000006
 20
-13.222900000000001
 30
0.0
 10
-82.321300000000008
 20
-14.7422
 30
0.0
 10
-82.321300000000008
 20
-14.7422
 30
0.0
  0
SPLINE
  5
156
100
AcDbEntity
  8
LC-004-005-----0
370
    20
100
AcDbSpline
210
0.0
220
0.0
230
1.0
 70
     0
 71
     3
 72
     8
 73
     4
 74
     0
 42
0.0000000001
 43
0.0000000001
 40
0.0
 40
0.0
 40
0.0
 40
0.0
 40
1.0
 40
1.0
 40
1.0
 40
1.0
 10
-84.221000000000004
 20
-11.7508
 30
0.0
 10
-84.221000000000004
 20
-11.7508
 30
0.0
 10
-82.682500000000005
 20
-13.289200000000001
 30
0.0
 10
-82.682500000000005
 20
-13.289200000000001
 30
0.0
  0
SPLINE
  5
157
100
AcDbEntity
  8
LC-004-005-----0
370
    20
100
AcDbSpline
210
0.0
220
0.0
230
1.0
 70
     0
 71
     3
 72
     8
 73
     4
 74
     0
 42
0.0000000001
 43
0.0000000001
 40
0.0
 40
0.0
 40
0.0
 40
0.0
 40
1.0
 40
1.0
 40
1.0
 40
1.0
 10
-82.3874
 20
-13.584200000000001
 30
0.0
 10
-82.3874
 20
-13.584200000000001
 30
0.0
 10
-81.229399999999998
 20
-14.7422
 30
0.0
 10
-81.229399999999998
 20
-14.7422
 30
0.0
  0
SPLINE
  5
158
100
AcDbEntity
  8
LC-004-005-----0
370
    20
100
AcDbSpline
210
0.0
220
0.0
230
1.0
 70
     0
 71
     3
 72
     8
 73
     4
 74
     0
 42
0.0000000001
 43
0.0000000001
 40
0.0
 40
0.0
 40
0.0
 40
0.0
 40
1.0
 40
1.0
 40
1.0
 40
1.0
 10
-81.295700000000011
 20
-13.584200000000001
 30
0.0
 10
-81.295700000000011
 20
-13.584200000000001
 30
0.0
 10
-80.137700000000009
 20
-14.7422
 30
0.0
 10
-80.137700000000009
 20
-14.7422
 30
0.0
  0
SPLINE
  5
159
100
AcDbEntity
  8
LC-004-005-----0
370
    20
100
AcDbSpline
210
0.0
220
0.0
230
1.0
 70
     0
 71
     3
 72
     8
 73
     4
 74
     0
 42
0.0000000001
 43
0.0000000001
 40
0.0
 40
0.0
 40
0.0
 40
0.0
 40
1.0
 40
1.0
 40
1.0
 40
1.0
 10
-80.204000000000008
 20
-13.584200000000001
 30
0.0
 10
-80.204000000000008
 20
-13.584200000000001
 30
0.0
 10
-79.046000000000006
 20
-14.7422
 30
0.0
 10
-79.046000000000006
 20
-14.7422
 30
0.0
  0
SPLINE
  5
15A
100
AcDbEntity
  8
LC-004-005-----0
370
    20
100
AcDbSpline
210
0.0
220
0.0
230
1.0
 70
     0
 71
     3
 72
     8
 73
     4
 74
     0
 42
0.0000000001
 43
0.0000000001
 40
0.0
 40
0.0
 40
0.0
 40
0.0
 40
1.0
 40
1.0
 40
1.0
 40
1.0
 10
-79.112099999999998
 20
-13.584200000000001
 30
0.0
 10
-79.112099999999998
 20
-13.584200000000001
 30
0.0
 10
-77.954099999999997
 20
-14.7422
 30
0.0
 10
-77.954099999999997
 20
-14.7422
 30
0.0
  0
SPLINE
  5
15B
100
AcDbEntity
  8
LC-004-005-----0
370
    20
100
AcDbSpline
210
0.0
220
0.0
230
1.0
 70
     0
 71
     3
 72
     8
 73
     4
 74
     0
 42
0.0000000001
 43
0.0000000001
 40
0.0
 40
0.0
 40
0.0
 40
0.0
 40
1.0
 40
1.0
 40
1.0
 40
1.0
 10
-78.020400000000009
 20
-13.584200000000001
 30
0.0
 10
-78.020400000000009
 20
-13.584200000000001
 30
0.0
 10
-76.862400000000008
 20
-14.7422
 30
0.0
 10
-76.862400000000008
 20
-14.7422
 30
0.0
  0
SPLINE
  5
15C
100
AcDbEntity
  8
LC-004-005-----0
370
    20
100
AcDbSpline
210
0.0
220
0.0
230
1.0
 70
     0
 71
     3
 72
     8
 73
     4
 74
     0
 42
0.0000000001
 43
0.0000000001
 40
0.0
 40
0.0
 40
0.0
 40
0.0
 40
1.0
 40
1.0
 40
1.0
 40
1.0
 10
-76.928700000000006
 20
-13.584200000000001
 30
0.0
 10
-76.928700000000006
 20
-13.584200000000001
 30
0.0
 10
-75.770700000000005
 20
-14.7422
 30
0.0
 10
-75.770700000000005
 20
-14.7422
 30
0.0
  0
SPLINE
  5
15D
100
AcDbEntity
  8
LC-004-005-----0
370
    20
100
AcDbSpline
210
0.0
220
0.0
230
1.0
 70
     0
 71
     3
 72
     8
 73
     4
 74
     0
 42
0.0000000001
 43
0.0000000001
 40
0.0
 40
0.0
 40
0.0
 40
0.0
 40
1.0
 40
1.0
 40
1.0
 40
1.0
 10
-75.836799999999997
 20
-13.584200000000001
 30
0.0
 10
-75.836799999999997
 20
-13.584200000000001
 30
0.0
 10
-74.67880000000001
 20
-14.7422
 30
0.0
 10
-74.67880000000001
 20
-14.7422
 30
0.0
  0
SPLINE
  5
15E
100
AcDbEntity
  8
LC-004-005-----0
370
    20
100
AcDbSpline
210
0.0
220
0.0
230
1.0
 70
     0
 71
     3
 72
     8
 73
     4
 74
     0
 42
0.0000000001
 43
0.0000000001
 40
0.0
 40
0.0
 40
0.0
 40
0.0
 40
1.0
 40
1.0
 40
1.0
 40
1.0
 10
-74.745100000000008
 20
-13.584200000000001
 30
0.0
 10
-74.745100000000008
 20
-13.584200000000001
 30
0.0
 10
-73.587100000000007
 20
-14.7422
 30
0.0
 10
-73.587100000000007
 20
-14.7422
 30
0.0
  0
SPLINE
  5
15F
100
AcDbEntity
  8
LC-004-005-----0
370
    20
100
AcDbSpline
210
0.0
220
0.0
230
1.0
 70
     0
 71
     3
 72
     8
 73
     4
 74
     0
 42
0.0000000001
 43
0.0000000001
 40
0.0
 40
0.0
 40
0.0
 40
0.0
 40
1.0
 40
1.0
 40
1.0
 40
1.0
 10
-73.653400000000005
 20
-13.584200000000001
 30
0.0
 10
-73.653400000000005
 20
-13.584200000000001
 30
0.0
 10
-72.495400000000004
 20
-14.7422
 30
0.0
 10
-72.495400000000004
 20
-14.7422
 30
0.0
  0
SPLINE
  5
160
100
AcDbEntity
  8
LC-004-005-----0
370
    20
100
AcDbSpline
210
0.0
220
0.0
230
1.0
 70
     0
 71
     3
 72
     8
 73
     4
 74
     0
 42
0.0000000001
 43
0.0000000001
 40
0.0
 40
0.0
 40
0.0
 40
0.0
 40
1.0
 40
1.0
 40
1.0
 40
1.0
 10
-72.561500000000009
 20
-13.584200000000001
 30
0.0
 10
-72.561500000000009
 20
-13.584200000000001
 30
0.0
 10
-71.403500000000008
 20
-14.7422
 30
0.0
 10
-71.403500000000008
 20
-14.7422
 30
0.0
  0
SPLINE
  5
161
100
AcDbEntity
  8
LC-004-005-----0
370
    20
100
AcDbSpline
210
0.0
220
0.0
230
1.0
 70
     0
 71
     3
 72
     8
 73
     4
 74
     0
 42
0.0000000001
 43
0.0000000001
 40
0.0
 40
0.0
 40
0.0
 40
0.0
 40
1.0
 40
1.0
 40
1.0
 40
1.0
 10
-71.469800000000006
 20
-13.584200000000001
 30
0.0
 10
-71.469800000000006
 20
-13.584200000000001
 30
0.0
 10
-70.311800000000005
 20
-14.7422
 30
0.0
 10
-70.311800000000005
 20
-14.7422
 30
0.0
  0
SPLINE
  5
162
100
AcDbEntity
  8
LC-004-005-----0
370
    20
100
AcDbSpline
210
0.0
220
0.0
230
1.0
 70
     0
 71
     3
 72
     8
 73
     4
 74
     0
 42
0.0000000001
 43
0.0000000001
 40
0.0
 40
0.0
 40
0.0
 40
0.0
 40
1.0
 40
1.0
 40
1.0
 40
1.0
 10
-70.378100000000003
 20
-13.584200000000001
 30
0.0
 10
-70.378100000000003
 20
-13.584200000000001
 30
0.0
 10
-69.201400000000007
 20
-14.760900000000001
 30
0.0
 10
-69.201400000000007
 20
-14.760900000000001
 30
0.0
  0
SPLINE
  5
163
100
AcDbEntity
  8
LC-004-005-----0
370
    20
100
AcDbSpline
210
0.0
220
0.0
230
1.0
 70
     0
 71
     3
 72
     8
 73
     4
 74
     0
 42
0.0000000001
 43
0.0000000001
 40
0.0
 40
0.0
 40
0.0
 40
0.0
 40
1.0
 40
1.0
 40
1.0
 40
1.0
 10
-69.286200000000008
 20
-13.584200000000001
 30
0.0
 10
-69.286200000000008
 20
-13.584200000000001
 30
0.0
 10
-67.745699999999999
 20
-15.124700000000001
 30
0.0
 10
-67.745699999999999
 20
-15.124700000000001
 30
0.0
  0
SPLINE
  5
164
100
AcDbEntity
  8
LC-004-005-----0
370
    20
100
AcDbSpline
210
0.0
220
0.0
230
1.0
 70
     0
 71
     3
 72
     8
 73
     4
 74
     0
 42
0.0000000001
 43
0.0000000001
 40
0.0
 40
0.0
 40
0.0
 40
0.0
 40
1.0
 40
1.0
 40
1.0
 40
1.0
 10
-67.881500000000003
 20
-13.897200000000002
 30
0.0
 10
-67.881500000000003
 20
-13.897200000000002
 30
0.0
 10
-66.290000000000006
 20
-15.488700000000001
 30
0.0
 10
-66.290000000000006
 20
-15.488700000000001
 30
0.0
  0
SPLINE
  5
165
100
AcDbEntity
  8
LC-004-005-----0
370
    20
100
AcDbSpline
210
0.0
220
0.0
230
1.0
 70
     0
 71
     3
 72
     8
 73
     4
 74
     0
 42
0.0000000001
 43
0.0000000001
 40
0.0
 40
0.0
 40
0.0
 40
0.0
 40
1.0
 40
1.0
 40
1.0
 40
1.0
 10
-66.42580000000001
 20
-14.261000000000001
 30
0.0
 10
-66.42580000000001
 20
-14.261000000000001
 30
0.0
 10
-65.167100000000005
 20
-15.5198
 30
0.0
 10
-65.167100000000005
 20
-15.5198
 30
0.0
  0
SPLINE
  5
166
100
AcDbEntity
  8
LC-004-005-----0
370
    20
100
AcDbSpline
210
0.0
220
0.0
230
1.0
 70
     0
 71
     3
 72
     8
 73
     4
 74
     0
 42
0.0000000001
 43
0.0000000001
 40
0.0
 40
0.0
 40
0.0
 40
0.0
 40
1.0
 40
1.0
 40
1.0
 40
1.0
 10
-65.615200000000002
 20
-13.98
 30
0.0
 10
-65.615200000000002
 20
-13.98
 30
0.0
 10
-64.767499999999998
 20
-14.8276
 30
0.0
 10
-64.767499999999998
 20
-14.8276
 30
0.0
  0
SPLINE
  5
167
100
AcDbEntity
  8
LC-004-005-----0
370
    20
100
AcDbSpline
210
0.0
220
0.0
230
1.0
 70
     0
 71
     3
 72
     8
 73
     4
 74
     0
 42
0.0000000001
 43
0.0000000001
 40
0.0
 40
0.0
 40
0.0
 40
0.0
 40
1.0
 40
1.0
 40
1.0
 40
1.0
 10
-65.215600000000009
 20
-13.287800000000001
 30
0.0
 10
-65.215600000000009
 20
-13.287800000000001
 30
0.0
 10
-64.367900000000006
 20
-14.1355
 30
0.0
 10
-64.367900000000006
 20
-14.1355
 30
0.0
  0
SPLINE
  5
168
100
AcDbEntity
  8
LC-004-005-----0
370
    20
100
AcDbSpline
210
0.0
220
0.0
230
1.0
 70
     0
 71
     3
 72
     8
 73
     4
 74
     0
 42
0.0000000001
 43
0.0000000001
 40
0.0
 40
0.0
 40
0.0
 40
0.0
 40
1.0
 40
1.0
 40
1.0
 40
1.0
 10
-64.816000000000003
 20
-12.595700000000001
 30
0.0
 10
-64.816000000000003
 20
-12.595700000000001
 30
0.0
 10
-63.968200000000003
 20
-13.443300000000001
 30
0.0
 10
-63.968200000000003
 20
-13.443300000000001
 30
0.0
  0
SPLINE
  5
169
100
AcDbEntity
  8
LC-004-005-----0
370
    20
100
AcDbSpline
210
0.0
220
0.0
230
1.0
 70
     0
 71
     3
 72
     8
 73
     4
 74
     0
 42
0.0000000001
 43
0.0000000001
 40
0.0
 40
0.0
 40
0.0
 40
0.0
 40
1.0
 40
1.0
 40
1.0
 40
1.0
 10
-64.416300000000007
 20
-11.903500000000001
 30
0.0
 10
-64.416300000000007
 20
-11.903500000000001
 30
0.0
 10
-63.5687
 20
-12.751200000000001
 30
0.0
 10
-63.5687
 20
-12.751200000000001
 30
0.0
  0
SPLINE
  5
16A
100
AcDbEntity
  8
LC-004-005-----0
370
    20
100
AcDbSpline
210
0.0
220
0.0
230
1.0
 70
     0
 71
     3
 72
     8
 73
     4
 74
     0
 42
0.0000000001
 43
0.0000000001
 40
0.0
 40
0.0
 40
0.0
 40
0.0
 40
1.0
 40
1.0
 40
1.0
 40
1.0
 10
-64.0167
 20
-11.211300000000001
 30
0.0
 10
-64.0167
 20
-11.211300000000001
 30
0.0
 10
-63.1691
 20
-12.059000000000001
 30
0.0
 10
-63.1691
 20
-12.059000000000001
 30
0.0
  0
SPLINE
  5
16B
100
AcDbEntity
  8
LC-004-005-----0
370
    20
100
AcDbSpline
210
0.0
220
0.0
230
1.0
 70
     0
 71
     3
 72
     8
 73
     4
 74
     0
 42
0.0000000001
 43
0.0000000001
 40
0.0
 40
0.0
 40
0.0
 40
0.0
 40
1.0
 40
1.0
 40
1.0
 40
1.0
 10
-63.617200000000004
 20
-10.5192
 30
0.0
 10
-63.617200000000004
 20
-10.5192
 30
0.0
 10
-62.769400000000005
 20
-11.366900000000001
 30
0.0
 10
-62.769400000000005
 20
-11.366900000000001
 30
0.0
  0
SPLINE
  5
16C
100
AcDbEntity
  8
LC-004-005-----0
370
    20
100
AcDbSpline
210
0.0
220
0.0
230
1.0
 70
     0
 71
     3
 72
     8
 73
     4
 74
     0
 42
0.0000000001
 43
0.0000000001
 40
0.0
 40
0.0
 40
0.0
 40
0.0
 40
1.0
 40
1.0
 40
1.0
 40
1.0
 10
-63.217500000000001
 20
-9.827
 30
0.0
 10
-63.217500000000001
 20
-9.827
 30
0.0
 10
-62.369800000000005
 20
-10.6747
 30
0.0
 10
-62.369800000000005
 20
-10.6747
 30
0.0
  0
SPLINE
  5
16D
100
AcDbEntity
  8
LC-004-005-----0
370
    20
100
AcDbSpline
210
0.0
220
0.0
230
1.0
 70
     0
 71
     3
 72
     8
 73
     4
 74
     0
 42
0.0000000001
 43
0.0000000001
 40
0.0
 40
0.0
 40
0.0
 40
0.0
 40
1.0
 40
1.0
 40
1.0
 40
1.0
 10
-62.817900000000002
 20
-9.1349999999999998
 30
0.0
 10
-62.817900000000002
 20
-9.1349999999999998
 30
0.0
 10
-61.970200000000006
 20
-9.9825999999999997
 30
0.0
 10
-61.970200000000006
 20
-9.9825999999999997
 30
0.0
  0
SPLINE
  5
16E
100
AcDbEntity
  8
LC-004-005-----0
370
    20
100
AcDbSpline
210
0.0
220
0.0
230
1.0
 70
     0
 71
     3
 72
     8
 73
     4
 74
     0
 42
0.0000000001
 43
0.0000000001
 40
0.0
 40
0.0
 40
0.0
 40
0.0
 40
1.0
 40
1.0
 40
1.0
 40
1.0
 10
-62.418300000000002
 20
-8.4428999999999998
 30
0.0
 10
-62.418300000000002
 20
-8.4428999999999998
 30
0.0
 10
-61.570500000000003
 20
-9.2904999999999998
 30
0.0
 10
-61.570500000000003
 20
-9.2904999999999998
 30
0.0
  0
SPLINE
  5
16F
100
AcDbEntity
  8
LC-004-005-----0
370
    20
100
AcDbSpline
210
0.0
220
0.0
230
1.0
 70
     0
 71
     3
 72
     8
 73
     4
 74
     0
 42
0.0000000001
 43
0.0000000001
 40
0.0
 40
0.0
 40
0.0
 40
0.0
 40
1.0
 40
1.0
 40
1.0
 40
1.0
 10
-62.018600000000006
 20
-7.7507000000000001
 30
0.0
 10
-62.018600000000006
 20
-7.7507000000000001
 30
0.0
 10
-61.171000000000006
 20
-8.5983999999999998
 30
0.0
 10
-61.171000000000006
 20
-8.5983999999999998
 30
0.0
  0
SPLINE
  5
170
100
AcDbEntity
  8
LC-004-005-----0
370
    20
100
AcDbSpline
210
0.0
220
0.0
230
1.0
 70
     0
 71
     3
 72
     8
 73
     4
 74
     0
 42
0.0000000001
 43
0.0000000001
 40
0.0
 40
0.0
 40
0.0
 40
0.0
 40
1.0
 40
1.0
 40
1.0
 40
1.0
 10
-61.619
 20
-7.0586000000000002
 30
0.0
 10
-61.619
 20
-7.0586000000000002
 30
0.0
 10
-60.7714
 20
-7.9062000000000001
 30
0.0
 10
-60.7714
 20
-7.9062000000000001
 30
0.0
  0
SPLINE
  5
171
100
AcDbEntity
  8
LC-004-005-----0
370
    20
100
AcDbSpline
210
0.0
220
0.0
230
1.0
 70
     0
 71
     3
 72
     8
 73
     4
 74
     0
 42
0.0000000001
 43
0.0000000001
 40
0.0
 40
0.0
 40
0.0
 40
0.0
 40
1.0
 40
1.0
 40
1.0
 40
1.0
 10
-61.219500000000004
 20
-6.3664000000000005
 30
0.0
 10
-61.219500000000004
 20
-6.3664000000000005
 30
0.0
 10
-60.371700000000004
 20
-7.2141000000000002
 30
0.0
 10
-60.371700000000004
 20
-7.2141000000000002
 30
0.0
  0
SPLINE
  5
172
100
AcDbEntity
  8
LC-004-005-----0
370
    20
100
AcDbSpline
210
0.0
220
0.0
230
1.0
 70
     0
 71
     3
 72
     8
 73
     4
 74
     0
 42
0.0000000001
 43
0.0000000001
 40
0.0
 40
0.0
 40
0.0
 40
0.0
 40
1.0
 40
1.0
 40
1.0
 40
1.0
 10
-60.819800000000001
 20
-5.6741999999999999
 30
0.0
 10
-60.819800000000001
 20
-5.6741999999999999
 30
0.0
 10
-59.972100000000005
 20
-6.5219000000000005
 30
0.0
 10
-59.972100000000005
 20
-6.5219000000000005
 30
0.0
  0
SPLINE
  5
173
100
AcDbEntity
  8
LC-004-005-----0
370
    20
100
AcDbSpline
210
0.0
220
0.0
230
1.0
 70
     0
 71
     3
 72
     8
 73
     4
 74
     0
 42
0.0000000001
 43
0.0000000001
 40
0.0
 40
0.0
 40
0.0
 40
0.0
 40
1.0
 40
1.0
 40
1.0
 40
1.0
 10
-60.420200000000001
 20
-4.9821
 30
0.0
 10
-60.420200000000001
 20
-4.9821
 30
0.0
 10
-59.572500000000005
 20
-5.8298000000000005
 30
0.0
 10
-59.572500000000005
 20
-5.8298000000000005
 30
0.0
  0
SPLINE
  5
174
100
AcDbEntity
  8
LC-004-005-----0
370
    20
100
AcDbSpline
210
0.0
220
0.0
230
1.0
 70
     0
 71
     3
 72
     8
 73
     4
 74
     0
 42
0.0000000001
 43
0.0000000001
 40
0.0
 40
0.0
 40
0.0
 40
0.0
 40
1.0
 40
1.0
 40
1.0
 40
1.0
 10
-60.020600000000002
 20
-4.2899000000000003
 30
0.0
 10
-60.020600000000002
 20
-4.2899000000000003
 30
0.0
 10
-59.172800000000002
 20
-5.1375999999999999
 30
0.0
 10
-59.172800000000002
 20
-5.1375999999999999
 30
0.0
  0
SPLINE
  5
175
100
AcDbEntity
  8
LC-004-005-----0
370
    20
100
AcDbSpline
210
0.0
220
0.0
230
1.0
 70
     0
 71
     3
 72
     8
 73
     4
 74
     0
 42
0.0000000001
 43
0.0000000001
 40
0.0
 40
0.0
 40
0.0
 40
0.0
 40
1.0
 40
1.0
 40
1.0
 40
1.0
 10
-59.621000000000002
 20
-3.5977000000000001
 30
0.0
 10
-59.621000000000002
 20
-3.5977000000000001
 30
0.0
 10
-58.773300000000006
 20
-4.4455
 30
0.0
 10
-58.773300000000006
 20
-4.4455
 30
0.0
  0
SPLINE
  5
176
100
AcDbEntity
  8
LC-004-005-----0
370
    20
100
AcDbSpline
210
0.0
220
0.0
230
1.0
 70
     0
 71
     3
 72
     8
 73
     4
 74
     0
 42
0.0000000001
 43
0.0000000001
 40
0.0
 40
0.0
 40
0.0
 40
0.0
 40
1.0
 40
1.0
 40
1.0
 40
1.0
 10
-59.221299999999999
 20
-2.9055
 30
0.0
 10
-59.221299999999999
 20
-2.9055
 30
0.0
 10
-58.373699999999999
 20
-3.7533000000000003
 30
0.0
 10
-58.373699999999999
 20
-3.7533000000000003
 30
0.0
  0
SPLINE
  5
177
100
AcDbEntity
  8
LC-004-005-----0
370
    20
100
AcDbSpline
210
0.0
220
0.0
230
1.0
 70
     0
 71
     3
 72
     8
 73
     4
 74
     0
 42
0.0000000001
 43
0.0000000001
 40
0.0
 40
0.0
 40
0.0
 40
0.0
 40
1.0
 40
1.0
 40
1.0
 40
1.0
 10
-58.821800000000003
 20
-2.2134
 30
0.0
 10
-58.821800000000003
 20
-2.2134
 30
0.0
 10
-57.9741
 20
-3.0612000000000004
 30
0.0
 10
-57.9741
 20
-3.0612000000000004
 30
0.0
  0
SPLINE
  5
178
100
AcDbEntity
  8
LC-004-005-----0
370
    20
100
AcDbSpline
210
0.0
220
0.0
230
1.0
 70
     0
 71
     3
 72
     8
 73
     4
 74
     0
 42
0.0000000001
 43
0.0000000001
 40
0.0
 40
0.0
 40
0.0
 40
0.0
 40
1.0
 40
1.0
 40
1.0
 40
1.0
 10
-58.422200000000004
 20
-1.5212000000000001
 30
0.0
 10
-58.422200000000004
 20
-1.5212000000000001
 30
0.0
 10
-57.574400000000004
 20
-2.3690000000000002
 30
0.0
 10
-57.574400000000004
 20
-2.3690000000000002
 30
0.0
  0
SPLINE
  5
179
100
AcDbEntity
  8
LC-004-005-----0
370
    20
100
AcDbSpline
210
0.0
220
0.0
230
1.0
 70
     0
 71
     3
 72
     8
 73
     4
 74
     0
 42
0.0000000001
 43
0.0000000001
 40
0.0
 40
0.0
 40
0.0
 40
0.0
 40
1.0
 40
1.0
 40
1.0
 40
1.0
 10
-58.022500000000001
 20
-0.8291000000000001
 30
0.0
 10
-58.022500000000001
 20
-0.8291000000000001
 30
0.0
 10
-57.174800000000005
 20
-1.6768000000000001
 30
0.0
 10
-57.174800000000005
 20
-1.6768000000000001
 30
0.0
  0
SPLINE
  5
17A
100
AcDbEntity
  8
LC-004-005-----0
370
    20
100
AcDbSpline
210
0.0
220
0.0
230
1.0
 70
     0
 71
     3
 72
     8
 73
     4
 74
     0
 42
0.0000000001
 43
0.0000000001
 40
0.0
 40
0.0
 40
0.0
 40
0.0
 40
1.0
 40
1.0
 40
1.0
 40
1.0
 10
-57.622900000000001
 20
-0.1369
 30
0.0
 10
-57.622900000000001
 20
-0.1369
 30
0.0
 10
-56.775300000000001
 20
-0.9847
 30
0.0
 10
-56.775300000000001
 20
-0.9847
 30
0.0
  0
SPLINE
  5
17B
100
AcDbEntity
  8
LC-004-005-----0
370
    20
100
AcDbSpline
210
0.0
220
0.0
230
1.0
 70
     0
 71
     3
 72
     8
 73
     4
 74
     0
 42
0.0000000001
 43
0.0000000001
 40
0.0
 40
0.0
 40
0.0
 40
0.0
 40
1.0
 40
1.0
 40
1.0
 40
1.0
 10
-57.223300000000002
 20
0.5552
 30
0.0
 10
-57.223300000000002
 20
0.5552
 30
0.0
 10
-56.375600000000006
 20
-0.2925
 30
0.0
 10
-56.375600000000006
 20
-0.2925
 30
0.0
  0
SPLINE
  5
17C
100
AcDbEntity
  8
LC-004-005-----0
370
    20
100
AcDbSpline
210
0.0
220
0.0
230
1.0
 70
     0
 71
     3
 72
     8
 73
     4
 74
     0
 42
0.0000000001
 43
0.0000000001
 40
0.0
 40
0.0
 40
0.0
 40
0.0
 40
1.0
 40
1.0
 40
1.0
 40
1.0
 10
-57.013600000000004
 20
1.4373
 30
0.0
 10
-57.013600000000004
 20
1.4373
 30
0.0
 10
-55.976000000000006
 20
0.3996
 30
0.0
 10
-55.976000000000006
 20
0.3996
 30
0.0
  0
SPLINE
  5
17D
100
AcDbEntity
  8
LC-004-005-----0
370
    20
100
AcDbSpline
210
0.0
220
0.0
230
1.0
 70
     0
 71
     3
 72
     8
 73
     4
 74
     0
 42
0.0000000001
 43
0.0000000001
 40
0.0
 40
0.0
 40
0.0
 40
0.0
 40
1.0
 40
1.0
 40
1.0
 40
1.0
 10
-57.013600000000004
 20
2.5291000000000001
 30
0.0
 10
-57.013600000000004
 20
2.5291000000000001
 30
0.0
 10
-55.675400000000003
 20
1.1909000000000001
 30
0.0
 10
-55.675400000000003
 20
1.1909000000000001
 30
0.0
  0
SPLINE
  5
17E
100
AcDbEntity
  8
LC-004-005-----0
370
    20
100
AcDbSpline
210
0.0
220
0.0
230
1.0
 70
     0
 71
     3
 72
     8
 73
     4
 74
     0
 42
0.0000000001
 43
0.0000000001
 40
0.0
 40
0.0
 40
0.0
 40
0.0
 40
1.0
 40
1.0
 40
1.0
 40
1.0
 10
-57.013600000000004
 20
3.6208
 30
0.0
 10
-57.013600000000004
 20
3.6208
 30
0.0
 10
-55.675400000000003
 20
2.2827000000000002
 30
0.0
 10
-55.675400000000003
 20
2.2827000000000002
 30
0.0
  0
SPLINE
  5
17F
100
AcDbEntity
  8
LC-004-005-----0
370
    20
100
AcDbSpline
210
0.0
220
0.0
230
1.0
 70
     0
 71
     3
 72
     8
 73
     4
 74
     0
 42
0.0000000001
 43
0.0000000001
 40
0.0
 40
0.0
 40
0.0
 40
0.0
 40
1.0
 40
1.0
 40
1.0
 40
1.0
 10
-57.013600000000004
 20
4.7126000000000001
 30
0.0
 10
-57.013600000000004
 20
4.7126000000000001
 30
0.0
 10
-55.675400000000003
 20
3.3744000000000001
 30
0.0
 10
-55.675400000000003
 20
3.3744000000000001
 30
0.0
  0
SPLINE
  5
180
100
AcDbEntity
  8
LC-004-005-----0
370
    20
100
AcDbSpline
210
0.0
220
0.0
230
1.0
 70
     0
 71
     3
 72
     8
 73
     4
 74
     0
 42
0.0000000001
 43
0.0000000001
 40
0.0
 40
0.0
 40
0.0
 40
0.0
 40
1.0
 40
1.0
 40
1.0
 40
1.0
 10
-57.013600000000004
 20
5.8044000000000002
 30
0.0
 10
-57.013600000000004
 20
5.8044000000000002
 30
0.0
 10
-55.675400000000003
 20
4.4662000000000006
 30
0.0
 10
-55.675400000000003
 20
4.4662000000000006
 30
0.0
  0
SPLINE
  5
181
100
AcDbEntity
  8
LC-004-005-----0
370
    20
100
AcDbSpline
210
0.0
220
0.0
230
1.0
 70
     0
 71
     3
 72
     8
 73
     4
 74
     0
 42
0.0000000001
 43
0.0000000001
 40
0.0
 40
0.0
 40
0.0
 40
0.0
 40
1.0
 40
1.0
 40
1.0
 40
1.0
 10
-57.013600000000004
 20
6.8961000000000006
 30
0.0
 10
-57.013600000000004
 20
6.8961000000000006
 30
0.0
 10
-55.675400000000003
 20
5.5579999999999998
 30
0.0
 10
-55.675400000000003
 20
5.5579999999999998
 30
0.0
  0
SPLINE
  5
182
100
AcDbEntity
  8
LC-004-005-----0
370
    20
100
AcDbSpline
210
0.0
220
0.0
230
1.0
 70
     0
 71
     3
 72
     8
 73
     4
 74
     0
 42
0.0000000001
 43
0.0000000001
 40
0.0
 40
0.0
 40
0.0
 40
0.0
 40
1.0
 40
1.0
 40
1.0
 40
1.0
 10
-57.013600000000004
 20
7.9879000000000007
 30
0.0
 10
-57.013600000000004
 20
7.9879000000000007
 30
0.0
 10
-55.675400000000003
 20
6.6497000000000002
 30
0.0
 10
-55.675400000000003
 20
6.6497000000000002
 30
0.0
  0
SPLINE
  5
183
100
AcDbEntity
  8
LC-004-005-----0
370
    20
100
AcDbSpline
210
0.0
220
0.0
230
1.0
 70
     0
 71
     3
 72
     8
 73
     4
 74
     0
 42
0.0000000001
 43
0.0000000001
 40
0.0
 40
0.0
 40
0.0
 40
0.0
 40
1.0
 40
1.0
 40
1.0
 40
1.0
 10
-57.013600000000004
 20
9.0797000000000008
 30
0.0
 10
-57.013600000000004
 20
9.0797000000000008
 30
0.0
 10
-55.6755
 20
7.7415000000000003
 30
0.0
 10
-55.6755
 20
7.7415000000000003
 30
0.0
  0
SPLINE
  5
184
100
AcDbEntity
  8
LC-004-005-----0
370
    20
100
AcDbSpline
210
0.0
220
0.0
230
1.0
 70
     0
 71
     3
 72
     8
 73
     4
 74
     0
 42
0.0000000001
 43
0.0000000001
 40
0.0
 40
0.0
 40
0.0
 40
0.0
 40
1.0
 40
1.0
 40
1.0
 40
1.0
 10
-56.8093
 20
9.9671000000000003
 30
0.0
 10
-56.8093
 20
9.9671000000000003
 30
0.0
 10
-55.655900000000003
 20
8.8137000000000008
 30
0.0
 10
-55.655900000000003
 20
8.8137000000000008
 30
0.0
  0
SPLINE
  5
185
100
AcDbEntity
  8
LC-004-005-----0
370
    20
100
AcDbSpline
210
0.0
220
0.0
230
1.0
 70
     0
 71
     3
 72
     8
 73
     4
 74
     0
 42
0.0000000001
 43
0.0000000001
 40
0.0
 40
0.0
 40
0.0
 40
0.0
 40
1.0
 40
1.0
 40
1.0
 40
1.0
 10
-56.270099999999999
 20
10.519600000000001
 30
0.0
 10
-56.270099999999999
 20
10.519600000000001
 30
0.0
 10
-55.2014
 20
9.4511000000000003
 30
0.0
 10
-55.2014
 20
9.4511000000000003
 30
0.0
  0
SPLINE
  5
186
100
AcDbEntity
  8
LC-004-005-----0
370
    20
100
AcDbSpline
210
0.0
220
0.0
230
1.0
 70
     0
 71
     3
 72
     8
 73
     4
 74
     0
 42
0.0000000001
 43
0.0000000001
 40
0.0
 40
0.0
 40
0.0
 40
0.0
 40
1.0
 40
1.0
 40
1.0
 40
1.0
 10
-55.402000000000001
 20
10.7432
 30
0.0
 10
-55.402000000000001
 20
10.7432
 30
0.0
 10
-54.244
 20
9.5852000000000004
 30
0.0
 10
-54.244
 20
9.5852000000000004
 30
0.0
  0
SPLINE
  5
187
100
AcDbEntity
  8
LC-004-005-----0
370
    20
100
AcDbSpline
210
0.0
220
0.0
230
1.0
 70
     0
 71
     3
 72
     8
 73
     4
 74
     0
 42
0.0000000001
 43
0.0000000001
 40
0.0
 40
0.0
 40
0.0
 40
0.0
 40
1.0
 40
1.0
 40
1.0
 40
1.0
 10
-54.310100000000006
 20
10.7432
 30
0.0
 10
-54.310100000000006
 20
10.7432
 30
0.0
 10
-53.152100000000004
 20
9.5852000000000004
 30
0.0
 10
-53.152100000000004
 20
9.5852000000000004
 30
0.0
  0
SPLINE
  5
188
100
AcDbEntity
  8
LC-004-005-----0
370
    20
100
AcDbSpline
210
0.0
220
0.0
230
1.0
 70
     0
 71
     3
 72
     8
 73
     4
 74
     0
 42
0.0000000001
 43
0.0000000001
 40
0.0
 40
0.0
 40
0.0
 40
0.0
 40
1.0
 40
1.0
 40
1.0
 40
1.0
 10
-53.218400000000003
 20
10.743400000000001
 30
0.0
 10
-53.218400000000003
 20
10.743400000000001
 30
0.0
 10
-52.060400000000001
 20
9.5852000000000004
 30
0.0
 10
-52.060400000000001
 20
9.5852000000000004
 30
0.0
  0
SPLINE
  5
189
100
AcDbEntity
  8
LC-004-005-----0
370
    20
100
AcDbSpline
210
0.0
220
0.0
230
1.0
 70
     0
 71
     3
 72
     8
 73
     4
 74
     0
 42
0.0000000001
 43
0.0000000001
 40
0.0
 40
0.0
 40
0.0
 40
0.0
 40
1.0
 40
1.0
 40
1.0
 40
1.0
 10
-52.1267
 20
10.743400000000001
 30
0.0
 10
-52.1267
 20
10.743400000000001
 30
0.0
 10
-50.968700000000005
 20
9.5852000000000004
 30
0.0
 10
-50.968700000000005
 20
9.5852000000000004
 30
0.0
  0
SPLINE
  5
18A
100
AcDbEntity
  8
LC-004-005-----0
370
    20
100
AcDbSpline
210
0.0
220
0.0
230
1.0
 70
     0
 71
     3
 72
     8
 73
     4
 74
     0
 42
0.0000000001
 43
0.0000000001
 40
0.0
 40
0.0
 40
0.0
 40
0.0
 40
1.0
 40
1.0
 40
1.0
 40
1.0
 10
-51.034800000000004
 20
10.743400000000001
 30
0.0
 10
-51.034800000000004
 20
10.743400000000001
 30
0.0
 10
-49.876800000000003
 20
9.5852000000000004
 30
0.0
 10
-49.876800000000003
 20
9.5852000000000004
 30
0.0
  0
SPLINE
  5
18B
100
AcDbEntity
  8
LC-004-005-----0
370
    20
100
AcDbSpline
210
0.0
220
0.0
230
1.0
 70
     0
 71
     3
 72
     8
 73
     4
 74
     0
 42
0.0000000001
 43
0.0000000001
 40
0.0
 40
0.0
 40
0.0
 40
0.0
 40
1.0
 40
1.0
 40
1.0
 40
1.0
 10
-49.943100000000001
 20
10.743400000000001
 30
0.0
 10
-49.943100000000001
 20
10.743400000000001
 30
0.0
 10
-48.7851
 20
9.5852000000000004
 30
0.0
 10
-48.7851
 20
9.5852000000000004
 30
0.0
  0
SPLINE
  5
18C
100
AcDbEntity
  8
LC-004-005-----0
370
    20
100
AcDbSpline
210
0.0
220
0.0
230
1.0
 70
     0
 71
     3
 72
     8
 73
     4
 74
     0
 42
0.0000000001
 43
0.0000000001
 40
0.0
 40
0.0
 40
0.0
 40
0.0
 40
1.0
 40
1.0
 40
1.0
 40
1.0
 10
-48.851400000000005
 20
10.743400000000001
 30
0.0
 10
-48.851400000000005
 20
10.743400000000001
 30
0.0
 10
-47.693400000000004
 20
9.5853999999999999
 30
0.0
 10
-47.693400000000004
 20
9.5853999999999999
 30
0.0
  0
SPLINE
  5
18D
100
AcDbEntity
  8
LC-004-005-----0
370
    20
100
AcDbSpline
210
0.0
220
0.0
230
1.0
 70
     0
 71
     3
 72
     8
 73
     4
 74
     0
 42
0.0000000001
 43
0.0000000001
 40
0.0
 40
0.0
 40
0.0
 40
0.0
 40
1.0
 40
1.0
 40
1.0
 40
1.0
 10
-47.759500000000003
 20
10.743400000000001
 30
0.0
 10
-47.759500000000003
 20
10.743400000000001
 30
0.0
 10
-46.601500000000001
 20
9.5853999999999999
 30
0.0
 10
-46.601500000000001
 20
9.5853999999999999
 30
0.0
  0
SPLINE
  5
18E
100
AcDbEntity
  8
LC-004-005-----0
370
    20
100
AcDbSpline
210
0.0
220
0.0
230
1.0
 70
     0
 71
     3
 72
     8
 73
     4
 74
     0
 42
0.0000000001
 43
0.0000000001
 40
0.0
 40
0.0
 40
0.0
 40
0.0
 40
1.0
 40
1.0
 40
1.0
 40
1.0
 10
-46.6678
 20
10.743400000000001
 30
0.0
 10
-46.6678
 20
10.743400000000001
 30
0.0
 10
-45.509800000000006
 20
9.5853999999999999
 30
0.0
 10
-45.509800000000006
 20
9.5853999999999999
 30
0.0
  0
SPLINE
  5
18F
100
AcDbEntity
  8
LC-004-005-----0
370
    20
100
AcDbSpline
210
0.0
220
0.0
230
1.0
 70
     0
 71
     3
 72
     8
 73
     4
 74
     0
 42
0.0000000001
 43
0.0000000001
 40
0.0
 40
0.0
 40
0.0
 40
0.0
 40
1.0
 40
1.0
 40
1.0
 40
1.0
 10
-45.576100000000004
 20
10.743400000000001
 30
0.0
 10
-45.576100000000004
 20
10.743400000000001
 30
0.0
 10
-44.418100000000003
 20
9.5853999999999999
 30
0.0
 10
-44.418100000000003
 20
9.5853999999999999
 30
0.0
  0
SPLINE
  5
190
100
AcDbEntity
  8
LC-004-005-----0
370
    20
100
AcDbSpline
210
0.0
220
0.0
230
1.0
 70
     0
 71
     3
 72
     8
 73
     4
 74
     0
 42
0.0000000001
 43
0.0000000001
 40
0.0
 40
0.0
 40
0.0
 40
0.0
 40
1.0
 40
1.0
 40
1.0
 40
1.0
 10
-44.484200000000001
 20
10.743400000000001
 30
0.0
 10
-44.484200000000001
 20
10.743400000000001
 30
0.0
 10
-43.3262
 20
9.5853999999999999
 30
0.0
 10
-43.3262
 20
9.5853999999999999
 30
0.0
  0
SPLINE
  5
191
100
AcDbEntity
  8
LC-004-005-----0
370
    20
100
AcDbSpline
210
0.0
220
0.0
230
1.0
 70
     0
 71
     3
 72
     8
 73
     4
 74
     0
 42
0.0000000001
 43
0.0000000001
 40
0.0
 40
0.0
 40
0.0
 40
0.0
 40
1.0
 40
1.0
 40
1.0
 40
1.0
 10
-43.392500000000005
 20
10.743400000000001
 30
0.0
 10
-43.392500000000005
 20
10.743400000000001
 30
0.0
 10
-42.234500000000004
 20
9.5853999999999999
 30
0.0
 10
-42.234500000000004
 20
9.5853999999999999
 30
0.0
  0
SPLINE
  5
192
100
AcDbEntity
  8
LC-004-005-----0
370
    20
100
AcDbSpline
210
0.0
220
0.0
230
1.0
 70
     0
 71
     3
 72
     8
 73
     4
 74
     0
 42
0.0000000001
 43
0.0000000001
 40
0.0
 40
0.0
 40
0.0
 40
0.0
 40
1.0
 40
1.0
 40
1.0
 40
1.0
 10
-42.300800000000002
 20
10.743400000000001
 30
0.0
 10
-42.300800000000002
 20
10.743400000000001
 30
0.0
 10
-41.142800000000001
 20
9.5853999999999999
 30
0.0
 10
-41.142800000000001
 20
9.5853999999999999
 30
0.0
  0
SPLINE
  5
193
100
AcDbEntity
  8
LC-004-005-----0
370
    20
100
AcDbSpline
210
0.0
220
0.0
230
1.0
 70
     0
 71
     3
 72
     8
 73
     4
 74
     0
 42
0.0000000001
 43
0.0000000001
 40
0.0
 40
0.0
 40
0.0
 40
0.0
 40
1.0
 40
1.0
 40
1.0
 40
1.0
 10
-41.2089
 20
10.743400000000001
 30
0.0
 10
-41.2089
 20
10.743400000000001
 30
0.0
 10
-40.050899999999999
 20
9.5853999999999999
 30
0.0
 10
-40.050899999999999
 20
9.5853999999999999
 30
0.0
  0
SPLINE
  5
194
100
AcDbEntity
  8
LC-004-005-----0
370
    20
100
AcDbSpline
210
0.0
220
0.0
230
1.0
 70
     0
 71
     3
 72
     8
 73
     4
 74
     0
 42
0.0000000001
 43
0.0000000001
 40
0.0
 40
0.0
 40
0.0
 40
0.0
 40
1.0
 40
1.0
 40
1.0
 40
1.0
 10
-40.117200000000004
 20
10.743400000000001
 30
0.0
 10
-40.117200000000004
 20
10.743400000000001
 30
0.0
 10
-38.959200000000003
 20
9.5853999999999999
 30
0.0
 10
-38.959200000000003
 20
9.5853999999999999
 30
0.0
  0
SPLINE
  5
195
100
AcDbEntity
  8
LC-004-005-----0
370
    20
100
AcDbSpline
210
0.0
220
0.0
230
1.0
 70
     0
 71
     3
 72
     8
 73
     4
 74
     0
 42
0.0000000001
 43
0.0000000001
 40
0.0
 40
0.0
 40
0.0
 40
0.0
 40
1.0
 40
1.0
 40
1.0
 40
1.0
 10
-39.025400000000005
 20
10.743400000000001
 30
0.0
 10
-39.025400000000005
 20
10.743400000000001
 30
0.0
 10
-37.867400000000004
 20
9.5853999999999999
 30
0.0
 10
-37.867400000000004
 20
9.5853999999999999
 30
0.0
  0
SPLINE
  5
196
100
AcDbEntity
  8
LC-004-005-----0
370
    20
100
AcDbSpline
210
0.0
220
0.0
230
1.0
 70
     0
 71
     3
 72
     8
 73
     4
 74
     0
 42
0.0000000001
 43
0.0000000001
 40
0.0
 40
0.0
 40
0.0
 40
0.0
 40
1.0
 40
1.0
 40
1.0
 40
1.0
 10
-37.933599999999998
 20
10.743400000000001
 30
0.0
 10
-37.933599999999998
 20
10.743400000000001
 30
0.0
 10
-36.775700000000001
 20
9.5853999999999999
 30
0.0
 10
-36.775700000000001
 20
9.5853999999999999
 30
0.0
  0
SPLINE
  5
197
100
AcDbEntity
  8
LC-004-005-----0
370
    20
100
AcDbSpline
210
0.0
220
0.0
230
1.0
 70
     0
 71
     3
 72
     8
 73
     4
 74
     0
 42
0.0000000001
 43
0.0000000001
 40
0.0
 40
0.0
 40
0.0
 40
0.0
 40
1.0
 40
1.0
 40
1.0
 40
1.0
 10
-36.841999999999999
 20
10.743400000000001
 30
0.0
 10
-36.841999999999999
 20
10.743400000000001
 30
0.0
 10
-36.093299999999999
 20
9.9946999999999999
 30
0.0
 10
-36.093299999999999
 20
9.9946999999999999
 30
0.0
  0
SPLINE
  5
198
100
AcDbEntity
  8
LC-004-005-----0
370
    20
100
AcDbSpline
210
0.0
220
0.0
230
1.0
 70
     0
 71
     3
 72
     8
 73
     4
 74
     0
 42
0.0000000001
 43
0.0000000001
 40
0.0
 40
0.0
 40
0.0
 40
0.0
 40
1.0
 40
1.0
 40
1.0
 40
1.0
 10
-89.244399999999999
 20
-35.113300000000002
 30
0.0
 10
-89.244399999999999
 20
-35.113300000000002
 30
0.0
 10
-88.771500000000003
 20
-35.586100000000002
 30
0.0
 10
-88.771500000000003
 20
-35.586100000000002
 30
0.0
  0
SPLINE
  5
199
100
AcDbEntity
  8
LC-004-005-----0
370
    20
100
AcDbSpline
210
0.0
220
0.0
230
1.0
 70
     0
 71
     3
 72
     8
 73
     4
 74
     0
 42
0.0000000001
 43
0.0000000001
 40
0.0
 40
0.0
 40
0.0
 40
0.0
 40
1.0
 40
1.0
 40
1.0
 40
1.0
 10
-88.086399999999998
 20
-36.271300000000004
 30
0.0
 10
-88.086399999999998
 20
-36.271300000000004
 30
0.0
 10
-86.938100000000006
 20
-37.419699999999999
 30
0.0
 10
-86.938100000000006
 20
-37.419699999999999
 30
0.0
  0
SPLINE
  5
19A
100
AcDbEntity
  8
LC-004-005-----0
370
    20
100
AcDbSpline
210
0.0
220
0.0
230
1.0
 70
     0
 71
     3
 72
     8
 73
     4
 74
     0
 42
0.0000000001
 43
0.0000000001
 40
0.0
 40
0.0
 40
0.0
 40
0.0
 40
1.0
 40
1.0
 40
1.0
 40
1.0
 10
-88.837699999999998
 20
-34.4283
 30
0.0
 10
-88.837699999999998
 20
-34.4283
 30
0.0
 10
-85.84620000000001
 20
-37.419699999999999
 30
0.0
 10
-85.84620000000001
 20
-37.419699999999999
 30
0.0
  0
SPLINE
  5
19B
100
AcDbEntity
  8
LC-004-005-----0
370
    20
100
AcDbSpline
210
0.0
220
0.0
230
1.0
 70
     0
 71
     3
 72
     8
 73
     4
 74
     0
 42
0.0000000001
 43
0.0000000001
 40
0.0
 40
0.0
 40
0.0
 40
0.0
 40
1.0
 40
1.0
 40
1.0
 40
1.0
 10
-87.745900000000006
 20
-34.4283
 30
0.0
 10
-87.745900000000006
 20
-34.4283
 30
0.0
 10
-86.928400000000011
 20
-35.245800000000003
 30
0.0
 10
-86.928400000000011
 20
-35.245800000000003
 30
0.0
  0
SPLINE
  5
19C
100
AcDbEntity
  8
LC-004-005-----0
370
    20
100
AcDbSpline
210
0.0
220
0.0
230
1.0
 70
     0
 71
     3
 72
     8
 73
     4
 74
     0
 42
0.0000000001
 43
0.0000000001
 40
0.0
 40
0.0
 40
0.0
 40
0.0
 40
1.0
 40
1.0
 40
1.0
 40
1.0
 10
-85.912500000000009
 20
-36.261700000000005
 30
0.0
 10
-85.912500000000009
 20
-36.261700000000005
 30
0.0
 10
-84.754500000000007
 20
-37.419699999999999
 30
0.0
 10
-84.754500000000007
 20
-37.419699999999999
 30
0.0
  0
SPLINE
  5
19D
100
AcDbEntity
  8
LC-004-005-----0
370
    20
100
AcDbSpline
210
0.0
220
0.0
230
1.0
 70
     0
 71
     3
 72
     8
 73
     4
 74
     0
 42
0.0000000001
 43
0.0000000001
 40
0.0
 40
0.0
 40
0.0
 40
0.0
 40
1.0
 40
1.0
 40
1.0
 40
1.0
 10
-84.820800000000006
 20
-36.261700000000005
 30
0.0
 10
-84.820800000000006
 20
-36.261700000000005
 30
0.0
 10
-83.674599999999998
 20
-37.407699999999998
 30
0.0
 10
-83.674599999999998
 20
-37.407699999999998
 30
0.0
  0
SPLINE
  5
19E
100
AcDbEntity
  8
LC-004-005-----0
370
    20
100
AcDbSpline
210
0.0
220
0.0
230
1.0
 70
     0
 71
     3
 72
     8
 73
     4
 74
     0
 42
0.0000000001
 43
0.0000000001
 40
0.0
 40
0.0
 40
0.0
 40
0.0
 40
1.0
 40
1.0
 40
1.0
 40
1.0
 10
-83.840500000000006
 20
-36.150200000000005
 30
0.0
 10
-83.840500000000006
 20
-36.150200000000005
 30
0.0
 10
-82.967700000000008
 20
-37.0229
 30
0.0
 10
-82.967700000000008
 20
-37.0229
 30
0.0
  0
SPLINE
  5
19F
100
AcDbEntity
  8
LC-004-005-----0
370
    20
100
AcDbSpline
210
0.0
220
0.0
230
1.0
 70
     0
 71
     3
 72
     8
 73
     4
 74
     0
 42
0.0000000001
 43
0.0000000001
 40
0.0
 40
0.0
 40
0.0
 40
0.0
 40
1.0
 40
1.0
 40
1.0
 40
1.0
 10
-83.840500000000006
 20
-35.058399999999999
 30
0.0
 10
-83.840500000000006
 20
-35.058399999999999
 30
0.0
 10
-82.682500000000005
 20
-36.2164
 30
0.0
 10
-82.682500000000005
 20
-36.2164
 30
0.0
  0
SPLINE
  5
1A0
100
AcDbEntity
  8
LC-004-005-----0
370
    20
100
AcDbSpline
210
0.0
220
0.0
230
1.0
 70
     0
 71
     3
 72
     8
 73
     4
 74
     0
 42
0.0000000001
 43
0.0000000001
 40
0.0
 40
0.0
 40
0.0
 40
0.0
 40
1.0
 40
1.0
 40
1.0
 40
1.0
 10
-83.378900000000002
 20
-34.4283
 30
0.0
 10
-83.378900000000002
 20
-34.4283
 30
0.0
 10
-82.2209
 20
-35.586300000000001
 30
0.0
 10
-82.2209
 20
-35.586300000000001
 30
0.0
  0
SPLINE
  5
1A1
100
AcDbEntity
  8
LC-004-005-----0
370
    20
100
AcDbSpline
210
0.0
220
0.0
230
1.0
 70
     0
 71
     3
 72
     8
 73
     4
 74
     0
 42
0.0000000001
 43
0.0000000001
 40
0.0
 40
0.0
 40
0.0
 40
0.0
 40
1.0
 40
1.0
 40
1.0
 40
1.0
 10
-82.287199999999999
 20
-34.4283
 30
0.0
 10
-82.287199999999999
 20
-34.4283
 30
0.0
 10
-81.129199999999997
 20
-35.586300000000001
 30
0.0
 10
-81.129199999999997
 20
-35.586300000000001
 30
0.0
  0
SPLINE
  5
1A2
100
AcDbEntity
  8
LC-004-005-----0
370
    20
100
AcDbSpline
210
0.0
220
0.0
230
1.0
 70
     0
 71
     3
 72
     8
 73
     4
 74
     0
 42
0.0000000001
 43
0.0000000001
 40
0.0
 40
0.0
 40
0.0
 40
0.0
 40
1.0
 40
1.0
 40
1.0
 40
1.0
 10
-81.195300000000003
 20
-34.4283
 30
0.0
 10
-81.195300000000003
 20
-34.4283
 30
0.0
 10
-80.037300000000002
 20
-35.586300000000001
 30
0.0
 10
-80.037300000000002
 20
-35.586300000000001
 30
0.0
  0
SPLINE
  5
1A3
100
AcDbEntity
  8
LC-004-005-----0
370
    20
100
AcDbSpline
210
0.0
220
0.0
230
1.0
 70
     0
 71
     3
 72
     8
 73
     4
 74
     0
 42
0.0000000001
 43
0.0000000001
 40
0.0
 40
0.0
 40
0.0
 40
0.0
 40
1.0
 40
1.0
 40
1.0
 40
1.0
 10
-80.1036
 20
-34.4283
 30
0.0
 10
-80.1036
 20
-34.4283
 30
0.0
 10
-78.945599999999999
 20
-35.586300000000001
 30
0.0
 10
-78.945599999999999
 20
-35.586300000000001
 30
0.0
  0
SPLINE
  5
1A4
100
AcDbEntity
  8
LC-004-005-----0
370
    20
100
AcDbSpline
210
0.0
220
0.0
230
1.0
 70
     0
 71
     3
 72
     8
 73
     4
 74
     0
 42
0.0000000001
 43
0.0000000001
 40
0.0
 40
0.0
 40
0.0
 40
0.0
 40
1.0
 40
1.0
 40
1.0
 40
1.0
 10
-79.011899999999997
 20
-34.4283
 30
0.0
 10
-79.011899999999997
 20
-34.4283
 30
0.0
 10
-77.85390000000001
 20
-35.586300000000001
 30
0.0
 10
-77.85390000000001
 20
-35.586300000000001
 30
0.0
  0
SPLINE
  5
1A5
100
AcDbEntity
  8
LC-004-005-----0
370
    20
100
AcDbSpline
210
0.0
220
0.0
230
1.0
 70
     0
 71
     3
 72
     8
 73
     4
 74
     0
 42
0.0000000001
 43
0.0000000001
 40
0.0
 40
0.0
 40
0.0
 40
0.0
 40
1.0
 40
1.0
 40
1.0
 40
1.0
 10
-77.920000000000002
 20
-34.4283
 30
0.0
 10
-77.920000000000002
 20
-34.4283
 30
0.0
 10
-76.762
 20
-35.586100000000002
 30
0.0
 10
-76.762
 20
-35.586100000000002
 30
0.0
  0
SPLINE
  5
1A6
100
AcDbEntity
  8
LC-004-005-----0
370
    20
100
AcDbSpline
210
0.0
220
0.0
230
1.0
 70
     0
 71
     3
 72
     8
 73
     4
 74
     0
 42
0.0000000001
 43
0.0000000001
 40
0.0
 40
0.0
 40
0.0
 40
0.0
 40
1.0
 40
1.0
 40
1.0
 40
1.0
 10
-76.828299999999999
 20
-34.428200000000004
 30
0.0
 10
-76.828299999999999
 20
-34.428200000000004
 30
0.0
 10
-75.670299999999997
 20
-35.586100000000002
 30
0.0
 10
-75.670299999999997
 20
-35.586100000000002
 30
0.0
  0
SPLINE
  5
1A7
100
AcDbEntity
  8
LC-004-005-----0
370
    20
100
AcDbSpline
210
0.0
220
0.0
230
1.0
 70
     0
 71
     3
 72
     8
 73
     4
 74
     0
 42
0.0000000001
 43
0.0000000001
 40
0.0
 40
0.0
 40
0.0
 40
0.0
 40
1.0
 40
1.0
 40
1.0
 40
1.0
 10
-75.73660000000001
 20
-34.428200000000004
 30
0.0
 10
-75.73660000000001
 20
-34.428200000000004
 30
0.0
 10
-74.578600000000009
 20
-35.586100000000002
 30
0.0
 10
-74.578600000000009
 20
-35.586100000000002
 30
0.0
  0
SPLINE
  5
1A8
100
AcDbEntity
  8
LC-004-005-----0
370
    20
100
AcDbSpline
210
0.0
220
0.0
230
1.0
 70
     0
 71
     3
 72
     8
 73
     4
 74
     0
 42
0.0000000001
 43
0.0000000001
 40
0.0
 40
0.0
 40
0.0
 40
0.0
 40
1.0
 40
1.0
 40
1.0
 40
1.0
 10
-74.6447
 20
-34.428200000000004
 30
0.0
 10
-74.6447
 20
-34.428200000000004
 30
0.0
 10
-73.486699999999999
 20
-35.586100000000002
 30
0.0
 10
-73.486699999999999
 20
-35.586100000000002
 30
0.0
  0
SPLINE
  5
1A9
100
AcDbEntity
  8
LC-004-005-----0
370
    20
100
AcDbSpline
210
0.0
220
0.0
230
1.0
 70
     0
 71
     3
 72
     8
 73
     4
 74
     0
 42
0.0000000001
 43
0.0000000001
 40
0.0
 40
0.0
 40
0.0
 40
0.0
 40
1.0
 40
1.0
 40
1.0
 40
1.0
 10
-73.552999999999997
 20
-34.428200000000004
 30
0.0
 10
-73.552999999999997
 20
-34.428200000000004
 30
0.0
 10
-72.39500000000001
 20
-35.586100000000002
 30
0.0
 10
-72.39500000000001
 20
-35.586100000000002
 30
0.0
  0
SPLINE
  5
1AA
100
AcDbEntity
  8
LC-004-005-----0
370
    20
100
AcDbSpline
210
0.0
220
0.0
230
1.0
 70
     0
 71
     3
 72
     8
 73
     4
 74
     0
 42
0.0000000001
 43
0.0000000001
 40
0.0
 40
0.0
 40
0.0
 40
0.0
 40
1.0
 40
1.0
 40
1.0
 40
1.0
 10
-72.461300000000008
 20
-34.428200000000004
 30
0.0
 10
-72.461300000000008
 20
-34.428200000000004
 30
0.0
 10
-71.303300000000007
 20
-35.586100000000002
 30
0.0
 10
-71.303300000000007
 20
-35.586100000000002
 30
0.0
  0
SPLINE
  5
1AB
100
AcDbEntity
  8
LC-004-005-----0
370
    20
100
AcDbSpline
210
0.0
220
0.0
230
1.0
 70
     0
 71
     3
 72
     8
 73
     4
 74
     0
 42
0.0000000001
 43
0.0000000001
 40
0.0
 40
0.0
 40
0.0
 40
0.0
 40
1.0
 40
1.0
 40
1.0
 40
1.0
 10
-71.369399999999999
 20
-34.428200000000004
 30
0.0
 10
-71.369399999999999
 20
-34.428200000000004
 30
0.0
 10
-70.211399999999998
 20
-35.586100000000002
 30
0.0
 10
-70.211399999999998
 20
-35.586100000000002
 30
0.0
  0
SPLINE
  5
1AC
100
AcDbEntity
  8
LC-004-005-----0
370
    20
100
AcDbSpline
210
0.0
220
0.0
230
1.0
 70
     0
 71
     3
 72
     8
 73
     4
 74
     0
 42
0.0000000001
 43
0.0000000001
 40
0.0
 40
0.0
 40
0.0
 40
0.0
 40
1.0
 40
1.0
 40
1.0
 40
1.0
 10
-70.27770000000001
 20
-34.428200000000004
 30
0.0
 10
-70.27770000000001
 20
-34.428200000000004
 30
0.0
 10
-69.122500000000002
 20
-35.583500000000001
 30
0.0
 10
-69.122500000000002
 20
-35.583500000000001
 30
0.0
  0
SPLINE
  5
1AD
100
AcDbEntity
  8
LC-004-005-----0
370
    20
100
AcDbSpline
210
0.0
220
0.0
230
1.0
 70
     0
 71
     3
 72
     8
 73
     4
 74
     0
 42
0.0000000001
 43
0.0000000001
 40
0.0
 40
0.0
 40
0.0
 40
0.0
 40
1.0
 40
1.0
 40
1.0
 40
1.0
 10
-69.203900000000004
 20
-34.410200000000003
 30
0.0
 10
-69.203900000000004
 20
-34.410200000000003
 30
0.0
 10
-68.249000000000009
 20
-35.365099999999998
 30
0.0
 10
-68.249000000000009
 20
-35.365099999999998
 30
0.0
  0
SPLINE
  5
1AE
100
AcDbEntity
  8
LC-004-005-----0
370
    20
100
AcDbSpline
210
0.0
220
0.0
230
1.0
 70
     0
 71
     3
 72
     8
 73
     4
 74
     0
 42
0.0000000001
 43
0.0000000001
 40
0.0
 40
0.0
 40
0.0
 40
0.0
 40
1.0
 40
1.0
 40
1.0
 40
1.0
 10
-68.330500000000001
 20
-34.191900000000004
 30
0.0
 10
-68.330500000000001
 20
-34.191900000000004
 30
0.0
 10
-67.375600000000006
 20
-35.146799999999999
 30
0.0
 10
-67.375600000000006
 20
-35.146799999999999
 30
0.0
  0
SPLINE
  5
1AF
100
AcDbEntity
  8
LC-004-005-----0
370
    20
100
AcDbSpline
210
0.0
220
0.0
230
1.0
 70
     0
 71
     3
 72
     8
 73
     4
 74
     0
 42
0.0000000001
 43
0.0000000001
 40
0.0
 40
0.0
 40
0.0
 40
0.0
 40
1.0
 40
1.0
 40
1.0
 40
1.0
 10
-67.457099999999997
 20
-33.973400000000005
 30
0.0
 10
-67.457099999999997
 20
-33.973400000000005
 30
0.0
 10
-66.502200000000002
 20
-34.928400000000003
 30
0.0
 10
-66.502200000000002
 20
-34.928400000000003
 30
0.0
  0
SPLINE
  5
1B0
100
AcDbEntity
  8
LC-004-005-----0
370
    20
100
AcDbSpline
210
0.0
220
0.0
230
1.0
 70
     0
 71
     3
 72
     8
 73
     4
 74
     0
 42
0.0000000001
 43
0.0000000001
 40
0.0
 40
0.0
 40
0.0
 40
0.0
 40
1.0
 40
1.0
 40
1.0
 40
1.0
 10
-66.583600000000004
 20
-33.755200000000002
 30
0.0
 10
-66.583600000000004
 20
-33.755200000000002
 30
0.0
 10
-65.628700000000009
 20
-34.710100000000004
 30
0.0
 10
-65.628700000000009
 20
-34.710100000000004
 30
0.0
  0
SPLINE
  5
1B1
100
AcDbEntity
  8
LC-004-005-----0
370
    20
100
AcDbSpline
210
0.0
220
0.0
230
1.0
 70
     0
 71
     3
 72
     8
 73
     4
 74
     0
 42
0.0000000001
 43
0.0000000001
 40
0.0
 40
0.0
 40
0.0
 40
0.0
 40
1.0
 40
1.0
 40
1.0
 40
1.0
 10
-65.7102
 20
-33.536700000000003
 30
0.0
 10
-65.7102
 20
-33.536700000000003
 30
0.0
 10
-64.625799999999998
 20
-34.621200000000002
 30
0.0
 10
-64.625799999999998
 20
-34.621200000000002
 30
0.0
  0
SPLINE
  5
1B2
100
AcDbEntity
  8
LC-004-005-----0
370
    20
100
AcDbSpline
210
0.0
220
0.0
230
1.0
 70
     0
 71
     3
 72
     8
 73
     4
 74
     0
 42
0.0000000001
 43
0.0000000001
 40
0.0
 40
0.0
 40
0.0
 40
0.0
 40
1.0
 40
1.0
 40
1.0
 40
1.0
 10
-64.692099999999996
 20
-33.463200000000001
 30
0.0
 10
-64.692099999999996
 20
-33.463200000000001
 30
0.0
 10
-63.534100000000002
 20
-34.621200000000002
 30
0.0
 10
-63.534100000000002
 20
-34.621200000000002
 30
0.0
  0
SPLINE
  5
1B3
100
AcDbEntity
  8
LC-004-005-----0
370
    20
100
AcDbSpline
210
0.0
220
0.0
230
1.0
 70
     0
 71
     3
 72
     8
 73
     4
 74
     0
 42
0.0000000001
 43
0.0000000001
 40
0.0
 40
0.0
 40
0.0
 40
0.0
 40
1.0
 40
1.0
 40
1.0
 40
1.0
 10
-63.600300000000004
 20
-33.463200000000001
 30
0.0
 10
-63.600300000000004
 20
-33.463200000000001
 30
0.0
 10
-62.442300000000003
 20
-34.621200000000002
 30
0.0
 10
-62.442300000000003
 20
-34.621200000000002
 30
0.0
  0
SPLINE
  5
1B4
100
AcDbEntity
  8
LC-004-005-----0
370
    20
100
AcDbSpline
210
0.0
220
0.0
230
1.0
 70
     0
 71
     3
 72
     8
 73
     4
 74
     0
 42
0.0000000001
 43
0.0000000001
 40
0.0
 40
0.0
 40
0.0
 40
0.0
 40
1.0
 40
1.0
 40
1.0
 40
1.0
 10
-62.508500000000005
 20
-33.463200000000001
 30
0.0
 10
-62.508500000000005
 20
-33.463200000000001
 30
0.0
 10
-61.350500000000004
 20
-34.621200000000002
 30
0.0
 10
-61.350500000000004
 20
-34.621200000000002
 30
0.0
  0
SPLINE
  5
1B5
100
AcDbEntity
  8
LC-004-005-----0
370
    20
100
AcDbSpline
210
0.0
220
0.0
230
1.0
 70
     0
 71
     3
 72
     8
 73
     4
 74
     0
 42
0.0000000001
 43
0.0000000001
 40
0.0
 40
0.0
 40
0.0
 40
0.0
 40
1.0
 40
1.0
 40
1.0
 40
1.0
 10
-57.013500000000001
 20
-38.958200000000005
 30
0.0
 10
-57.013500000000001
 20
-38.958200000000005
 30
0.0
 10
-55.358000000000004
 20
-40.613800000000005
 30
0.0
 10
-55.358000000000004
 20
-40.613800000000005
 30
0.0
  0
SPLINE
  5
1B6
100
AcDbEntity
  8
LC-004-005-----0
370
    20
100
AcDbSpline
210
0.0
220
0.0
230
1.0
 70
     0
 71
     3
 72
     8
 73
     4
 74
     0
 42
0.0000000001
 43
0.0000000001
 40
0.0
 40
0.0
 40
0.0
 40
0.0
 40
1.0
 40
1.0
 40
1.0
 40
1.0
 10
-61.416800000000002
 20
-33.463200000000001
 30
0.0
 10
-61.416800000000002
 20
-33.463200000000001
 30
0.0
 10
-60.258800000000001
 20
-34.621200000000002
 30
0.0
 10
-60.258800000000001
 20
-34.621200000000002
 30
0.0
  0
SPLINE
  5
1B7
100
AcDbEntity
  8
LC-004-005-----0
370
    20
100
AcDbSpline
210
0.0
220
0.0
230
1.0
 70
     0
 71
     3
 72
     8
 73
     4
 74
     0
 42
0.0000000001
 43
0.0000000001
 40
0.0
 40
0.0
 40
0.0
 40
0.0
 40
1.0
 40
1.0
 40
1.0
 40
1.0
 10
-57.013500000000001
 20
-37.866399999999999
 30
0.0
 10
-57.013500000000001
 20
-37.866399999999999
 30
0.0
 10
-54.266100000000002
 20
-40.613800000000005
 30
0.0
 10
-54.266100000000002
 20
-40.613800000000005
 30
0.0
  0
SPLINE
  5
1B8
100
AcDbEntity
  8
LC-004-005-----0
370
    20
100
AcDbSpline
210
0.0
220
0.0
230
1.0
 70
     0
 71
     3
 72
     8
 73
     4
 74
     0
 42
0.0000000001
 43
0.0000000001
 40
0.0
 40
0.0
 40
0.0
 40
0.0
 40
1.0
 40
1.0
 40
1.0
 40
1.0
 10
-60.325000000000003
 20
-33.463200000000001
 30
0.0
 10
-60.325000000000003
 20
-33.463200000000001
 30
0.0
 10
-59.167000000000002
 20
-34.621200000000002
 30
0.0
 10
-59.167000000000002
 20
-34.621200000000002
 30
0.0
  0
SPLINE
  5
1B9
100
AcDbEntity
  8
LC-004-005-----0
370
    20
100
AcDbSpline
210
0.0
220
0.0
230
1.0
 70
     0
 71
     3
 72
     8
 73
     4
 74
     0
 42
0.0000000001
 43
0.0000000001
 40
0.0
 40
0.0
 40
0.0
 40
0.0
 40
1.0
 40
1.0
 40
1.0
 40
1.0
 10
-57.013500000000001
 20
-36.774700000000003
 30
0.0
 10
-57.013500000000001
 20
-36.774700000000003
 30
0.0
 10
-55.675400000000003
 20
-38.1128
 30
0.0
 10
-55.675400000000003
 20
-38.1128
 30
0.0
  0
SPLINE
  5
1BA
100
AcDbEntity
  8
LC-004-005-----0
370
    20
100
AcDbSpline
210
0.0
220
0.0
230
1.0
 70
     0
 71
     3
 72
     8
 73
     4
 74
     0
 42
0.0000000001
 43
0.0000000001
 40
0.0
 40
0.0
 40
0.0
 40
0.0
 40
1.0
 40
1.0
 40
1.0
 40
1.0
 10
-54.3322
 20
-39.4559
 30
0.0
 10
-54.3322
 20
-39.4559
 30
0.0
 10
-53.174400000000006
 20
-40.613800000000005
 30
0.0
 10
-53.174400000000006
 20
-40.613800000000005
 30
0.0
  0
SPLINE
  5
1BB
100
AcDbEntity
  8
LC-004-005-----0
370
    20
100
AcDbSpline
210
0.0
220
0.0
230
1.0
 70
     0
 71
     3
 72
     8
 73
     4
 74
     0
 42
0.0000000001
 43
0.0000000001
 40
0.0
 40
0.0
 40
0.0
 40
0.0
 40
1.0
 40
1.0
 40
1.0
 40
1.0
 10
-59.233200000000004
 20
-33.463200000000001
 30
0.0
 10
-59.233200000000004
 20
-33.463200000000001
 30
0.0
 10
-58.075200000000002
 20
-34.621200000000002
 30
0.0
 10
-58.075200000000002
 20
-34.621200000000002
 30
0.0
  0
SPLINE
  5
1BC
100
AcDbEntity
  8
LC-004-005-----0
370
    20
100
AcDbSpline
210
0.0
220
0.0
230
1.0
 70
     0
 71
     3
 72
     8
 73
     4
 74
     0
 42
0.0000000001
 43
0.0000000001
 40
0.0
 40
0.0
 40
0.0
 40
0.0
 40
1.0
 40
1.0
 40
1.0
 40
1.0
 10
-57.013500000000001
 20
-35.6828
 30
0.0
 10
-57.013500000000001
 20
-35.6828
 30
0.0
 10
-55.675400000000003
 20
-37.020900000000005
 30
0.0
 10
-55.675400000000003
 20
-37.020900000000005
 30
0.0
  0
SPLINE
  5
1BD
100
AcDbEntity
  8
LC-004-005-----0
370
    20
100
AcDbSpline
210
0.0
220
0.0
230
1.0
 70
     0
 71
     3
 72
     8
 73
     4
 74
     0
 42
0.0000000001
 43
0.0000000001
 40
0.0
 40
0.0
 40
0.0
 40
0.0
 40
1.0
 40
1.0
 40
1.0
 40
1.0
 10
-53.240400000000001
 20
-39.4559
 30
0.0
 10
-53.240400000000001
 20
-39.4559
 30
0.0
 10
-52.082700000000003
 20
-40.613800000000005
 30
0.0
 10
-52.082700000000003
 20
-40.613800000000005
 30
0.0
  0
SPLINE
  5
1BE
100
AcDbEntity
  8
LC-004-005-----0
370
    20
100
AcDbSpline
210
0.0
220
0.0
230
1.0
 70
     0
 71
     3
 72
     8
 73
     4
 74
     0
 42
0.0000000001
 43
0.0000000001
 40
0.0
 40
0.0
 40
0.0
 40
0.0
 40
1.0
 40
1.0
 40
1.0
 40
1.0
 10
-58.141500000000001
 20
-33.463200000000001
 30
0.0
 10
-58.141500000000001
 20
-33.463200000000001
 30
0.0
 10
-55.675400000000003
 20
-35.929200000000002
 30
0.0
 10
-55.675400000000003
 20
-35.929200000000002
 30
0.0
  0
SPLINE
  5
1BF
100
AcDbEntity
  8
LC-004-005-----0
370
    20
100
AcDbSpline
210
0.0
220
0.0
230
1.0
 70
     0
 71
     3
 72
     8
 73
     4
 74
     0
 42
0.0000000001
 43
0.0000000001
 40
0.0
 40
0.0
 40
0.0
 40
0.0
 40
1.0
 40
1.0
 40
1.0
 40
1.0
 10
-52.148700000000005
 20
-39.4559
 30
0.0
 10
-52.148700000000005
 20
-39.4559
 30
0.0
 10
-50.9908
 20
-40.613800000000005
 30
0.0
 10
-50.9908
 20
-40.613800000000005
 30
0.0
  0
SPLINE
  5
1C0
100
AcDbEntity
  8
LC-004-005-----0
370
    20
100
AcDbSpline
210
0.0
220
0.0
230
1.0
 70
     0
 71
     3
 72
     8
 73
     4
 74
     0
 42
0.0000000001
 43
0.0000000001
 40
0.0
 40
0.0
 40
0.0
 40
0.0
 40
1.0
 40
1.0
 40
1.0
 40
1.0
 10
-57.049700000000001
 20
-33.463200000000001
 30
0.0
 10
-57.049700000000001
 20
-33.463200000000001
 30
0.0
 10
-55.675400000000003
 20
-34.837499999999999
 30
0.0
 10
-55.675400000000003
 20
-34.837499999999999
 30
0.0
  0
SPLINE
  5
1C1
100
AcDbEntity
  8
LC-004-005-----0
370
    20
100
AcDbSpline
210
0.0
220
0.0
230
1.0
 70
     0
 71
     3
 72
     8
 73
     4
 74
     0
 42
0.0000000001
 43
0.0000000001
 40
0.0
 40
0.0
 40
0.0
 40
0.0
 40
1.0
 40
1.0
 40
1.0
 40
1.0
 10
-51.057000000000002
 20
-39.4559
 30
0.0
 10
-51.057000000000002
 20
-39.4559
 30
0.0
 10
-49.899100000000004
 20
-40.613800000000005
 30
0.0
 10
-49.899100000000004
 20
-40.613800000000005
 30
0.0
  0
SPLINE
  5
1C2
100
AcDbEntity
  8
LC-004-005-----0
370
    20
100
AcDbSpline
210
0.0
220
0.0
230
1.0
 70
     0
 71
     3
 72
     8
 73
     4
 74
     0
 42
0.0000000001
 43
0.0000000001
 40
0.0
 40
0.0
 40
0.0
 40
0.0
 40
1.0
 40
1.0
 40
1.0
 40
1.0
 10
-55.957900000000002
 20
-33.463200000000001
 30
0.0
 10
-55.957900000000002
 20
-33.463200000000001
 30
0.0
 10
-55.675400000000003
 20
-33.745600000000003
 30
0.0
 10
-55.675400000000003
 20
-33.745600000000003
 30
0.0
  0
SPLINE
  5
1C3
100
AcDbEntity
  8
LC-004-005-----0
370
    20
100
AcDbSpline
210
0.0
220
0.0
230
1.0
 70
     0
 71
     3
 72
     8
 73
     4
 74
     0
 42
0.0000000001
 43
0.0000000001
 40
0.0
 40
0.0
 40
0.0
 40
0.0
 40
1.0
 40
1.0
 40
1.0
 40
1.0
 10
-49.9651
 20
-39.4559
 30
0.0
 10
-49.9651
 20
-39.4559
 30
0.0
 10
-48.807400000000001
 20
-40.613800000000005
 30
0.0
 10
-48.807400000000001
 20
-40.613800000000005
 30
0.0
  0
SPLINE
  5
1C4
100
AcDbEntity
  8
LC-004-005-----0
370
    20
100
AcDbSpline
210
0.0
220
0.0
230
1.0
 70
     0
 71
     3
 72
     8
 73
     4
 74
     0
 42
0.0000000001
 43
0.0000000001
 40
0.0
 40
0.0
 40
0.0
 40
0.0
 40
1.0
 40
1.0
 40
1.0
 40
1.0
 10
-48.873400000000004
 20
-39.4559
 30
0.0
 10
-48.873400000000004
 20
-39.4559
 30
0.0
 10
-47.715500000000006
 20
-40.613800000000005
 30
0.0
 10
-47.715500000000006
 20
-40.613800000000005
 30
0.0
  0
SPLINE
  5
1C5
100
AcDbEntity
  8
LC-004-005-----0
370
    20
100
AcDbSpline
210
0.0
220
0.0
230
1.0
 70
     0
 71
     3
 72
     8
 73
     4
 74
     0
 42
0.0000000001
 43
0.0000000001
 40
0.0
 40
0.0
 40
0.0
 40
0.0
 40
1.0
 40
1.0
 40
1.0
 40
1.0
 10
-47.781700000000001
 20
-39.4559
 30
0.0
 10
-47.781700000000001
 20
-39.4559
 30
0.0
 10
-46.623800000000003
 20
-40.613800000000005
 30
0.0
 10
-46.623800000000003
 20
-40.613800000000005
 30
0.0
  0
SPLINE
  5
1C6
100
AcDbEntity
  8
LC-004-005-----0
370
    20
100
AcDbSpline
210
0.0
220
0.0
230
1.0
 70
     0
 71
     3
 72
     8
 73
     4
 74
     0
 42
0.0000000001
 43
0.0000000001
 40
0.0
 40
0.0
 40
0.0
 40
0.0
 40
1.0
 40
1.0
 40
1.0
 40
1.0
 10
-46.690000000000005
 20
-39.4559
 30
0.0
 10
-46.690000000000005
 20
-39.4559
 30
0.0
 10
-45.5321
 20
-40.613800000000005
 30
0.0
 10
-45.5321
 20
-40.613800000000005
 30
0.0
  0
SPLINE
  5
1C7
100
AcDbEntity
  8
LC-004-005-----0
370
    20
100
AcDbSpline
210
0.0
220
0.0
230
1.0
 70
     0
 71
     3
 72
     8
 73
     4
 74
     0
 42
0.0000000001
 43
0.0000000001
 40
0.0
 40
0.0
 40
0.0
 40
0.0
 40
1.0
 40
1.0
 40
1.0
 40
1.0
 10
-45.598100000000002
 20
-39.4559
 30
0.0
 10
-45.598100000000002
 20
-39.4559
 30
0.0
 10
-44.440200000000004
 20
-40.613800000000005
 30
0.0
 10
-44.440200000000004
 20
-40.613800000000005
 30
0.0
  0
SPLINE
  5
1C8
100
AcDbEntity
  8
LC-004-005-----0
370
    20
100
AcDbSpline
210
0.0
220
0.0
230
1.0
 70
     0
 71
     3
 72
     8
 73
     4
 74
     0
 42
0.0000000001
 43
0.0000000001
 40
0.0
 40
0.0
 40
0.0
 40
0.0
 40
1.0
 40
1.0
 40
1.0
 40
1.0
 10
-44.506399999999999
 20
-39.455800000000004
 30
0.0
 10
-44.506399999999999
 20
-39.455800000000004
 30
0.0
 10
-43.348500000000001
 20
-40.613800000000005
 30
0.0
 10
-43.348500000000001
 20
-40.613800000000005
 30
0.0
  0
SPLINE
  5
1C9
100
AcDbEntity
  8
LC-004-005-----0
370
    20
100
AcDbSpline
210
0.0
220
0.0
230
1.0
 70
     0
 71
     3
 72
     8
 73
     4
 74
     0
 42
0.0000000001
 43
0.0000000001
 40
0.0
 40
0.0
 40
0.0
 40
0.0
 40
1.0
 40
1.0
 40
1.0
 40
1.0
 10
-43.4146
 20
-39.455800000000004
 30
0.0
 10
-43.4146
 20
-39.455800000000004
 30
0.0
 10
-42.256800000000005
 20
-40.613800000000005
 30
0.0
 10
-42.256800000000005
 20
-40.613800000000005
 30
0.0
  0
SPLINE
  5
1CA
100
AcDbEntity
  8
LC-004-005-----0
370
    20
100
AcDbSpline
210
0.0
220
0.0
230
1.0
 70
     0
 71
     3
 72
     8
 73
     4
 74
     0
 42
0.0000000001
 43
0.0000000001
 40
0.0
 40
0.0
 40
0.0
 40
0.0
 40
1.0
 40
1.0
 40
1.0
 40
1.0
 10
-42.322900000000004
 20
-39.455800000000004
 30
0.0
 10
-42.322900000000004
 20
-39.455800000000004
 30
0.0
 10
-41.164900000000003
 20
-40.613800000000005
 30
0.0
 10
-41.164900000000003
 20
-40.613800000000005
 30
0.0
  0
SPLINE
  5
1CB
100
AcDbEntity
  8
LC-004-005-----0
370
    20
100
AcDbSpline
210
0.0
220
0.0
230
1.0
 70
     0
 71
     3
 72
     8
 73
     4
 74
     0
 42
0.0000000001
 43
0.0000000001
 40
0.0
 40
0.0
 40
0.0
 40
0.0
 40
1.0
 40
1.0
 40
1.0
 40
1.0
 10
-41.231200000000001
 20
-39.455800000000004
 30
0.0
 10
-41.231200000000001
 20
-39.455800000000004
 30
0.0
 10
-40.0732
 20
-40.613700000000001
 30
0.0
 10
-40.0732
 20
-40.613700000000001
 30
0.0
  0
SPLINE
  5
1CC
100
AcDbEntity
  8
LC-004-005-----0
370
    20
100
AcDbSpline
210
0.0
220
0.0
230
1.0
 70
     0
 71
     3
 72
     8
 73
     4
 74
     0
 42
0.0000000001
 43
0.0000000001
 40
0.0
 40
0.0
 40
0.0
 40
0.0
 40
1.0
 40
1.0
 40
1.0
 40
1.0
 10
-40.139299999999999
 20
-39.455800000000004
 30
0.0
 10
-40.139299999999999
 20
-39.455800000000004
 30
0.0
 10
-38.981500000000004
 20
-40.613700000000001
 30
0.0
 10
-38.981500000000004
 20
-40.613700000000001
 30
0.0
  0
SPLINE
  5
1CD
100
AcDbEntity
  8
LC-004-005-----0
370
    20
100
AcDbSpline
210
0.0
220
0.0
230
1.0
 70
     0
 71
     3
 72
     8
 73
     4
 74
     0
 42
0.0000000001
 43
0.0000000001
 40
0.0
 40
0.0
 40
0.0
 40
0.0
 40
1.0
 40
1.0
 40
1.0
 40
1.0
 10
-39.047600000000003
 20
-39.455800000000004
 30
0.0
 10
-39.047600000000003
 20
-39.455800000000004
 30
0.0
 10
-37.889600000000002
 20
-40.613700000000001
 30
0.0
 10
-37.889600000000002
 20
-40.613700000000001
 30
0.0
  0
SPLINE
  5
1CE
100
AcDbEntity
  8
LC-004-005-----0
370
    20
100
AcDbSpline
210
0.0
220
0.0
230
1.0
 70
     0
 71
     3
 72
     8
 73
     4
 74
     0
 42
0.0000000001
 43
0.0000000001
 40
0.0
 40
0.0
 40
0.0
 40
0.0
 40
1.0
 40
1.0
 40
1.0
 40
1.0
 10
-37.9559
 20
-39.455800000000004
 30
0.0
 10
-37.9559
 20
-39.455800000000004
 30
0.0
 10
-36.798000000000002
 20
-40.613700000000001
 30
0.0
 10
-36.798000000000002
 20
-40.613700000000001
 30
0.0
  0
SPLINE
  5
1CF
100
AcDbEntity
  8
LC-004-005-----0
370
    20
100
AcDbSpline
210
0.0
220
0.0
230
1.0
 70
     0
 71
     3
 72
     8
 73
     4
 74
     0
 42
0.0000000001
 43
0.0000000001
 40
0.0
 40
0.0
 40
0.0
 40
0.0
 40
1.0
 40
1.0
 40
1.0
 40
1.0
 10
-36.8643
 20
-39.4557
 30
0.0
 10
-36.8643
 20
-39.4557
 30
0.0
 10
-36.093200000000003
 20
-40.226700000000001
 30
0.0
 10
-36.093200000000003
 20
-40.226700000000001
 30
0.0
  0
SPLINE
  5
1D1
100
AcDbEntity
  8
LC-005-002-RND-0
370
    35
100
AcDbSpline
210
0.0
220
0.0
230
1.0
 70
     0
 71
     3
 72
     8
 73
     4
 74
     0
 42
0.0000000001
 43
0.0000000001
 40
0.0
 40
0.0
 40
0.0
 40
0.0
 40
1.0
 40
1.0
 40
1.0
 40
1.0
 10
-54.710500000000003
 20
9.5852000000000004
 30
0.0
 10
-55.243400000000001
 20
9.5852000000000004
 30
0.0
 10
-55.6755
 20
9.1532999999999998
 30
0.0
 10
-55.6755
 20
8.6202000000000005
 30
0.0
  0
SPLINE
  5
1D2
100
AcDbEntity
  8
LC-005-002-RND-0
370
    35
100
AcDbSpline
210
0.0
220
0.0
230
1.0
 70
     0
 71
     3
 72
     8
 73
     4
 74
     0
 42
0.0000000001
 43
0.0000000001
 40
0.0
 40
0.0
 40
0.0
 40
0.0
 40
1.0
 40
1.0
 40
1.0
 40
1.0
 10
-54.710500000000003
 20
9.3922000000000008
 30
0.0
 10
-55.136800000000001
 20
9.3922000000000008
 30
0.0
 10
-55.482500000000002
 20
9.0465999999999998
 30
0.0
 10
-55.482500000000002
 20
8.6202000000000005
 30
0.0
  0
SPLINE
  5
1D3
100
AcDbEntity
  8
LC-005-002-RND-0
370
    35
100
AcDbSpline
210
0.0
220
0.0
230
1.0
 70
     0
 71
     3
 72
     8
 73
     4
 74
     0
 42
0.0000000001
 43
0.0000000001
 40
0.0
 40
0.0
 40
0.0
 40
0.0
 40
1.0
 40
1.0
 40
1.0
 40
1.0
 10
-55.482300000000002
 20
-38.491
 30
0.0
 10
-55.482200000000006
 20
-38.917300000000004
 30
0.0
 10
-55.136600000000001
 20
-39.263000000000005
 30
0.0
 10
-54.7102
 20
-39.262900000000002
 30
0.0
  0
SPLINE
  5
1D4
100
AcDbEntity
  8
LC-005-002-RND-0
370
    35
100
AcDbSpline
210
0.0
220
0.0
230
1.0
 70
     0
 71
     3
 72
    12
 73
     8
 74
     0
 42
0.0000000001
 43
0.0000000001
 40
0.0
 40
0.0
 40
0.0
 40
0.0
 40
0.5
 40
0.5
 40
0.5
 40
0.5
 40
1.0
 40
1.0
 40
1.0
 40
1.0
 10
-55.675400000000003
 20
-38.490900000000003
 30
0.0
 10
-55.675400000000003
 20
-38.746900000000004
 30
0.0
 10
-55.573700000000002
 20
-38.992400000000004
 30
0.0
 10
-55.392800000000001
 20
-39.173300000000005
 30
0.0
 10
-55.392800000000001
 20
-39.173300000000005
 30
0.0
 10
-55.211800000000004
 20
-39.354199999999999
 30
0.0
 10
-54.966300000000004
 20
-39.4559
 30
0.0
 10
-54.7104
 20
-39.4559
 30
0.0
  0
SPLINE
  5
1D5
100
AcDbEntity
  8
LC-005-002-RND-0
370
    35
100
AcDbSpline
210
0.0
220
0.0
230
1.0
 70
     0
 71
     3
 72
    12
 73
     8
 74
     0
 42
0.0000000001
 43
0.0000000001
 40
0.0
 40
0.0
 40
0.0
 40
0.0
 40
0.5
 40
0.5
 40
0.5
 40
0.5
 40
1.0
 40
1.0
 40
1.0
 40
1.0
 10
-84.875500000000002
 20
-34.721000000000004
 30
0.0
 10
-84.853200000000001
 20
-34.651299999999999
 30
0.0
 10
-84.872100000000003
 20
-34.575099999999999
 30
0.0
 10
-84.924300000000002
 20
-34.524000000000001
 30
0.0
 10
-84.924300000000002
 20
-34.524000000000001
 30
0.0
 10
-84.976500000000001
 20
-34.472799999999999
 30
0.0
 10
-85.053200000000004
 20
-34.4557
 30
0.0
 10
-85.12230000000001
 20
-34.479600000000005
 30
0.0
  0
SPLINE
  5
1D6
100
AcDbEntity
  8
LC-005-002-RND-0
370
    35
100
AcDbSpline
210
0.0
220
0.0
230
1.0
 70
     0
 71
     3
 72
    12
 73
     8
 74
     0
 42
0.0000000001
 43
0.0000000001
 40
0.0
 40
0.0
 40
0.0
 40
0.0
 40
0.5
 40
0.5
 40
0.5
 40
0.5
 40
1.0
 40
1.0
 40
1.0
 40
1.0
 10
-85.122399999999999
 20
-14.690900000000001
 30
0.0
 10
-85.053200000000004
 20
-14.7148
 30
0.0
 10
-84.976600000000005
 20
-14.697600000000001
 30
0.0
 10
-84.924400000000006
 20
-14.646500000000001
 30
0.0
 10
-84.924400000000006
 20
-14.646500000000001
 30
0.0
 10
-84.872100000000003
 20
-14.595400000000001
 30
0.0
 10
-84.853300000000004
 20
-14.5191
 30
0.0
 10
-84.875500000000002
 20
-14.4495
 30
0.0
  0
SPLINE
  5
1D8
100
AcDbEntity
  8
LC-007-003-----0
370
    20
100
AcDbSpline
210
0.0
220
0.0
230
1.0
 70
     0
 71
     3
 72
     8
 73
     4
 74
     0
 42
0.0000000001
 43
0.0000000001
 40
0.0
 40
0.0
 40
0.0
 40
0.0
 40
1.0
 40
1.0
 40
1.0
 40
1.0
 10
-89.244399999999999
 20
-34.4283
 30
0.0
 10
-89.244399999999999
 20
-34.4283
 30
0.0
 10
-107.4766
 20
-34.4283
 30
0.0
 10
-107.4766
 20
-34.4283
 30
0.0
  0
SPLINE
  5
1D9
100
AcDbEntity
  8
LC-007-003-----0
370
    20
100
AcDbSpline
210
0.0
220
0.0
230
1.0
 70
     0
 71
     3
 72
     8
 73
     4
 74
     0
 42
0.0000000001
 43
0.0000000001
 40
0.0
 40
0.0
 40
0.0
 40
0.0
 40
1.0
 40
1.0
 40
1.0
 40
1.0
 10
-89.244399999999999
 20
-14.7422
 30
0.0
 10
-89.244399999999999
 20
-14.7422
 30
0.0
 10
-107.4766
 20
-14.7422
 30
0.0
 10
-107.4766
 20
-14.7422
 30
0.0
  0
SPLINE
  5
1DA
100
AcDbEntity
  8
LC-007-003-----0
370
    20
100
AcDbSpline
210
0.0
220
0.0
230
1.0
 70
     0
 71
     3
 72
     8
 73
     4
 74
     0
 42
0.0000000001
 43
0.0000000001
 40
0.0
 40
0.0
 40
0.0
 40
0.0
 40
1.0
 40
1.0
 40
1.0
 40
1.0
 10
-99.581100000000006
 20
-45.143700000000003
 30
0.0
 10
-99.581100000000006
 20
-45.143700000000003
 30
0.0
 10
-100.9918
 20
-34.4283
 30
0.0
 10
-100.9918
 20
-34.4283
 30
0.0
  0
SPLINE
  5
1DB
100
AcDbEntity
  8
LC-007-003-----0
370
    20
100
AcDbSpline
210
0.0
220
0.0
230
1.0
 70
     0
 71
     3
 72
     8
 73
     4
 74
     0
 42
0.0000000001
 43
0.0000000001
 40
0.0
 40
0.0
 40
0.0
 40
0.0
 40
1.0
 40
1.0
 40
1.0
 40
1.0
 10
-100.9918
 20
-34.4283
 30
0.0
 10
-100.9918
 20
-34.4283
 30
0.0
 10
-102.4025
 20
-45.143700000000003
 30
0.0
 10
-102.4025
 20
-45.143700000000003
 30
0.0
  0
SPLINE
  5
1DC
100
AcDbEntity
  8
LC-007-003-----0
370
    20
100
AcDbSpline
210
0.0
220
0.0
230
1.0
 70
     0
 71
     3
 72
     8
 73
     4
 74
     0
 42
0.0000000001
 43
0.0000000001
 40
0.0
 40
0.0
 40
0.0
 40
0.0
 40
1.0
 40
1.0
 40
1.0
 40
1.0
 10
-102.4025
 20
-45.143700000000003
 30
0.0
 10
-102.4025
 20
-45.143700000000003
 30
0.0
 10
-99.581100000000006
 20
-45.143700000000003
 30
0.0
 10
-99.581100000000006
 20
-45.143700000000003
 30
0.0
  0
SPLINE
  5
1DD
100
AcDbEntity
  8
LC-007-003-----0
370
    20
100
AcDbSpline
210
0.0
220
0.0
230
1.0
 70
     0
 71
     3
 72
     8
 73
     4
 74
     0
 42
0.0000000001
 43
0.0000000001
 40
0.0
 40
0.0
 40
0.0
 40
0.0
 40
1.0
 40
1.0
 40
1.0
 40
1.0
 10
-99.947900000000004
 20
-45.1678
 30
0.0
 10
-99.947900000000004
 20
-45.1678
 30
0.0
 10
-100.9918
 20
-37.238300000000002
 30
0.0
 10
-100.9918
 20
-37.238300000000002
 30
0.0
  0
SPLINE
  5
1DE
100
AcDbEntity
  8
LC-007-003-----0
370
    20
100
AcDbSpline
210
0.0
220
0.0
230
1.0
 70
     0
 71
     3
 72
     8
 73
     4
 74
     0
 42
0.0000000001
 43
0.0000000001
 40
0.0
 40
0.0
 40
0.0
 40
0.0
 40
1.0
 40
1.0
 40
1.0
 40
1.0
 10
-100.9918
 20
-37.238300000000002
 30
0.0
 10
-100.9918
 20
-37.238300000000002
 30
0.0
 10
-102.03570000000001
 20
-45.1678
 30
0.0
 10
-102.03570000000001
 20
-45.1678
 30
0.0
  0
SPLINE
  5
1DF
100
AcDbEntity
  8
LC-007-003-----0
370
    20
100
AcDbSpline
210
0.0
220
0.0
230
1.0
 70
     0
 71
     3
 72
     8
 73
     4
 74
     0
 42
0.0000000001
 43
0.0000000001
 40
0.0
 40
0.0
 40
0.0
 40
0.0
 40
1.0
 40
1.0
 40
1.0
 40
1.0
 10
-100.3146
 20
-45.191800000000001
 30
0.0
 10
-100.3146
 20
-45.191800000000001
 30
0.0
 10
-100.9918
 20
-40.048300000000005
 30
0.0
 10
-100.9918
 20
-40.048300000000005
 30
0.0
  0
SPLINE
  5
1E0
100
AcDbEntity
  8
LC-007-003-----0
370
    20
100
AcDbSpline
210
0.0
220
0.0
230
1.0
 70
     0
 71
     3
 72
     8
 73
     4
 74
     0
 42
0.0000000001
 43
0.0000000001
 40
0.0
 40
0.0
 40
0.0
 40
0.0
 40
1.0
 40
1.0
 40
1.0
 40
1.0
 10
-100.9918
 20
-40.048300000000005
 30
0.0
 10
-100.9918
 20
-40.048300000000005
 30
0.0
 10
-101.66890000000001
 20
-45.191800000000001
 30
0.0
 10
-101.66890000000001
 20
-45.191800000000001
 30
0.0
  0
SPLINE
  5
1E1
100
AcDbEntity
  8
LC-007-003-----0
370
    20
100
AcDbSpline
210
0.0
220
0.0
230
1.0
 70
     0
 71
     3
 72
     8
 73
     4
 74
     0
 42
0.0000000001
 43
0.0000000001
 40
0.0
 40
0.0
 40
0.0
 40
0.0
 40
1.0
 40
1.0
 40
1.0
 40
1.0
 10
-100.68140000000001
 20
-45.215800000000002
 30
0.0
 10
-100.68140000000001
 20
-45.215800000000002
 30
0.0
 10
-100.9918
 20
-42.858499999999999
 30
0.0
 10
-100.9918
 20
-42.858499999999999
 30
0.0
  0
SPLINE
  5
1E2
100
AcDbEntity
  8
LC-007-003-----0
370
    20
100
AcDbSpline
210
0.0
220
0.0
230
1.0
 70
     0
 71
     3
 72
     8
 73
     4
 74
     0
 42
0.0000000001
 43
0.0000000001
 40
0.0
 40
0.0
 40
0.0
 40
0.0
 40
1.0
 40
1.0
 40
1.0
 40
1.0
 10
-100.9918
 20
-42.858499999999999
 30
0.0
 10
-100.9918
 20
-42.858499999999999
 30
0.0
 10
-101.30210000000001
 20
-45.215800000000002
 30
0.0
 10
-101.30210000000001
 20
-45.215800000000002
 30
0.0
  0
SPLINE
  5
1E3
100
AcDbEntity
  8
LC-007-003-----0
370
    20
100
AcDbSpline
210
0.0
220
0.0
230
1.0
 70
     0
 71
     3
 72
     8
 73
     4
 74
     0
 42
0.0000000001
 43
0.0000000001
 40
0.0
 40
0.0
 40
0.0
 40
0.0
 40
1.0
 40
1.0
 40
1.0
 40
1.0
 10
-102.4025
 20
-4.0268000000000006
 30
0.0
 10
-102.4025
 20
-4.0268000000000006
 30
0.0
 10
-100.9918
 20
-14.7422
 30
0.0
 10
-100.9918
 20
-14.7422
 30
0.0
  0
SPLINE
  5
1E4
100
AcDbEntity
  8
LC-007-003-----0
370
    20
100
AcDbSpline
210
0.0
220
0.0
230
1.0
 70
     0
 71
     3
 72
     8
 73
     4
 74
     0
 42
0.0000000001
 43
0.0000000001
 40
0.0
 40
0.0
 40
0.0
 40
0.0
 40
1.0
 40
1.0
 40
1.0
 40
1.0
 10
-100.9918
 20
-14.7422
 30
0.0
 10
-100.9918
 20
-14.7422
 30
0.0
 10
-99.581100000000006
 20
-4.0268000000000006
 30
0.0
 10
-99.581100000000006
 20
-4.0268000000000006
 30
0.0
  0
SPLINE
  5
1E5
100
AcDbEntity
  8
LC-007-003-----0
370
    20
100
AcDbSpline
210
0.0
220
0.0
230
1.0
 70
     0
 71
     3
 72
     8
 73
     4
 74
     0
 42
0.0000000001
 43
0.0000000001
 40
0.0
 40
0.0
 40
0.0
 40
0.0
 40
1.0
 40
1.0
 40
1.0
 40
1.0
 10
-99.581100000000006
 20
-4.0268000000000006
 30
0.0
 10
-99.581100000000006
 20
-4.0268000000000006
 30
0.0
 10
-102.4025
 20
-4.0268000000000006
 30
0.0
 10
-102.4025
 20
-4.0268000000000006
 30
0.0
  0
SPLINE
  5
1E6
100
AcDbEntity
  8
LC-007-003-----0
370
    20
100
AcDbSpline
210
0.0
220
0.0
230
1.0
 70
     0
 71
     3
 72
     8
 73
     4
 74
     0
 42
0.0000000001
 43
0.0000000001
 40
0.0
 40
0.0
 40
0.0
 40
0.0
 40
1.0
 40
1.0
 40
1.0
 40
1.0
 10
-102.03570000000001
 20
-4.0028000000000006
 30
0.0
 10
-102.03570000000001
 20
-4.0028000000000006
 30
0.0
 10
-100.9918
 20
-11.9322
 30
0.0
 10
-100.9918
 20
-11.9322
 30
0.0
  0
SPLINE
  5
1E7
100
AcDbEntity
  8
LC-007-003-----0
370
    20
100
AcDbSpline
210
0.0
220
0.0
230
1.0
 70
     0
 71
     3
 72
     8
 73
     4
 74
     0
 42
0.0000000001
 43
0.0000000001
 40
0.0
 40
0.0
 40
0.0
 40
0.0
 40
1.0
 40
1.0
 40
1.0
 40
1.0
 10
-100.9918
 20
-11.9322
 30
0.0
 10
-100.9918
 20
-11.9322
 30
0.0
 10
-99.947900000000004
 20
-4.0028000000000006
 30
0.0
 10
-99.947900000000004
 20
-4.0028000000000006
 30
0.0
  0
SPLINE
  5
1E8
100
AcDbEntity
  8
LC-007-003-----0
370
    20
100
AcDbSpline
210
0.0
220
0.0
230
1.0
 70
     0
 71
     3
 72
     8
 73
     4
 74
     0
 42
0.0000000001
 43
0.0000000001
 40
0.0
 40
0.0
 40
0.0
 40
0.0
 40
1.0
 40
1.0
 40
1.0
 40
1.0
 10
-101.66890000000001
 20
-3.9788000000000001
 30
0.0
 10
-101.66890000000001
 20
-3.9788000000000001
 30
0.0
 10
-100.9918
 20
-9.1222000000000012
 30
0.0
 10
-100.9918
 20
-9.1222000000000012
 30
0.0
  0
SPLINE
  5
1E9
100
AcDbEntity
  8
LC-007-003-----0
370
    20
100
AcDbSpline
210
0.0
220
0.0
230
1.0
 70
     0
 71
     3
 72
     8
 73
     4
 74
     0
 42
0.0000000001
 43
0.0000000001
 40
0.0
 40
0.0
 40
0.0
 40
0.0
 40
1.0
 40
1.0
 40
1.0
 40
1.0
 10
-100.9918
 20
-9.1222000000000012
 30
0.0
 10
-100.9918
 20
-9.1222000000000012
 30
0.0
 10
-100.3146
 20
-3.9788000000000001
 30
0.0
 10
-100.3146
 20
-3.9788000000000001
 30
0.0
  0
SPLINE
  5
1EA
100
AcDbEntity
  8
LC-007-003-----0
370
    20
100
AcDbSpline
210
0.0
220
0.0
230
1.0
 70
     0
 71
     3
 72
     8
 73
     4
 74
     0
 42
0.0000000001
 43
0.0000000001
 40
0.0
 40
0.0
 40
0.0
 40
0.0
 40
1.0
 40
1.0
 40
1.0
 40
1.0
 10
-101.30210000000001
 20
-3.9548000000000001
 30
0.0
 10
-101.30210000000001
 20
-3.9548000000000001
 30
0.0
 10
-100.9918
 20
-6.3121
 30
0.0
 10
-100.9918
 20
-6.3121
 30
0.0
  0
SPLINE
  5
1EB
100
AcDbEntity
  8
LC-007-003-----0
370
    20
100
AcDbSpline
210
0.0
220
0.0
230
1.0
 70
     0
 71
     3
 72
     8
 73
     4
 74
     0
 42
0.0000000001
 43
0.0000000001
 40
0.0
 40
0.0
 40
0.0
 40
0.0
 40
1.0
 40
1.0
 40
1.0
 40
1.0
 10
-100.9918
 20
-6.3121
 30
0.0
 10
-100.9918
 20
-6.3121
 30
0.0
 10
-100.68140000000001
 20
-3.9548000000000001
 30
0.0
 10
-100.68140000000001
 20
-3.9548000000000001
 30
0.0
  0
SPLINE
  5
1EC
100
AcDbEntity
  8
LC-007-003-----0
370
    20
100
AcDbSpline
210
0.0
220
0.0
230
1.0
 70
     0
 71
     3
 72
     8
 73
     4
 74
     0
 42
0.0000000001
 43
0.0000000001
 40
0.0
 40
0.0
 40
0.0
 40
0.0
 40
1.0
 40
1.0
 40
1.0
 40
1.0
 10
-100.9918
 20
-49.559400000000004
 30
0.0
 10
-100.9918
 20
-49.559400000000004
 30
0.0
 10
-100.9918
 20
32.020600000000002
 30
0.0
 10
-100.9918
 20
32.020600000000002
 30
0.0
  0
SPLINE
  5
1ED
100
AcDbEntity
  8
LC-007-003-----0
370
    20
100
AcDbSpline
210
0.0
220
0.0
230
1.0
 70
     0
 71
     3
 72
     8
 73
     4
 74
     0
 42
0.0000000001
 43
0.0000000001
 40
0.0
 40
0.0
 40
0.0
 40
0.0
 40
1.0
 40
1.0
 40
1.0
 40
1.0
 10
-36.468900000000005
 20
-34.905700000000003
 30
0.0
 10
-36.468900000000005
 20
-34.905700000000003
 30
0.0
 10
-14.521600000000001
 20
-34.905700000000003
 30
0.0
 10
-14.521600000000001
 20
-34.905700000000003
 30
0.0
  0
SPLINE
  5
1EE
100
AcDbEntity
  8
LC-007-003-----0
370
    20
100
AcDbSpline
210
0.0
220
0.0
230
1.0
 70
     0
 71
     3
 72
     8
 73
     4
 74
     0
 42
0.0000000001
 43
0.0000000001
 40
0.0
 40
0.0
 40
0.0
 40
0.0
 40
1.0
 40
1.0
 40
1.0
 40
1.0
 10
-36.469000000000001
 20
5.0354000000000001
 30
0.0
 10
-36.469000000000001
 20
5.0354000000000001
 30
0.0
 10
-14.521600000000001
 20
5.0354000000000001
 30
0.0
 10
-14.521600000000001
 20
5.0354000000000001
 30
0.0
  0
SPLINE
  5
1EF
100
AcDbEntity
  8
LC-007-003-----0
370
    20
100
AcDbSpline
210
0.0
220
0.0
230
1.0
 70
     0
 71
     3
 72
     8
 73
     4
 74
     0
 42
0.0000000001
 43
0.0000000001
 40
0.0
 40
0.0
 40
0.0
 40
0.0
 40
1.0
 40
1.0
 40
1.0
 40
1.0
 10
-19.595600000000001
 20
-45.621300000000005
 30
0.0
 10
-19.595600000000001
 20
-45.621300000000005
 30
0.0
 10
-21.006399999999999
 20
-34.905700000000003
 30
0.0
 10
-21.006399999999999
 20
-34.905700000000003
 30
0.0
  0
SPLINE
  5
1F0
100
AcDbEntity
  8
LC-007-003-----0
370
    20
100
AcDbSpline
210
0.0
220
0.0
230
1.0
 70
     0
 71
     3
 72
     8
 73
     4
 74
     0
 42
0.0000000001
 43
0.0000000001
 40
0.0
 40
0.0
 40
0.0
 40
0.0
 40
1.0
 40
1.0
 40
1.0
 40
1.0
 10
-21.006399999999999
 20
-34.905700000000003
 30
0.0
 10
-21.006399999999999
 20
-34.905700000000003
 30
0.0
 10
-22.417000000000002
 20
-45.621300000000005
 30
0.0
 10
-22.417000000000002
 20
-45.621300000000005
 30
0.0
  0
SPLINE
  5
1F1
100
AcDbEntity
  8
LC-007-003-----0
370
    20
100
AcDbSpline
210
0.0
220
0.0
230
1.0
 70
     0
 71
     3
 72
     8
 73
     4
 74
     0
 42
0.0000000001
 43
0.0000000001
 40
0.0
 40
0.0
 40
0.0
 40
0.0
 40
1.0
 40
1.0
 40
1.0
 40
1.0
 10
-22.417000000000002
 20
-45.621300000000005
 30
0.0
 10
-22.417000000000002
 20
-45.621300000000005
 30
0.0
 10
-19.595600000000001
 20
-45.621300000000005
 30
0.0
 10
-19.595600000000001
 20
-45.621300000000005
 30
0.0
  0
SPLINE
  5
1F2
100
AcDbEntity
  8
LC-007-003-----0
370
    20
100
AcDbSpline
210
0.0
220
0.0
230
1.0
 70
     0
 71
     3
 72
     8
 73
     4
 74
     0
 42
0.0000000001
 43
0.0000000001
 40
0.0
 40
0.0
 40
0.0
 40
0.0
 40
1.0
 40
1.0
 40
1.0
 40
1.0
 10
-19.962500000000002
 20
-45.645299999999999
 30
0.0
 10
-19.962500000000002
 20
-45.645299999999999
 30
0.0
 10
-21.006399999999999
 20
-37.715900000000005
 30
0.0
 10
-21.006399999999999
 20
-37.715900000000005
 30
0.0
  0
SPLINE
  5
1F3
100
AcDbEntity
  8
LC-007-003-----0
370
    20
100
AcDbSpline
210
0.0
220
0.0
230
1.0
 70
     0
 71
     3
 72
     8
 73
     4
 74
     0
 42
0.0000000001
 43
0.0000000001
 40
0.0
 40
0.0
 40
0.0
 40
0.0
 40
1.0
 40
1.0
 40
1.0
 40
1.0
 10
-21.006399999999999
 20
-37.715900000000005
 30
0.0
 10
-21.006399999999999
 20
-37.715900000000005
 30
0.0
 10
-22.0503
 20
-45.645299999999999
 30
0.0
 10
-22.0503
 20
-45.645299999999999
 30
0.0
  0
SPLINE
  5
1F4
100
AcDbEntity
  8
LC-007-003-----0
370
    20
100
AcDbSpline
210
0.0
220
0.0
230
1.0
 70
     0
 71
     3
 72
     8
 73
     4
 74
     0
 42
0.0000000001
 43
0.0000000001
 40
0.0
 40
0.0
 40
0.0
 40
0.0
 40
1.0
 40
1.0
 40
1.0
 40
1.0
 10
-20.3292
 20
-45.669400000000003
 30
0.0
 10
-20.3292
 20
-45.669400000000003
 30
0.0
 10
-21.006399999999999
 20
-40.5259
 30
0.0
 10
-21.006399999999999
 20
-40.5259
 30
0.0
  0
SPLINE
  5
1F5
100
AcDbEntity
  8
LC-007-003-----0
370
    20
100
AcDbSpline
210
0.0
220
0.0
230
1.0
 70
     0
 71
     3
 72
     8
 73
     4
 74
     0
 42
0.0000000001
 43
0.0000000001
 40
0.0
 40
0.0
 40
0.0
 40
0.0
 40
1.0
 40
1.0
 40
1.0
 40
1.0
 10
-21.006399999999999
 20
-40.5259
 30
0.0
 10
-21.006399999999999
 20
-40.5259
 30
0.0
 10
-21.683600000000002
 20
-45.669400000000003
 30
0.0
 10
-21.683600000000002
 20
-45.669400000000003
 30
0.0
  0
SPLINE
  5
1F6
100
AcDbEntity
  8
LC-007-003-----0
370
    20
100
AcDbSpline
210
0.0
220
0.0
230
1.0
 70
     0
 71
     3
 72
     8
 73
     4
 74
     0
 42
0.0000000001
 43
0.0000000001
 40
0.0
 40
0.0
 40
0.0
 40
0.0
 40
1.0
 40
1.0
 40
1.0
 40
1.0
 10
-20.696100000000001
 20
-45.693400000000004
 30
0.0
 10
-20.696100000000001
 20
-45.693400000000004
 30
0.0
 10
-21.006399999999999
 20
-43.336000000000006
 30
0.0
 10
-21.006399999999999
 20
-43.336000000000006
 30
0.0
  0
SPLINE
  5
1F7
100
AcDbEntity
  8
LC-007-003-----0
370
    20
100
AcDbSpline
210
0.0
220
0.0
230
1.0
 70
     0
 71
     3
 72
     8
 73
     4
 74
     0
 42
0.0000000001
 43
0.0000000001
 40
0.0
 40
0.0
 40
0.0
 40
0.0
 40
1.0
 40
1.0
 40
1.0
 40
1.0
 10
-21.006399999999999
 20
-43.336000000000006
 30
0.0
 10
-21.006399999999999
 20
-43.336000000000006
 30
0.0
 10
-21.316700000000001
 20
-45.693400000000004
 30
0.0
 10
-21.316700000000001
 20
-45.693400000000004
 30
0.0
  0
SPLINE
  5
1F8
100
AcDbEntity
  8
LC-007-003-----0
370
    20
100
AcDbSpline
210
0.0
220
0.0
230
1.0
 70
     0
 71
     3
 72
     8
 73
     4
 74
     0
 42
0.0000000001
 43
0.0000000001
 40
0.0
 40
0.0
 40
0.0
 40
0.0
 40
1.0
 40
1.0
 40
1.0
 40
1.0
 10
-22.417000000000002
 20
15.750900000000001
 30
0.0
 10
-22.417000000000002
 20
15.750900000000001
 30
0.0
 10
-21.006399999999999
 20
5.0354000000000001
 30
0.0
 10
-21.006399999999999
 20
5.0354000000000001
 30
0.0
  0
SPLINE
  5
1F9
100
AcDbEntity
  8
LC-007-003-----0
370
    20
100
AcDbSpline
210
0.0
220
0.0
230
1.0
 70
     0
 71
     3
 72
     8
 73
     4
 74
     0
 42
0.0000000001
 43
0.0000000001
 40
0.0
 40
0.0
 40
0.0
 40
0.0
 40
1.0
 40
1.0
 40
1.0
 40
1.0
 10
-21.006399999999999
 20
5.0354000000000001
 30
0.0
 10
-21.006399999999999
 20
5.0354000000000001
 30
0.0
 10
-19.595600000000001
 20
15.750900000000001
 30
0.0
 10
-19.595600000000001
 20
15.750900000000001
 30
0.0
  0
SPLINE
  5
1FA
100
AcDbEntity
  8
LC-007-003-----0
370
    20
100
AcDbSpline
210
0.0
220
0.0
230
1.0
 70
     0
 71
     3
 72
     8
 73
     4
 74
     0
 42
0.0000000001
 43
0.0000000001
 40
0.0
 40
0.0
 40
0.0
 40
0.0
 40
1.0
 40
1.0
 40
1.0
 40
1.0
 10
-19.595600000000001
 20
15.750900000000001
 30
0.0
 10
-19.595600000000001
 20
15.750900000000001
 30
0.0
 10
-22.417000000000002
 20
15.750900000000001
 30
0.0
 10
-22.417000000000002
 20
15.750900000000001
 30
0.0
  0
SPLINE
  5
1FB
100
AcDbEntity
  8
LC-007-003-----0
370
    20
100
AcDbSpline
210
0.0
220
0.0
230
1.0
 70
     0
 71
     3
 72
     8
 73
     4
 74
     0
 42
0.0000000001
 43
0.0000000001
 40
0.0
 40
0.0
 40
0.0
 40
0.0
 40
1.0
 40
1.0
 40
1.0
 40
1.0
 10
-22.0503
 20
15.774900000000001
 30
0.0
 10
-22.0503
 20
15.774900000000001
 30
0.0
 10
-21.006399999999999
 20
7.8455000000000004
 30
0.0
 10
-21.006399999999999
 20
7.8455000000000004
 30
0.0
  0
SPLINE
  5
1FC
100
AcDbEntity
  8
LC-007-003-----0
370
    20
100
AcDbSpline
210
0.0
220
0.0
230
1.0
 70
     0
 71
     3
 72
     8
 73
     4
 74
     0
 42
0.0000000001
 43
0.0000000001
 40
0.0
 40
0.0
 40
0.0
 40
0.0
 40
1.0
 40
1.0
 40
1.0
 40
1.0
 10
-21.006399999999999
 20
7.8455000000000004
 30
0.0
 10
-21.006399999999999
 20
7.8455000000000004
 30
0.0
 10
-19.962500000000002
 20
15.774900000000001
 30
0.0
 10
-19.962500000000002
 20
15.774900000000001
 30
0.0
  0
SPLINE
  5
1FD
100
AcDbEntity
  8
LC-007-003-----0
370
    20
100
AcDbSpline
210
0.0
220
0.0
230
1.0
 70
     0
 71
     3
 72
     8
 73
     4
 74
     0
 42
0.0000000001
 43
0.0000000001
 40
0.0
 40
0.0
 40
0.0
 40
0.0
 40
1.0
 40
1.0
 40
1.0
 40
1.0
 10
-21.683600000000002
 20
15.798900000000001
 30
0.0
 10
-21.683600000000002
 20
15.798900000000001
 30
0.0
 10
-21.006399999999999
 20
10.6555
 30
0.0
 10
-21.006399999999999
 20
10.6555
 30
0.0
  0
SPLINE
  5
1FE
100
AcDbEntity
  8
LC-007-003-----0
370
    20
100
AcDbSpline
210
0.0
220
0.0
230
1.0
 70
     0
 71
     3
 72
     8
 73
     4
 74
     0
 42
0.0000000001
 43
0.0000000001
 40
0.0
 40
0.0
 40
0.0
 40
0.0
 40
1.0
 40
1.0
 40
1.0
 40
1.0
 10
-21.006399999999999
 20
10.6555
 30
0.0
 10
-21.006399999999999
 20
10.6555
 30
0.0
 10
-20.3292
 20
15.798900000000001
 30
0.0
 10
-20.3292
 20
15.798900000000001
 30
0.0
  0
SPLINE
  5
1FF
100
AcDbEntity
  8
LC-007-003-----0
370
    20
100
AcDbSpline
210
0.0
220
0.0
230
1.0
 70
     0
 71
     3
 72
     8
 73
     4
 74
     0
 42
0.0000000001
 43
0.0000000001
 40
0.0
 40
0.0
 40
0.0
 40
0.0
 40
1.0
 40
1.0
 40
1.0
 40
1.0
 10
-21.316700000000001
 20
15.823
 30
0.0
 10
-21.316700000000001
 20
15.823
 30
0.0
 10
-21.006399999999999
 20
13.4655
 30
0.0
 10
-21.006399999999999
 20
13.4655
 30
0.0
  0
SPLINE
  5
200
100
AcDbEntity
  8
LC-007-003-----0
370
    20
100
AcDbSpline
210
0.0
220
0.0
230
1.0
 70
     0
 71
     3
 72
     8
 73
     4
 74
     0
 42
0.0000000001
 43
0.0000000001
 40
0.0
 40
0.0
 40
0.0
 40
0.0
 40
1.0
 40
1.0
 40
1.0
 40
1.0
 10
-21.006399999999999
 20
13.4655
 30
0.0
 10
-21.006399999999999
 20
13.4655
 30
0.0
 10
-20.696100000000001
 20
15.823
 30
0.0
 10
-20.696100000000001
 20
15.823
 30
0.0
  0
SPLINE
  5
201
100
AcDbEntity
  8
LC-007-003-----0
370
    20
100
AcDbSpline
210
0.0
220
0.0
230
1.0
 70
     0
 71
     3
 72
     8
 73
     4
 74
     0
 42
0.0000000001
 43
0.0000000001
 40
0.0
 40
0.0
 40
0.0
 40
0.0
 40
1.0
 40
1.0
 40
1.0
 40
1.0
 10
-21.006399999999999
 20
-50.036900000000003
 30
0.0
 10
-21.006399999999999
 20
-50.036900000000003
 30
0.0
 10
-21.006399999999999
 20
82.221500000000006
 30
0.0
 10
-21.006399999999999
 20
82.221500000000006
 30
0.0
  0
SPLINE
  5
202
100
AcDbEntity
  8
LC-007-003-----0
100
AcDbSpline
210
0.0
220
0.0
230
1.0
 70
     1
 71
     3
 72
    40
 73
    36
 74
     0
 42
0.0000000001
 43
0.0000000001
 40
0.0
 40
0.0
 40
0.0
 40
0.0
 40
0.1111111111111111
 40
0.1111111111111111
 40
0.1111111111111111
 40
0.1111111111111111
 40
0.2222222222222222
 40
0.2222222222222222
 40
0.2222222222222222
 40
0.2222222222222222
 40
0.3333333333333333
 40
0.3333333333333333
 40
0.3333333333333333
 40
0.3333333333333333
 40
0.4444444444444444
 40
0.4444444444444444
 40
0.4444444444444444
 40
0.4444444444444444
 40
0.5555555555555556
 40
0.5555555555555556
 40
0.5555555555555556
 40
0.5555555555555556
 40
0.6666666666666667
 40
0.6666666666666667
 40
0.6666666666666667
 40
0.6666666666666667
 40
0.7777777777777779
 40
0.7777777777777779
 40
0.7777777777777779
 40
0.7777777777777779
 40
0.8888888888888891
 40
0.8888888888888891
 40
0.8888888888888891
 40
0.8888888888888891
 40
1.0
 40
1.0
 40
1.0
 40
1.0
 10
-68.206000000000003
 20
-59.9666
 30
0.0
 10
-68.206000000000003
 20
-59.9666
 30
0.0
 10
-66.968600000000009
 20
-54.065600000000003
 30
0.0
 10
-66.968600000000009
 20
-54.065600000000003
 30
0.0
 10
-66.968600000000009
 20
-54.065600000000003
 30
0.0
 10
-67.501800000000003
 20
-54.484100000000005
 30
0.0
 10
-68.251500000000007
 20
-54.820700000000002
 30
0.0
 10
-69.217700000000008
 20
-55.073700000000002
 30
0.0
 10
-69.217700000000008
 20
-55.073700000000002
 30
0.0
 10
-69.217700000000008
 20
-55.073700000000002
 30
0.0
 10
-69.037500000000009
 20
-54.198399999999999
 30
0.0
 10
-69.037500000000009
 20
-54.198399999999999
 30
0.0
 10
-69.037500000000009
 20
-54.198399999999999
 30
0.0
 10
-68.557200000000009
 20
-54.007400000000004
 30
0.0
 10
-68.084100000000007
 20
-53.7562
 30
0.0
 10
-67.616399999999999
 20
-53.446899999999999
 30
0.0
 10
-67.616399999999999
 20
-53.446899999999999
 30
0.0
 10
-67.148800000000008
 20
-53.137599999999999
 30
0.0
 10
-66.797600000000003
 20
-52.868300000000005
 30
0.0
 10
-66.562899999999999
 20
-52.6372
 30
0.0
 10
-66.562899999999999
 20
-52.6372
 30
0.0
 10
-66.420900000000003
 20
-52.4953
 30
0.0
 10
-66.286299999999997
 20
-52.322400000000002
 30
0.0
 10
-66.158900000000003
 20
-52.118600000000001
 30
0.0
 10
-66.158900000000003
 20
-52.118600000000001
 30
0.0
 10
-66.158900000000003
 20
-52.118600000000001
 30
0.0
 10
-65.598500000000001
 20
-52.118600000000001
 30
0.0
 10
-65.598500000000001
 20
-52.118600000000001
 30
0.0
 10
-65.598500000000001
 20
-52.118600000000001
 30
0.0
 10
-65.598500000000001
 20
-52.118600000000001
 30
0.0
 10
-67.234300000000005
 20
-59.9666
 30
0.0
 10
-67.234300000000005
 20
-59.9666
 30
0.0
 10
-67.234300000000005
 20
-59.9666
 30
0.0
 10
-67.234300000000005
 20
-59.9666
 30
0.0
 10
-68.206000000000003
 20
-59.9666
 30
0.0
 10
-68.206000000000003
 20
-59.9666
 30
0.0
  0
SPLINE
  5
203
100
AcDbEntity
  8
LC-007-003-----0
100
AcDbSpline
210
0.0
220
0.0
230
1.0
 70
     1
 71
     3
 72
    48
 73
    44
 74
     0
 42
0.0000000001
 43
0.0000000001
 40
0.0
 40
0.0
 40
0.0
 40
0.0
 40
0.0909090909090909
 40
0.0909090909090909
 40
0.0909090909090909
 40
0.0909090909090909
 40
0.1818181818181818
 40
0.1818181818181818
 40
0.1818181818181818
 40
0.1818181818181818
 40
0.2727272727272727
 40
0.2727272727272727
 40
0.2727272727272727
 40
0.2727272727272727
 40
0.3636363636363637
 40
0.3636363636363637
 40
0.3636363636363637
 40
0.3636363636363637
 40
0.4545454545454546
 40
0.4545454545454546
 40
0.4545454545454546
 40
0.4545454545454546
 40
0.5454545454545455
 40
0.5454545454545455
 40
0.5454545454545455
 40
0.5454545454545455
 40
0.6363636363636365
 40
0.6363636363636365
 40
0.6363636363636365
 40
0.6363636363636365
 40
0.7272727272727274
 40
0.7272727272727274
 40
0.7272727272727274
 40
0.7272727272727274
 40
0.8181818181818183
 40
0.8181818181818183
 40
0.8181818181818183
 40
0.8181818181818183
 40
0.9090909090909093
 40
0.9090909090909093
 40
0.9090909090909093
 40
0.9090909090909093
 40
1.0
 40
1.0
 40
1.0
 40
1.0
 10
-61.498800000000003
 20
-59.9666
 30
0.0
 10
-61.498800000000003
 20
-59.9666
 30
0.0
 10
-61.078500000000005
 20
-57.972300000000004
 30
0.0
 10
-61.078500000000005
 20
-57.972300000000004
 30
0.0
 10
-61.078500000000005
 20
-57.972300000000004
 30
0.0
 10
-61.078500000000005
 20
-57.972300000000004
 30
0.0
 10
-64.266500000000008
 20
-57.972300000000004
 30
0.0
 10
-64.266500000000008
 20
-57.972300000000004
 30
0.0
 10
-64.266500000000008
 20
-57.972300000000004
 30
0.0
 10
-64.266500000000008
 20
-57.972300000000004
 30
0.0
 10
-64.062700000000007
 20
-57.018800000000006
 30
0.0
 10
-64.062700000000007
 20
-57.018800000000006
 30
0.0
 10
-64.062700000000007
 20
-57.018800000000006
 30
0.0
 10
-64.062700000000007
 20
-57.018800000000006
 30
0.0
 10
-59.686500000000002
 20
-52.151299999999999
 30
0.0
 10
-59.686500000000002
 20
-52.151299999999999
 30
0.0
 10
-59.686500000000002
 20
-52.151299999999999
 30
0.0
 10
-59.686500000000002
 20
-52.151299999999999
 30
0.0
 10
-58.896800000000006
 20
-52.151299999999999
 30
0.0
 10
-58.896800000000006
 20
-52.151299999999999
 30
0.0
 10
-58.896800000000006
 20
-52.151299999999999
 30
0.0
 10
-58.896800000000006
 20
-52.151299999999999
 30
0.0
 10
-59.937600000000003
 20
-57.120699999999999
 30
0.0
 10
-59.937600000000003
 20
-57.120699999999999
 30
0.0
 10
-59.937600000000003
 20
-57.120699999999999
 30
0.0
 10
-59.937600000000003
 20
-57.120699999999999
 30
0.0
 10
-58.838500000000003
 20
-57.120699999999999
 30
0.0
 10
-58.838500000000003
 20
-57.120699999999999
 30
0.0
 10
-58.838500000000003
 20
-57.120699999999999
 30
0.0
 10
-58.838500000000003
 20
-57.120699999999999
 30
0.0
 10
-59.015100000000004
 20
-57.972300000000004
 30
0.0
 10
-59.015100000000004
 20
-57.972300000000004
 30
0.0
 10
-59.015100000000004
 20
-57.972300000000004
 30
0.0
 10
-59.015100000000004
 20
-57.972300000000004
 30
0.0
 10
-60.112300000000005
 20
-57.972300000000004
 30
0.0
 10
-60.112300000000005
 20
-57.972300000000004
 30
0.0
 10
-60.112300000000005
 20
-57.972300000000004
 30
0.0
 10
-60.112300000000005
 20
-57.972300000000004
 30
0.0
 10
-60.534400000000005
 20
-59.9666
 30
0.0
 10
-60.534400000000005
 20
-59.9666
 30
0.0
 10
-60.534400000000005
 20
-59.9666
 30
0.0
 10
-60.534400000000005
 20
-59.9666
 30
0.0
 10
-61.498800000000003
 20
-59.9666
 30
0.0
 10
-61.498800000000003
 20
-59.9666
 30
0.0
  0
SPLINE
  5
204
100
AcDbEntity
  8
LC-007-003-----0
100
AcDbSpline
210
0.0
220
0.0
230
1.0
 70
     1
 71
     3
 72
    16
 73
    12
 74
     0
 42
0.0000000001
 43
0.0000000001
 40
0.0
 40
0.0
 40
0.0
 40
0.0
 40
0.3333333333333333
 40
0.3333333333333333
 40
0.3333333333333333
 40
0.3333333333333333
 40
0.6666666666666666
 40
0.6666666666666666
 40
0.6666666666666666
 40
0.6666666666666666
 40
1.0
 40
1.0
 40
1.0
 40
1.0
 10
-60.902000000000001
 20
-57.120699999999999
 30
0.0
 10
-60.902000000000001
 20
-57.120699999999999
 30
0.0
 10
-60.2196
 20
-53.8581
 30
0.0
 10
-60.2196
 20
-53.8581
 30
0.0
 10
-60.2196
 20
-53.8581
 30
0.0
 10
-60.2196
 20
-53.8581
 30
0.0
 10
-63.131
 20
-57.120699999999999
 30
0.0
 10
-63.131
 20
-57.120699999999999
 30
0.0
 10
-63.131
 20
-57.120699999999999
 30
0.0
 10
-63.131
 20
-57.120699999999999
 30
0.0
 10
-60.902000000000001
 20
-57.120699999999999
 30
0.0
 10
-60.902000000000001
 20
-57.120699999999999
 30
0.0
  0
SPLINE
  5
205
100
AcDbEntity
  8
LC-007-003-----0
100
AcDbSpline
210
0.0
220
0.0
230
1.0
 70
     1
 71
     3
 72
   120
 73
   116
 74
     0
 42
0.0000000001
 43
0.0000000001
 40
0.0
 40
0.0
 40
0.0
 40
0.0
 40
0.0344827586206897
 40
0.0344827586206897
 40
0.0344827586206897
 40
0.0344827586206897
 40
0.0689655172413793
 40
0.0689655172413793
 40
0.0689655172413793
 40
0.0689655172413793
 40
0.103448275862069
 40
0.103448275862069
 40
0.103448275862069
 40
0.103448275862069
 40
0.1379310344827586
 40
0.1379310344827586
 40
0.1379310344827586
 40
0.1379310344827586
 40
0.1724137931034483
 40
0.1724137931034483
 40
0.1724137931034483
 40
0.1724137931034483
 40
0.206896551724138
 40
0.206896551724138
 40
0.206896551724138
 40
0.206896551724138
 40
0.2413793103448276
 40
0.2413793103448276
 40
0.2413793103448276
 40
0.2413793103448276
 40
0.2758620689655173
 40
0.2758620689655173
 40
0.2758620689655173
 40
0.2758620689655173
 40
0.310344827586207
 40
0.310344827586207
 40
0.310344827586207
 40
0.310344827586207
 40
0.3448275862068966
 40
0.3448275862068966
 40
0.3448275862068966
 40
0.3448275862068966
 40
0.3793103448275863
 40
0.3793103448275863
 40
0.3793103448275863
 40
0.3793103448275863
 40
0.413793103448276
 40
0.413793103448276
 40
0.413793103448276
 40
0.413793103448276
 40
0.4482758620689656
 40
0.4482758620689656
 40
0.4482758620689656
 40
0.4482758620689656
 40
0.4827586206896553
 40
0.4827586206896553
 40
0.4827586206896553
 40
0.4827586206896553
 40
0.517241379310345
 40
0.517241379310345
 40
0.517241379310345
 40
0.517241379310345
 40
0.5517241379310346
 40
0.5517241379310346
 40
0.5517241379310346
 40
0.5517241379310346
 40
0.5862068965517242
 40
0.5862068965517242
 40
0.5862068965517242
 40
0.5862068965517242
 40
0.6206896551724138
 40
0.6206896551724138
 40
0.6206896551724138
 40
0.6206896551724138
 40
0.6551724137931034
 40
0.6551724137931034
 40
0.6551724137931034
 40
0.6551724137931034
 40
0.689655172413793
 40
0.689655172413793
 40
0.689655172413793
 40
0.689655172413793
 40
0.7241379310344827
 40
0.7241379310344827
 40
0.7241379310344827
 40
0.7241379310344827
 40
0.7586206896551723
 40
0.7586206896551723
 40
0.7586206896551723
 40
0.7586206896551723
 40
0.7931034482758619
 40
0.7931034482758619
 40
0.7931034482758619
 40
0.7931034482758619
 40
0.8275862068965515
 40
0.8275862068965515
 40
0.8275862068965515
 40
0.8275862068965515
 40
0.8620689655172411
 40
0.8620689655172411
 40
0.8620689655172411
 40
0.8620689655172411
 40
0.8965517241379307
 40
0.8965517241379307
 40
0.8965517241379307
 40
0.8965517241379307
 40
0.9310344827586203
 40
0.9310344827586203
 40
0.9310344827586203
 40
0.9310344827586203
 40
0.9655172413793099
 40
0.9655172413793099
 40
0.9655172413793099
 40
0.9655172413793099
 40
1.0
 40
1.0
 40
1.0
 40
1.0
 10
-58.092500000000001
 20
-57.919499999999999
 30
0.0
 10
-58.092500000000001
 20
-57.919499999999999
 30
0.0
 10
-57.153500000000001
 20
-57.803100000000001
 30
0.0
 10
-57.153500000000001
 20
-57.803100000000001
 30
0.0
 10
-57.153500000000001
 20
-57.803100000000001
 30
0.0
 10
-57.082599999999999
 20
-58.349000000000004
 30
0.0
 10
-56.926100000000005
 20
-58.742000000000004
 30
0.0
 10
-56.682300000000005
 20
-58.978500000000004
 30
0.0
 10
-56.682300000000005
 20
-58.978500000000004
 30
0.0
 10
-56.438400000000001
 20
-59.213300000000004
 30
0.0
 10
-56.120000000000005
 20
-59.331600000000002
 30
0.0
 10
-55.725100000000005
 20
-59.331600000000002
 30
0.0
 10
-55.725100000000005
 20
-59.331600000000002
 30
0.0
 10
-55.248400000000004
 20
-59.331600000000002
 30
0.0
 10
-54.837200000000003
 20
-59.162300000000002
 30
0.0
 10
-54.491400000000006
 20
-58.8202
 30
0.0
 10
-54.491400000000006
 20
-58.8202
 30
0.0
 10
-54.143900000000002
 20
-58.480000000000004
 30
0.0
 10
-53.971000000000004
 20
-58.088800000000006
 30
0.0
 10
-53.971000000000004
 20
-57.648400000000002
 30
0.0
 10
-53.971000000000004
 20
-57.648400000000002
 30
0.0
 10
-53.971000000000004
 20
-57.264500000000005
 30
0.0
 10
-54.102000000000004
 20
-56.946000000000005
 30
0.0
 10
-54.360400000000006
 20
-56.6967
 30
0.0
 10
-54.360400000000006
 20
-56.6967
 30
0.0
 10
-54.620600000000003
 20
-56.445600000000006
 30
0.0
 10
-54.968200000000003
 20
-56.320100000000004
 30
0.0
 10
-55.404900000000005
 20
-56.320100000000004
 30
0.0
 10
-55.404900000000005
 20
-56.320100000000004
 30
0.0
 10
-55.455800000000004
 20
-56.320100000000004
 30
0.0
 10
-55.557700000000004
 20
-56.327400000000004
 30
0.0
 10
-55.714200000000005
 20
-56.341900000000003
 30
0.0
 10
-55.714200000000005
 20
-56.341900000000003
 30
0.0
 10
-55.714200000000005
 20
-56.341900000000003
 30
0.0
 10
-55.5486
 20
-55.535800000000002
 30
0.0
 10
-55.5486
 20
-55.535800000000002
 30
0.0
 10
-55.5486
 20
-55.535800000000002
 30
0.0
 10
-55.457700000000003
 20
-55.550400000000003
 30
0.0
 10
-55.368500000000004
 20
-55.557700000000004
 30
0.0
 10
-55.283000000000001
 20
-55.557700000000004
 30
0.0
 10
-55.283000000000001
 20
-55.557700000000004
 30
0.0
 10
-54.7316
 20
-55.557700000000004
 30
0.0
 10
-54.307700000000004
 20
-55.423000000000002
 30
0.0
 10
-54.011100000000006
 20
-55.155500000000004
 30
0.0
 10
-54.011100000000006
 20
-55.155500000000004
 30
0.0
 10
-53.714500000000001
 20
-54.886200000000002
 30
0.0
 10
-53.567100000000003
 20
-54.556900000000006
 30
0.0
 10
-53.567100000000003
 20
-54.165700000000001
 30
0.0
 10
-53.567100000000003
 20
-54.165700000000001
 30
0.0
 10
-53.567100000000003
 20
-53.807200000000002
 30
0.0
 10
-53.687200000000004
 20
-53.505100000000006
 30
0.0
 10
-53.931000000000004
 20
-53.259500000000003
 30
0.0
 10
-53.931000000000004
 20
-53.259500000000003
 30
0.0
 10
-54.174800000000005
 20
-53.015700000000002
 30
0.0
 10
-54.473200000000006
 20
-52.8919
 30
0.0
 10
-54.824400000000004
 20
-52.8919
 30
0.0
 10
-54.824400000000004
 20
-52.8919
 30
0.0
 10
-55.168300000000002
 20
-52.8919
 30
0.0
 10
-55.479500000000002
 20
-53.017500000000005
 30
0.0
 10
-55.754300000000001
 20
-53.268599999999999
 30
0.0
 10
-55.754300000000001
 20
-53.268599999999999
 30
0.0
 10
-56.030799999999999
 20
-53.5197
 30
0.0
 10
-56.207300000000004
 20
-53.872700000000002
 30
0.0
 10
-56.285600000000002
 20
-54.331200000000003
 30
0.0
 10
-56.285600000000002
 20
-54.331200000000003
 30
0.0
 10
-56.285600000000002
 20
-54.331200000000003
 30
0.0
 10
-57.233600000000003
 20
-54.1402
 30
0.0
 10
-57.233600000000003
 20
-54.1402
 30
0.0
 10
-57.233600000000003
 20
-54.1402
 30
0.0
 10
-57.077100000000002
 20
-53.496000000000002
 30
0.0
 10
-56.776900000000005
 20
-52.999300000000005
 30
0.0
 10
-56.332900000000002
 20
-52.648099999999999
 30
0.0
 10
-56.332900000000002
 20
-52.648099999999999
 30
0.0
 10
-55.8889
 20
-52.295100000000005
 30
0.0
 10
-55.363
 20
-52.118600000000001
 30
0.0
 10
-54.755300000000005
 20
-52.118600000000001
 30
0.0
 10
-54.755300000000005
 20
-52.118600000000001
 30
0.0
 10
-54.114800000000002
 20
-52.118600000000001
 30
0.0
 10
-53.598000000000006
 20
-52.313300000000005
 30
0.0
 10
-53.201300000000003
 20
-52.700900000000004
 30
0.0
 10
-53.201300000000003
 20
-52.700900000000004
 30
0.0
 10
-52.804700000000004
 20
-53.0884
 30
0.0
 10
-52.606300000000005
 20
-53.563400000000001
 30
0.0
 10
-52.606300000000005
 20
-54.129300000000001
 30
0.0
 10
-52.606300000000005
 20
-54.129300000000001
 30
0.0
 10
-52.606300000000005
 20
-54.542300000000004
 30
0.0
 10
-52.713700000000003
 20
-54.900800000000004
 30
0.0
 10
-52.928400000000003
 20
-55.208300000000001
 30
0.0
 10
-52.928400000000003
 20
-55.208300000000001
 30
0.0
 10
-53.1449
 20
-55.515800000000006
 30
0.0
 10
-53.467000000000006
 20
-55.770600000000002
 30
0.0
 10
-53.8964
 20
-55.974400000000003
 30
0.0
 10
-53.8964
 20
-55.974400000000003
 30
0.0
 10
-53.590700000000005
 20
-56.154500000000006
 30
0.0
 10
-53.363300000000002
 20
-56.372900000000001
 30
0.0
 10
-53.212299999999999
 20
-56.629400000000004
 30
0.0
 10
-53.212299999999999
 20
-56.629400000000004
 30
0.0
 10
-53.061199999999999
 20
-56.886000000000003
 30
0.0
 10
-52.9848
 20
-57.178900000000006
 30
0.0
 10
-52.9848
 20
-57.508300000000006
 30
0.0
 10
-52.9848
 20
-57.508300000000006
 30
0.0
 10
-52.9848
 20
-58.2089
 30
0.0
 10
-53.2468
 20
-58.816600000000001
 30
0.0
 10
-53.770900000000005
 20
-59.329700000000003
 30
0.0
 10
-53.770900000000005
 20
-59.329700000000003
 30
0.0
 10
-54.294900000000005
 20
-59.8429
 30
0.0
 10
-54.922700000000006
 20
-60.099400000000003
 30
0.0
 10
-55.650500000000001
 20
-60.099400000000003
 30
0.0
 10
-55.650500000000001
 20
-60.099400000000003
 30
0.0
 10
-56.358400000000003
 20
-60.099400000000003
 30
0.0
 10
-56.929700000000004
 20
-59.9011
 30
0.0
 10
-57.364600000000003
 20
-59.5062
 30
0.0
 10
-57.364600000000003
 20
-59.5062
 30
0.0
 10
-57.799500000000002
 20
-59.1096
 30
0.0
 10
-58.043300000000002
 20
-58.580100000000002
 30
0.0
 10
-58.092500000000001
 20
-57.919499999999999
 30
0.0
  0
SPLINE
  5
206
100
AcDbEntity
  8
LC-007-003-----0
370
    20
100
AcDbSpline
210
0.0
220
0.0
230
1.0
 70
     0
 71
     3
 72
     8
 73
     4
 74
     0
 42
0.0000000001
 43
0.0000000001
 40
0.0
 40
0.0
 40
0.0
 40
0.0
 40
1.0
 40
1.0
 40
1.0
 40
1.0
 10
-34.215299999999999
 20
-39.361899999999999
 30
0.0
 10
-34.215299999999999
 20
-39.361899999999999
 30
0.0
 10
-34.215299999999999
 20
-67.743800000000007
 30
0.0
 10
-34.215299999999999
 20
-67.743800000000007
 30
0.0
  0
SPLINE
  5
207
100
AcDbEntity
  8
LC-007-003-----0
370
    20
100
AcDbSpline
210
0.0
220
0.0
230
1.0
 70
     0
 71
     3
 72
     8
 73
     4
 74
     0
 42
0.0000000001
 43
0.0000000001
 40
0.0
 40
0.0
 40
0.0
 40
0.0
 40
1.0
 40
1.0
 40
1.0
 40
1.0
 10
-89.162700000000001
 20
-35.997599999999998
 30
0.0
 10
-89.162700000000001
 20
-35.997599999999998
 30
0.0
 10
-89.162700000000001
 20
-67.743800000000007
 30
0.0
 10
-89.162700000000001
 20
-67.743800000000007
 30
0.0
  0
SPLINE
  5
208
100
AcDbEntity
  8
LC-007-003-----0
370
    20
100
AcDbSpline
210
0.0
220
0.0
230
1.0
 70
     0
 71
     3
 72
     8
 73
     4
 74
     0
 42
0.0000000001
 43
0.0000000001
 40
0.0
 40
0.0
 40
0.0
 40
0.0
 40
1.0
 40
1.0
 40
1.0
 40
1.0
 10
-44.896799999999999
 20
-59.848200000000006
 30
0.0
 10
-44.896799999999999
 20
-59.848200000000006
 30
0.0
 10
-34.1813
 20
-61.259
 30
0.0
 10
-34.1813
 20
-61.259
 30
0.0
  0
SPLINE
  5
209
100
AcDbEntity
  8
LC-007-003-----0
370
    20
100
AcDbSpline
210
0.0
220
0.0
230
1.0
 70
     0
 71
     3
 72
     8
 73
     4
 74
     0
 42
0.0000000001
 43
0.0000000001
 40
0.0
 40
0.0
 40
0.0
 40
0.0
 40
1.0
 40
1.0
 40
1.0
 40
1.0
 10
-34.1813
 20
-61.259
 30
0.0
 10
-34.1813
 20
-61.259
 30
0.0
 10
-44.896799999999999
 20
-62.669800000000002
 30
0.0
 10
-44.896799999999999
 20
-62.669800000000002
 30
0.0
  0
SPLINE
  5
20A
100
AcDbEntity
  8
LC-007-003-----0
370
    20
100
AcDbSpline
210
0.0
220
0.0
230
1.0
 70
     0
 71
     3
 72
     8
 73
     4
 74
     0
 42
0.0000000001
 43
0.0000000001
 40
0.0
 40
0.0
 40
0.0
 40
0.0
 40
1.0
 40
1.0
 40
1.0
 40
1.0
 10
-44.896799999999999
 20
-62.669800000000002
 30
0.0
 10
-44.896799999999999
 20
-62.669800000000002
 30
0.0
 10
-44.896799999999999
 20
-59.848200000000006
 30
0.0
 10
-44.896799999999999
 20
-59.848200000000006
 30
0.0
  0
SPLINE
  5
20B
100
AcDbEntity
  8
LC-007-003-----0
370
    20
100
AcDbSpline
210
0.0
220
0.0
230
1.0
 70
     0
 71
     3
 72
     8
 73
     4
 74
     0
 42
0.0000000001
 43
0.0000000001
 40
0.0
 40
0.0
 40
0.0
 40
0.0
 40
1.0
 40
1.0
 40
1.0
 40
1.0
 10
-44.9208
 20
-60.2151
 30
0.0
 10
-44.9208
 20
-60.2151
 30
0.0
 10
-36.991300000000003
 20
-61.259
 30
0.0
 10
-36.991300000000003
 20
-61.259
 30
0.0
  0
SPLINE
  5
20C
100
AcDbEntity
  8
LC-007-003-----0
370
    20
100
AcDbSpline
210
0.0
220
0.0
230
1.0
 70
     0
 71
     3
 72
     8
 73
     4
 74
     0
 42
0.0000000001
 43
0.0000000001
 40
0.0
 40
0.0
 40
0.0
 40
0.0
 40
1.0
 40
1.0
 40
1.0
 40
1.0
 10
-36.991300000000003
 20
-61.259
 30
0.0
 10
-36.991300000000003
 20
-61.259
 30
0.0
 10
-44.9208
 20
-62.302900000000001
 30
0.0
 10
-44.9208
 20
-62.302900000000001
 30
0.0
  0
SPLINE
  5
20D
100
AcDbEntity
  8
LC-007-003-----0
370
    20
100
AcDbSpline
210
0.0
220
0.0
230
1.0
 70
     0
 71
     3
 72
     8
 73
     4
 74
     0
 42
0.0000000001
 43
0.0000000001
 40
0.0
 40
0.0
 40
0.0
 40
0.0
 40
1.0
 40
1.0
 40
1.0
 40
1.0
 10
-44.944800000000001
 20
-60.581800000000001
 30
0.0
 10
-44.944800000000001
 20
-60.581800000000001
 30
0.0
 10
-39.801400000000001
 20
-61.259
 30
0.0
 10
-39.801400000000001
 20
-61.259
 30
0.0
  0
SPLINE
  5
20E
100
AcDbEntity
  8
LC-007-003-----0
370
    20
100
AcDbSpline
210
0.0
220
0.0
230
1.0
 70
     0
 71
     3
 72
     8
 73
     4
 74
     0
 42
0.0000000001
 43
0.0000000001
 40
0.0
 40
0.0
 40
0.0
 40
0.0
 40
1.0
 40
1.0
 40
1.0
 40
1.0
 10
-39.801400000000001
 20
-61.259
 30
0.0
 10
-39.801400000000001
 20
-61.259
 30
0.0
 10
-44.944800000000001
 20
-61.936199999999999
 30
0.0
 10
-44.944800000000001
 20
-61.936199999999999
 30
0.0
  0
SPLINE
  5
20F
100
AcDbEntity
  8
LC-007-003-----0
370
    20
100
AcDbSpline
210
0.0
220
0.0
230
1.0
 70
     0
 71
     3
 72
     8
 73
     4
 74
     0
 42
0.0000000001
 43
0.0000000001
 40
0.0
 40
0.0
 40
0.0
 40
0.0
 40
1.0
 40
1.0
 40
1.0
 40
1.0
 10
-44.968800000000002
 20
-60.948700000000002
 30
0.0
 10
-44.968800000000002
 20
-60.948700000000002
 30
0.0
 10
-42.611400000000003
 20
-61.259
 30
0.0
 10
-42.611400000000003
 20
-61.259
 30
0.0
  0
SPLINE
  5
210
100
AcDbEntity
  8
LC-007-003-----0
370
    20
100
AcDbSpline
210
0.0
220
0.0
230
1.0
 70
     0
 71
     3
 72
     8
 73
     4
 74
     0
 42
0.0000000001
 43
0.0000000001
 40
0.0
 40
0.0
 40
0.0
 40
0.0
 40
1.0
 40
1.0
 40
1.0
 40
1.0
 10
-42.611400000000003
 20
-61.259
 30
0.0
 10
-42.611400000000003
 20
-61.259
 30
0.0
 10
-44.968800000000002
 20
-61.569300000000005
 30
0.0
 10
-44.968800000000002
 20
-61.569300000000005
 30
0.0
  0
SPLINE
  5
211
100
AcDbEntity
  8
LC-007-003-----0
370
    20
100
AcDbSpline
210
0.0
220
0.0
230
1.0
 70
     0
 71
     3
 72
     8
 73
     4
 74
     0
 42
0.0000000001
 43
0.0000000001
 40
0.0
 40
0.0
 40
0.0
 40
0.0
 40
1.0
 40
1.0
 40
1.0
 40
1.0
 10
-78.498800000000003
 20
-62.603300000000004
 30
0.0
 10
-78.498800000000003
 20
-62.603300000000004
 30
0.0
 10
-89.214300000000009
 20
-61.192500000000003
 30
0.0
 10
-89.214300000000009
 20
-61.192500000000003
 30
0.0
  0
SPLINE
  5
212
100
AcDbEntity
  8
LC-007-003-----0
370
    20
100
AcDbSpline
210
0.0
220
0.0
230
1.0
 70
     0
 71
     3
 72
     8
 73
     4
 74
     0
 42
0.0000000001
 43
0.0000000001
 40
0.0
 40
0.0
 40
0.0
 40
0.0
 40
1.0
 40
1.0
 40
1.0
 40
1.0
 10
-89.214300000000009
 20
-61.192500000000003
 30
0.0
 10
-89.214300000000009
 20
-61.192500000000003
 30
0.0
 10
-78.498800000000003
 20
-59.781700000000001
 30
0.0
 10
-78.498800000000003
 20
-59.781700000000001
 30
0.0
  0
SPLINE
  5
213
100
AcDbEntity
  8
LC-007-003-----0
370
    20
100
AcDbSpline
210
0.0
220
0.0
230
1.0
 70
     0
 71
     3
 72
     8
 73
     4
 74
     0
 42
0.0000000001
 43
0.0000000001
 40
0.0
 40
0.0
 40
0.0
 40
0.0
 40
1.0
 40
1.0
 40
1.0
 40
1.0
 10
-78.498800000000003
 20
-59.781700000000001
 30
0.0
 10
-78.498800000000003
 20
-59.781700000000001
 30
0.0
 10
-78.498800000000003
 20
-62.603300000000004
 30
0.0
 10
-78.498800000000003
 20
-62.603300000000004
 30
0.0
  0
SPLINE
  5
214
100
AcDbEntity
  8
LC-007-003-----0
370
    20
100
AcDbSpline
210
0.0
220
0.0
230
1.0
 70
     0
 71
     3
 72
     8
 73
     4
 74
     0
 42
0.0000000001
 43
0.0000000001
 40
0.0
 40
0.0
 40
0.0
 40
0.0
 40
1.0
 40
1.0
 40
1.0
 40
1.0
 10
-78.474699999999999
 20
-62.236400000000003
 30
0.0
 10
-78.474699999999999
 20
-62.236400000000003
 30
0.0
 10
-86.404200000000003
 20
-61.192500000000003
 30
0.0
 10
-86.404200000000003
 20
-61.192500000000003
 30
0.0
  0
SPLINE
  5
215
100
AcDbEntity
  8
LC-007-003-----0
370
    20
100
AcDbSpline
210
0.0
220
0.0
230
1.0
 70
     0
 71
     3
 72
     8
 73
     4
 74
     0
 42
0.0000000001
 43
0.0000000001
 40
0.0
 40
0.0
 40
0.0
 40
0.0
 40
1.0
 40
1.0
 40
1.0
 40
1.0
 10
-86.404200000000003
 20
-61.192500000000003
 30
0.0
 10
-86.404200000000003
 20
-61.192500000000003
 30
0.0
 10
-78.474699999999999
 20
-60.148600000000002
 30
0.0
 10
-78.474699999999999
 20
-60.148600000000002
 30
0.0
  0
SPLINE
  5
216
100
AcDbEntity
  8
LC-007-003-----0
370
    20
100
AcDbSpline
210
0.0
220
0.0
230
1.0
 70
     0
 71
     3
 72
     8
 73
     4
 74
     0
 42
0.0000000001
 43
0.0000000001
 40
0.0
 40
0.0
 40
0.0
 40
0.0
 40
1.0
 40
1.0
 40
1.0
 40
1.0
 10
-78.450600000000009
 20
-61.869700000000002
 30
0.0
 10
-78.450600000000009
 20
-61.869700000000002
 30
0.0
 10
-83.594099999999997
 20
-61.192500000000003
 30
0.0
 10
-83.594099999999997
 20
-61.192500000000003
 30
0.0
  0
SPLINE
  5
217
100
AcDbEntity
  8
LC-007-003-----0
370
    20
100
AcDbSpline
210
0.0
220
0.0
230
1.0
 70
     0
 71
     3
 72
     8
 73
     4
 74
     0
 42
0.0000000001
 43
0.0000000001
 40
0.0
 40
0.0
 40
0.0
 40
0.0
 40
1.0
 40
1.0
 40
1.0
 40
1.0
 10
-83.594099999999997
 20
-61.192500000000003
 30
0.0
 10
-83.594099999999997
 20
-61.192500000000003
 30
0.0
 10
-78.450600000000009
 20
-60.515300000000003
 30
0.0
 10
-78.450600000000009
 20
-60.515300000000003
 30
0.0
  0
SPLINE
  5
218
100
AcDbEntity
  8
LC-007-003-----0
370
    20
100
AcDbSpline
210
0.0
220
0.0
230
1.0
 70
     0
 71
     3
 72
     8
 73
     4
 74
     0
 42
0.0000000001
 43
0.0000000001
 40
0.0
 40
0.0
 40
0.0
 40
0.0
 40
1.0
 40
1.0
 40
1.0
 40
1.0
 10
-78.426600000000008
 20
-61.502800000000001
 30
0.0
 10
-78.426600000000008
 20
-61.502800000000001
 30
0.0
 10
-80.784000000000006
 20
-61.192500000000003
 30
0.0
 10
-80.784000000000006
 20
-61.192500000000003
 30
0.0
  0
SPLINE
  5
219
100
AcDbEntity
  8
LC-007-003-----0
370
    20
100
AcDbSpline
210
0.0
220
0.0
230
1.0
 70
     0
 71
     3
 72
     8
 73
     4
 74
     0
 42
0.0000000001
 43
0.0000000001
 40
0.0
 40
0.0
 40
0.0
 40
0.0
 40
1.0
 40
1.0
 40
1.0
 40
1.0
 10
-80.784000000000006
 20
-61.192500000000003
 30
0.0
 10
-80.784000000000006
 20
-61.192500000000003
 30
0.0
 10
-78.426600000000008
 20
-60.882200000000005
 30
0.0
 10
-78.426600000000008
 20
-60.882200000000005
 30
0.0
  0
SPLINE
  5
21A
100
AcDbEntity
  8
LC-007-003-----0
370
    20
100
AcDbSpline
210
0.0
220
0.0
230
1.0
 70
     0
 71
     3
 72
     8
 73
     4
 74
     0
 42
0.0000000001
 43
0.0000000001
 40
0.0
 40
0.0
 40
0.0
 40
0.0
 40
1.0
 40
1.0
 40
1.0
 40
1.0
 10
-34.215299999999999
 20
-61.259
 30
0.0
 10
-34.215299999999999
 20
-61.259
 30
0.0
 10
-89.162700000000001
 20
-61.259
 30
0.0
 10
-89.162700000000001
 20
-61.259
 30
0.0
  0
ENDSEC
  0
SECTION
  2
OBJECTS
  0
DICTIONARY
  5
19
100
AcDbDictionary
280
     0
281
     1
  3
ACAD_GROUP
350
1A
  3
ACAD_MLINESTYLE
350
1B
  3
ACAD_LAYOUT
350
1E
  3
ACAD_PLOTSETTINGS
350
22
  3
ACAD_PLOTSTYLENAME
350
1F
  3
ACAD_WIPEOUT_VARS
350
23
  0
DICTIONARY
  5
1A
102
{ACAD_REACTORS
330
19
102
}
100
AcDbDictionary
280
     0
281
     1
  0
DICTIONARY
  5
1B
102
{ACAD_REACTORS
330
19
102
}
100
AcDbDictionary
280
     0
281
     1
  3
Standard
350
1C
  0
MLINESTYLE
  5
1C
102
{ACAD_REACTORS
330
1B
102
}
100
AcDbMlineStyle
  2
Standard
 70
     0
  3

 62
     0
 51
90.0
 52
90.0
 71
     2
 49
0.5
 62
   256
  6
BYLAYER
 49
-0.5
 62
   256
  6
BYLAYER
  0
ACDBDICTIONARYWDFLT
  5
1F
102
{ACAD_REACTORS
330
19
102
}
100
AcDbDictionary
281
     1
  3
Normal
350
1D
100
AcDbDictionaryWithDefault
340
1D
  0
ACDBPLACEHOLDER
  5
1D
102
{ACAD_REACTORS
330
1F
102
}
  0
LAYOUT
  5
20
102
{ACAD_REACTORS
330
1E
102
}
100
AcDbPlotSettings
  1

  2

  4

  6

 40
0.0
 41
0.0
 42
0.0
 43
0.0
 44
0.0
 45
0.0
 46
0.0
 47
0.0
 48
0.0
 49
0.0
140
0.0
141
0.0
142
1.0
143
1.0
 70
  1024
 72
     0
 73
     0
 74
     0
  7

 75
     0
147
1.0
148
0.0
149
0.0
100
AcDbLayout
  1
Model
 70
     0
 71
     0
 10
0.0
 20
0.0
 11
0.0
 21
0.0
 12
0.0
 22
0.0
 32
0.0
 14
0.0
 24
0.0
 34
0.0
 15
0.0
 25
0.0
 35
0.0
146
0.0
 13
0.0
 23
0.0
 33
0.0
 16
0.0
 26
0.0
 36
0.0
 17
0.0
 27
0.0
 37
0.0
 76
     0
330
A
331
0
345
0
346
0
  0
LAYOUT
  5
21
102
{ACAD_REACTORS
330
1E
102
}
100
AcDbPlotSettings
  1

  2

  4

  6

 40
0.0
 41
0.0
 42
0.0
 43
0.0
 44
0.0
 45
0.0
 46
0.0
 47
0.0
 48
0.0
 49
0.0
140
0.0
141
0.0
142
1.0
143
1.0
 70
     0
 72
     0
 73
     0
 74
     0
  7

 75
     0
147
1.0
148
0.0
149
0.0
100
AcDbLayout
  1
Layout1
 70
     0
 71
     0
 10
0.0
 20
0.0
 11
0.0
 21
0.0
 12
0.0
 22
0.0
 32
0.0
 14
0.0
 24
0.0
 34
0.0
 15
0.0
 25
0.0
 35
0.0
146
0.0
 13
0.0
 23
0.0
 33
0.0
 16
0.0
 26
0.0
 36
0.0
 17
0.0
 27
0.0
 37
0.0
 76
     0
330
B
331
0
345
0
346
0
  0
DICTIONARY
  5
1E
102
{ACAD_REACTORS
330
19
102
}
100
AcDbDictionary
280
     0
281
     1
  3
Layout1
350
21
  3
Model
350
20
  0
DICTIONARY
  5
22
102
{ACAD_REACTORS
330
19
102
}
100
AcDbDictionary
280
     0
281
     1
  0
WIPEOUTVARIABLES
  5
23
100
AcDbWipeoutVariables
 70
     1
  0
ENDSEC
  0
EOF
