  0
SECTION
  2
HEADER
  9
$ACADVER
  1
AC1018
  9
$ACADMAINTVER
 70
     0
  9
$DWGCODEPAGE
  3
ANSI_1252
  9
$INSBASE
 10
0.0
 20
0.0
 30
0.0
  9
$EXTMIN
 10
-68.9765
 20
-1.4802
 30
0.0
  9
$EXTMAX
 10
137.1451
 20
49.665
 30
0.0
  9
$LIMMIN
 10
0.0
 20
0.0
  9
$LIMMAX
 10
12.0
 20
9.0
  9
$ORTHOMODE
 70
     0
  9
$REGENMODE
 70
     1
  9
$FILLMODE
 70
     1
  9
$QTEXTMODE
 70
     0
  9
$MIRRTEXT
 70
     1
  9
$LTSCALE
 40
1.0
  9
$ATTMODE
 70
     1
  9
$TEXTSIZE
 40
0.2
  9
$TRACEWID
 40
0.05
  9
$TEXTSTYLE
  7
Standard
  9
$CLAYER
  8
0
  9
$CELTYPE
  6
ByLayer
  9
$CECOLOR
 62
   256
  9
$CELTSCALE
 40
1.0
  9
$DISPSILH
 70
     0
  9
$DIMSCALE
 40
1.0
  9
$DIMASZ
 40
0.18
  9
$DIMEXO
 40
0.0625
  9
$DIMDLI
 40
0.38
  9
$DIMRND
 40
0.0
  9
$DIMDLE
 40
0.0
  9
$DIMEXE
 40
0.18
  9
$DIMTP
 40
0.0
  9
$DIMTM
 40
0.0
  9
$DIMTXT
 40
0.18
  9
$DIMCEN
 40
0.09
  9
$DIMTSZ
 40
0.0
  9
$DIMTOL
 70
     0
  9
$DIMLIM
 70
     0
  9
$DIMTIH
 70
     1
  9
$DIMTOH
 70
     1
  9
$DIMSE1
 70
     0
  9
$DIMSE2
 70
     0
  9
$DIMTAD
 70
     0
  9
$DIMZIN
 70
     0
  9
$DIMBLK
  1

  9
$DIMASO
 70
     1
  9
$DIMSHO
 70
     1
  9
$DIMPOST
  1

  9
$DIMAPOST
  1

  9
$DIMALT
 70
     0
  9
$DIMALTD
 70
     2
  9
$DIMALTF
 40
25.4
  9
$DIMLFAC
 40
1.0
  9
$DIMTOFL
 70
     0
  9
$DIMTVP
 40
0.0
  9
$DIMTIX
 70
     0
  9
$DIMSOXD
 70
     0
  9
$DIMSAH
 70
     0
  9
$DIMBLK1
  1

  9
$DIMBLK2
  1

  9
$DIMSTYLE
  2
Standard
  9
$DIMCLRD
 70
     0
  9
$DIMCLRE
 70
     0
  9
$DIMCLRT
 70
     0
  9
$DIMTFAC
 40
1.0
  9
$DIMGAP
 40
0.09
  9
$DIMJUST
 70
     0
  9
$DIMSD1
 70
     0
  9
$DIMSD2
 70
     0
  9
$DIMTOLJ
 70
     1
  9
$DIMTZIN
 70
     0
  9
$DIMALTZ
 70
     0
  9
$DIMALTTZ
 70
     0
  9
$DIMUPT
 70
     0
  9
$DIMDEC
 70
     4
  9
$DIMTDEC
 70
     4
  9
$DIMALTU
 70
     2
  9
$DIMALTTD
 70
     2
  9
$DIMTXSTY
  7
Standard
  9
$DIMAUNIT
 70
     0
  9
$DIMADEC
 70
     0
  9
$DIMALTRND
 40
0.0
  9
$DIMAZIN
 70
     0
  9
$DIMDSEP
 70
    46
  9
$DIMATFIT
 70
     3
  9
$DIMFRAC
 70
     0
  9
$DIMLDRBLK
  1

  9
$DIMLUNIT
 70
     2
  9
$DIMLWD
 70
    -2
  9
$DIMLWE
 70
    -2
  9
$DIMTMOVE
 70
     0
  9
$LUNITS
 70
     2
  9
$LUPREC
 70
     4
  9
$SKETCHINC
 40
0.1
  9
$FILLETRAD
 40
0.5
  9
$AUNITS
 70
     0
  9
$AUPREC
 70
     0
  9
$MENU
  1
.
  9
$ELEVATION
 40
0.0
  9
$PELEVATION
 40
0.0
  9
$THICKNESS
 40
0.0
  9
$LIMCHECK
 70
     0
  9
$CHAMFERA
 40
0.5
  9
$CHAMFERB
 40
0.5
  9
$CHAMFERC
 40
1.0
  9
$CHAMFERD
 40
0.0
  9
$SKPOLY
 70
     0
  9
$TDCREATE
 40
2454775.286508923
  9
$TDUCREATE
 40
2454775.244842257
  9
$TDUPDATE
 40
2454775.286508935
  9
$TDUUPDATE
 40
2454775.244842269
  9
$TDINDWG
 40
0.0000000116
  9
$TDUSRTIMER
 40
0.0000000116
  9
$USRTIMER
 70
     1
  9
$ANGBASE
 50
0.0
  9
$ANGDIR
 70
     0
  9
$PDMODE
 70
     0
  9
$PDSIZE
 40
0.0
  9
$PLINEWID
 40
0.0
  9
$SPLFRAME
 70
     0
  9
$SPLINETYPE
 70
     6
  9
$SPLINESEGS
 70
     8
  9
$HANDSEED
  5
70
  9
$SURFTAB1
 70
     6
  9
$SURFTAB2
 70
     6
  9
$SURFTYPE
 70
     6
  9
$SURFU
 70
     6
  9
$SURFV
 70
     6
  9
$UCSBASE
  2

  9
$UCSNAME
  2

  9
$UCSORG
 10
0.0
 20
0.0
 30
0.0
  9
$UCSXDIR
 10
1.0
 20
0.0
 30
0.0
  9
$UCSYDIR
 10
0.0
 20
1.0
 30
0.0
  9
$UCSORTHOREF
  2

  9
$UCSORTHOVIEW
 70
     0
  9
$UCSORGTOP
 10
0.0
 20
0.0
 30
0.0
  9
$UCSORGBOTTOM
 10
0.0
 20
0.0
 30
0.0
  9
$UCSORGLEFT
 10
0.0
 20
0.0
 30
0.0
  9
$UCSORGRIGHT
 10
0.0
 20
0.0
 30
0.0
  9
$UCSORGFRONT
 10
0.0
 20
0.0
 30
0.0
  9
$UCSORGBACK
 10
0.0
 20
0.0
 30
0.0
  9
$PUCSBASE
  2

  9
$PUCSNAME
  2

  9
$PUCSORG
 10
0.0
 20
0.0
 30
0.0
  9
$PUCSXDIR
 10
1.0
 20
0.0
 30
0.0
  9
$PUCSYDIR
 10
0.0
 20
1.0
 30
0.0
  9
$PUCSORTHOREF
  2

  9
$PUCSORTHOVIEW
 70
     0
  9
$PUCSORGTOP
 10
0.0
 20
0.0
 30
0.0
  9
$PUCSORGBOTTOM
 10
0.0
 20
0.0
 30
0.0
  9
$PUCSORGLEFT
 10
0.0
 20
0.0
 30
0.0
  9
$PUCSORGRIGHT
 10
0.0
 20
0.0
 30
0.0
  9
$PUCSORGFRONT
 10
0.0
 20
0.0
 30
0.0
  9
$PUCSORGBACK
 10
0.0
 20
0.0
 30
0.0
  9
$USERI1
 70
     0
  9
$USERI2
 70
     0
  9
$USERI3
 70
     0
  9
$USERI4
 70
     0
  9
$USERI5
 70
     0
  9
$USERR1
 40
0.0
  9
$USERR2
 40
0.0
  9
$USERR3
 40
0.0
  9
$USERR4
 40
0.0
  9
$USERR5
 40
0.0
  9
$WORLDVIEW
 70
     1
  9
$SHADEDGE
 70
     3
  9
$SHADEDIF
 70
    70
  9
$TILEMODE
 70
     1
  9
$MAXACTVP
 70
    64
  9
$PINSBASE
 10
0.0
 20
0.0
 30
0.0
  9
$PLIMCHECK
 70
     0
  9
$PEXTMIN
 10
1.000000000000000E+20
 20
1.000000000000000E+20
 30
1.000000000000000E+20
  9
$PEXTMAX
 10
-1.000000000000000E+20
 20
-1.000000000000000E+20
 30
-1.000000000000000E+20
  9
$PLIMMIN
 10
0.0
 20
0.0
  9
$PLIMMAX
 10
12.0
 20
9.0
  9
$UNITMODE
 70
     0
  9
$VISRETAIN
 70
     1
  9
$PLINEGEN
 70
     0
  9
$PSLTSCALE
 70
     1
  9
$TREEDEPTH
 70
  3020
  9
$CMLSTYLE
  2
Standard
  9
$CMLJUST
 70
     0
  9
$CMLSCALE
 40
1.0
  9
$PROXYGRAPHICS
 70
     1
  9
$MEASUREMENT
 70
     0
  9
$CELWEIGHT
370
    -1
  9
$ENDCAPS
280
     0
  9
$JOINSTYLE
280
     0
  9
$LWDISPLAY
290
     0
  9
$INSUNITS
 70
     4
  9
$HYPERLINKBASE
  1

  9
$STYLESHEET
  1

  9
$XEDIT
290
     1
  9
$CEPSNTYPE
380
     0
  9
$PSTYLEMODE
290
     0
  9
$FINGERPRINTGUID
  2
{FAEB1C30-E019-11D5-929B-00C0DF256EC4}
  9
$VERSIONGUID
  2
{FAEB1C32-E019-11D5-929B-00C0DF256EC4}
  9
$EXTNAMES
290
     1
  9
$PSVPSCALE
 40
0.0
  9
$OLESTARTUP
290
     0
  9
$SORTENTS
280
   127
  9
$INDEXCTL
280
     0
  9
$HIDETEXT
280
     1
  9
$XCLIPFRAME
290
     0
  9
$HALOGAP
280
     0
  9
$OBSCOLOR
 70
   257
  9
$OBSLTYPE
280
     0
  9
$INTERSECTIONDISPLAY
280
     0
  9
$INTERSECTIONCOLOR
 70
   257
  9
$DIMASSOC
280
     2
  9
$PROJECTNAME
  1

  0
ENDSEC
  0
SECTION
  2
CLASSES
  0
CLASS
  1
ACDBDICTIONARYWDFLT
  2
AcDbDictionaryWithDefault
  3
ObjectDBX Classes
 90
        0
 91
        1
280
     0
281
     0
  0
ENDSEC
  0
SECTION
  2
TABLES
  0
TABLE
  2
VPORT
  5
8
330
0
100
AcDbSymbolTable
 70
     2
  0
VPORT
  5
29
330
8
100
AcDbSymbolTableRecord
100
AcDbViewportTableRecord
  2
*Active
 70
     0
 10
0.0
 20
0.0
 11
1.0
 21
1.0
 12
10.42990654205607
 22
4.5
 13
0.0
 23
0.0
 14
0.5
 24
0.5
 15
0.5
 25
0.5
 16
0.0
 26
0.0
 36
1.0
 17
0.0
 27
0.0
 37
0.0
 40
9.0
 41
1.972972972850329
 42
50.0
 43
0.0
 44
0.0
 50
0.0
 51
0.0
 71
     0
 72
   100
 73
     1
 74
     3
 75
     0
 76
     0
 77
     0
 78
     0
281
     0
 65
     1
110
0.0
120
0.0
130
0.0
111
1.0
121
0.0
131
0.0
112
0.0
122
1.0
132
0.0
 79
     0
146
0.0
  0
ENDTAB
  0
TABLE
  2
LTYPE
  5
5
330
0
100
AcDbSymbolTable
 70
     2
  0
LTYPE
  5
14
330
5
100
AcDbSymbolTableRecord
100
AcDbLinetypeTableRecord
  2
ByBlock
 70
     0
  3

 72
    65
 73
     0
 40
0.0
  0
LTYPE
  5
15
330
5
100
AcDbSymbolTableRecord
100
AcDbLinetypeTableRecord
  2
ByLayer
 70
     0
  3

 72
    65
 73
     0
 40
0.0
  0
LTYPE
  5
16
330
5
100
AcDbSymbolTableRecord
100
AcDbLinetypeTableRecord
  2
Continuous
 70
     0
  3
Solid line
 72
    65
 73
     0
 40
0.0
  0
LTYPE
  5
6F
330
5
100
AcDbSymbolTableRecord
100
AcDbLinetypeTableRecord
  2
New Line1
 70
     0
  3

 72
    65
 73
     4
 40
20.2
 49
12.7
 74
     4
 75
     0
340
0
 46
1.0
 50
0.0
 44
0.0
 45
0.0
 49
-2.5
 74
     4
 75
     0
340
0
 46
1.0
 50
0.0
 44
0.0
 45
0.0
 49
2.5
 74
     4
 75
     0
340
0
 46
1.0
 50
0.0
 44
0.0
 45
0.0
 49
-2.5
 74
     4
 75
     0
340
0
 46
1.0
 50
0.0
 44
0.0
 45
0.0
  0
ENDTAB
  0
TABLE
  2
LAYER
  5
2
330
0
100
AcDbSymbolTable
 70
     2
  0
LAYER
  5
10
330
2
100
AcDbSymbolTableRecord
100
AcDbLayerTableRecord
  2
0
 70
     0
 62
     7
  6
Continuous
370
    -3
390
F
  0
LAYER
  5
2B
330
2
100
AcDbSymbolTableRecord
100
AcDbLayerTableRecord
  2
LC-012-007-KH--0
 70
     0
 62
     7
  6
Continuous
370
    -3
390
F
  0
ENDTAB
  0
TABLE
  2
STYLE
  5
3
330
0
100
AcDbSymbolTable
 70
     1
  0
STYLE
  5
11
330
3
100
AcDbSymbolTableRecord
100
AcDbTextStyleTableRecord
  2
Standard
 70
     0
 40
0.0
 41
1.0
 50
0.0
 71
     0
 42
0.2
  3
txt
  4

  0
ENDTAB
  0
TABLE
  2
VIEW
  5
6
330
0
100
AcDbSymbolTable
 70
     0
  0
ENDTAB
  0
TABLE
  2
UCS
  5
7
330
0
100
AcDbSymbolTable
 70
     0
  0
ENDTAB
  0
TABLE
  2
APPID
  5
9
330
0
100
AcDbSymbolTable
 70
     2
  0
APPID
  5
12
330
9
100
AcDbSymbolTableRecord
100
AcDbRegAppTableRecord
  2
ACAD
 70
     0
  0
APPID
  5
2A
330
9
100
AcDbSymbolTableRecord
100
AcDbRegAppTableRecord
  2
ODA
 70
     0
  0
ENDTAB
  0
TABLE
  2
DIMSTYLE
  5
A
330
0
100
AcDbSymbolTable
 70
     1
100
AcDbDimStyleTable
  0
DIMSTYLE
105
27
330
A
100
AcDbSymbolTableRecord
100
AcDbDimStyleTableRecord
  2
Standard
 70
     0
340
11
  0
ENDTAB
  0
TABLE
  2
BLOCK_RECORD
  5
1
330
0
100
AcDbSymbolTable
 70
     1
  0
BLOCK_RECORD
  5
1F
330
1
100
AcDbSymbolTableRecord
100
AcDbBlockTableRecord
  2
*Model_Space
340
22
  0
BLOCK_RECORD
  5
1B
330
1
100
AcDbSymbolTableRecord
100
AcDbBlockTableRecord
  2
*Paper_Space
340
1E
  0
BLOCK_RECORD
  5
23
330
1
100
AcDbSymbolTableRecord
100
AcDbBlockTableRecord
  2
*Paper_Space0
340
26
  0
ENDTAB
  0
ENDSEC
  0
SECTION
  2
BLOCKS
  0
BLOCK
  5
20
330
1F
100
AcDbEntity
  8
0
100
AcDbBlockBegin
  2
*Model_Space
 70
     0
 71
     0
 10
0.0
 20
0.0
 30
0.0
  3
*Model_Space
  1

  0
ENDBLK
  5
21
330
1F
100
AcDbEntity
  8
0
100
AcDbBlockEnd
  0
BLOCK
  5
1C
330
1B
100
AcDbEntity
 67
     1
  8
0
100
AcDbBlockBegin
  2
*Paper_Space
 70
     0
 71
     0
 10
0.0
 20
0.0
 30
0.0
  3
*Paper_Space
  1

  0
ENDBLK
  5
1D
330
1B
100
AcDbEntity
 67
     1
  8
0
100
AcDbBlockEnd
  0
BLOCK
  5
24
330
23
100
AcDbEntity
  8
0
100
AcDbBlockBegin
  2
*Paper_Space0
 70
     0
 71
     0
 10
0.0
 20
0.0
 30
0.0
  3
*Paper_Space0
  1

  0
ENDBLK
  5
25
330
23
100
AcDbEntity
  8
0
100
AcDbBlockEnd
  0
ENDSEC
  0
SECTION
  2
ENTITIES
  0
SPLINE
  5
2C
330
1F
100
AcDbEntity
  8
LC-012-007-KH--0
 62
   250
100
AcDbSpline
210
0.0
220
0.0
230
1.0
 70
    11
 71
     3
 72
    96
 73
    92
 74
     0
 42
0.0000000001
 43
0.0000000001
 40
0.0
 40
0.0
 40
0.0
 40
0.0
 40
0.0434782608695652
 40
0.0434782608695652
 40
0.0434782608695652
 40
0.0434782608695652
 40
0.0869565217391304
 40
0.0869565217391304
 40
0.0869565217391304
 40
0.0869565217391304
 40
0.1304347826086957
 40
0.1304347826086957
 40
0.1304347826086957
 40
0.1304347826086957
 40
0.1739130434782609
 40
0.1739130434782609
 40
0.1739130434782609
 40
0.1739130434782609
 40
0.2173913043478261
 40
0.2173913043478261
 40
0.2173913043478261
 40
0.2173913043478261
 40
0.2608695652173913
 40
0.2608695652173913
 40
0.2608695652173913
 40
0.2608695652173913
 40
0.3043478260869565
 40
0.3043478260869565
 40
0.3043478260869565
 40
0.3043478260869565
 40
0.3478260869565217
 40
0.3478260869565217
 40
0.3478260869565217
 40
0.3478260869565217
 40
0.3913043478260869
 40
0.3913043478260869
 40
0.3913043478260869
 40
0.3913043478260869
 40
0.4347826086956521
 40
0.4347826086956521
 40
0.4347826086956521
 40
0.4347826086956521
 40
0.4782608695652173
 40
0.4782608695652173
 40
0.4782608695652173
 40
0.4782608695652173
 40
0.5217391304347825
 40
0.5217391304347825
 40
0.5217391304347825
 40
0.5217391304347825
 40
0.5652173913043477
 40
0.5652173913043477
 40
0.5652173913043477
 40
0.5652173913043477
 40
0.6086956521739129
 40
0.6086956521739129
 40
0.6086956521739129
 40
0.6086956521739129
 40
0.6521739130434781
 40
0.6521739130434781
 40
0.6521739130434781
 40
0.6521739130434781
 40
0.6956521739130432
 40
0.6956521739130432
 40
0.6956521739130432
 40
0.6956521739130432
 40
0.7391304347826084
 40
0.7391304347826084
 40
0.7391304347826084
 40
0.7391304347826084
 40
0.7826086956521736
 40
0.7826086956521736
 40
0.7826086956521736
 40
0.7826086956521736
 40
0.8260869565217388
 40
0.8260869565217388
 40
0.8260869565217388
 40
0.8260869565217388
 40
0.869565217391304
 40
0.869565217391304
 40
0.869565217391304
 40
0.869565217391304
 40
0.9130434782608692
 40
0.9130434782608692
 40
0.9130434782608692
 40
0.9130434782608692
 40
0.9565217391304344
 40
0.9565217391304344
 40
0.9565217391304344
 40
0.9565217391304344
 40
1.0
 40
1.0
 40
1.0
 40
1.0
 10
9.3703
 20
37.533
 30
0.0
 10
9.478200000000001
 20
38.0448
 30
0.0
 10
9.6302
 20
38.4726
 30
0.0
 10
9.8241
 20
38.8184
 30
0.0
 10
9.8241
 20
38.8184
 30
0.0
 10
10.016
 20
39.1642
 30
0.0
 10
10.2738
 20
39.4921
 30
0.0
 10
10.5937
 20
39.8019
 30
0.0
 10
10.5937
 20
39.8019
 30
0.0
 10
10.9136
 20
40.11380000000001
 30
0.0
 10
11.5313
 20
40.6336
 30
0.0
 10
12.4448
 20
41.3632
 30
0.0
 10
12.4448
 20
41.3632
 30
0.0
 10
12.9986
 20
41.805
 30
0.0
 10
13.3764
 20
42.1309
 30
0.0
 10
13.5803
 20
42.3408
 30
0.0
 10
13.5803
 20
42.3408
 30
0.0
 10
13.8722
 20
42.6466
 30
0.0
 10
14.0861
 20
42.94450000000001
 30
0.0
 10
14.218
 20
43.2383
 30
0.0
 10
14.218
 20
43.2383
 30
0.0
 10
14.308
 20
43.4362
 30
0.0
 10
14.3539
 20
43.6541
 30
0.0
 10
14.3539
 20
43.88800000000001
 30
0.0
 10
14.3539
 20
43.88800000000001
 30
0.0
 10
14.3539
 20
44.2818
 30
0.0
 10
14.214
 20
44.6157
 30
0.0
 10
13.9341
 20
44.8916
 30
0.0
 10
13.9341
 20
44.8916
 30
0.0
 10
13.6563
 20
45.1674
 30
0.0
 10
13.3124
 20
45.3054
 30
0.0
 10
12.9066
 20
45.3054
 30
0.0
 10
12.9066
 20
45.3054
 30
0.0
 10
12.5048
 20
45.3054
 30
0.0
 10
12.153
 20
45.16540000000001
 30
0.0
 10
11.8531
 20
44.8856
 30
0.0
 10
11.8531
 20
44.8856
 30
0.0
 10
11.5513
 20
44.6077
 30
0.0
 10
11.3374
 20
44.15790000000001
 30
0.0
 10
11.2074
 20
43.5422
 30
0.0
 10
11.2074
 20
43.5422
 30
0.0
 10
11.2074
 20
43.5422
 30
0.0
 10
10.1719
 20
43.6941
 30
0.0
 10
10.1719
 20
43.6941
 30
0.0
 10
10.1719
 20
43.6941
 30
0.0
 10
10.2738
 20
44.4558
 30
0.0
 10
10.5697
 20
45.0555
 30
0.0
 10
11.0595
 20
45.4953
 30
0.0
 10
11.0595
 20
45.4953
 30
0.0
 10
11.5493
 20
45.93510000000001
 30
0.0
 10
12.159
 20
46.155
 30
0.0
 10
12.8886
 20
46.155
 30
0.0
 10
12.8886
 20
46.155
 30
0.0
 10
13.3764
 20
46.155
 30
0.0
 10
13.8202
 20
46.053
 30
0.0
 10
14.216
 20
45.8491
 30
0.0
 10
14.216
 20
45.8491
 30
0.0
 10
14.6118
 20
45.64720000000001
 30
0.0
 10
14.9097
 20
45.3613
 30
0.0
 10
15.1096
 20
44.9935
 30
0.0
 10
15.1096
 20
44.9935
 30
0.0
 10
15.3075
 20
44.6277
 30
0.0
 10
15.4075
 20
44.2479
 30
0.0
 10
15.4075
 20
43.858
 30
0.0
 10
15.4075
 20
43.858
 30
0.0
 10
15.4075
 20
43.2883
 30
0.0
 10
15.2055
 20
42.73860000000001
 30
0.0
 10
14.7977
 20
42.2128
 30
0.0
 10
14.7977
 20
42.2128
 30
0.0
 10
14.5479
 20
41.88500000000001
 30
0.0
 10
13.8142
 20
41.2393
 30
0.0
 10
12.5968
 20
40.27370000000001
 30
0.0
 10
12.5968
 20
40.27370000000001
 30
0.0
 10
12.073
 20
39.8599
 30
0.0
 10
11.6832
 20
39.5201
 30
0.0
 10
11.4273
 20
39.2542
 30
0.0
 10
11.4273
 20
39.2542
 30
0.0
 10
11.1714
 20
38.99030000000001
 30
0.0
 10
10.9795
 20
38.7404
 30
0.0
 10
10.8516
 20
38.5045
 30
0.0
 10
10.8516
 20
38.5045
 30
0.0
 10
10.8516
 20
38.5045
 30
0.0
 10
14.6938
 20
38.5045
 30
0.0
 10
14.6938
 20
38.5045
 30
0.0
 10
14.6938
 20
38.5045
 30
0.0
 10
14.6938
 20
38.5045
 30
0.0
 10
14.4879
 20
37.533
 30
0.0
 10
14.4879
 20
37.533
 30
0.0
 10
14.4879
 20
37.533
 30
0.0
 10
14.4879
 20
37.533
 30
0.0
 10
9.3703
 20
37.533
 30
0.0
 10
9.3703
 20
37.533
 30
0.0
  0
SPLINE
  5
2D
330
1F
100
AcDbEntity
  8
LC-012-007-KH--0
 62
   250
100
AcDbSpline
210
0.0
220
0.0
230
1.0
 70
    11
 71
     3
 72
    52
 73
    48
 74
     0
 42
0.0000000001
 43
0.0000000001
 40
0.0
 40
0.0
 40
0.0
 40
0.0
 40
0.0833333333333333
 40
0.0833333333333333
 40
0.0833333333333333
 40
0.0833333333333333
 40
0.1666666666666667
 40
0.1666666666666667
 40
0.1666666666666667
 40
0.1666666666666667
 40
0.25
 40
0.25
 40
0.25
 40
0.25
 40
0.3333333333333333
 40
0.3333333333333333
 40
0.3333333333333333
 40
0.3333333333333333
 40
0.4166666666666666
 40
0.4166666666666666
 40
0.4166666666666666
 40
0.4166666666666666
 40
0.4999999999999999
 40
0.4999999999999999
 40
0.4999999999999999
 40
0.4999999999999999
 40
0.5833333333333333
 40
0.5833333333333333
 40
0.5833333333333333
 40
0.5833333333333333
 40
0.6666666666666666
 40
0.6666666666666666
 40
0.6666666666666666
 40
0.6666666666666666
 40
0.75
 40
0.75
 40
0.75
 40
0.75
 40
0.8333333333333334
 40
0.8333333333333334
 40
0.8333333333333334
 40
0.8333333333333334
 40
0.9166666666666667
 40
0.9166666666666667
 40
0.9166666666666667
 40
0.9166666666666667
 40
1.0
 40
1.0
 40
1.0
 40
1.0
 10
16.1871
 20
40.3497
 30
0.0
 10
16.1871
 20
41.0753
 30
0.0
 10
16.2951
 20
41.81500000000001
 30
0.0
 10
16.511
 20
42.5647
 30
0.0
 10
16.511
 20
42.5647
 30
0.0
 10
16.7289
 20
43.3143
 30
0.0
 10
16.9687
 20
43.912
 30
0.0
 10
17.2346
 20
44.3618
 30
0.0
 10
17.2346
 20
44.3618
 30
0.0
 10
17.5005
 20
44.81160000000001
 30
0.0
 10
17.7764
 20
45.1614
 30
0.0
 10
18.0602
 20
45.4153
 30
0.0
 10
18.0602
 20
45.4153
 30
0.0
 10
18.3461
 20
45.6692
 30
0.0
 10
18.626
 20
45.8571
 30
0.0
 10
18.9018
 20
45.97510000000001
 30
0.0
 10
18.9018
 20
45.97510000000001
 30
0.0
 10
19.1757
 20
46.095
 30
0.0
 10
19.4816
 20
46.155
 30
0.0
 10
19.8174
 20
46.155
 30
0.0
 10
19.8174
 20
46.155
 30
0.0
 10
20.4731
 20
46.155
 30
0.0
 10
21.0208
 20
45.9091
 30
0.0
 10
21.4606
 20
45.4213
 30
0.0
 10
21.4606
 20
45.4213
 30
0.0
 10
21.9004
 20
44.9335
 30
0.0
 10
22.1203
 20
44.2299
 30
0.0
 10
22.1203
 20
43.3083
 30
0.0
 10
22.1203
 20
43.3083
 30
0.0
 10
22.1203
 20
42.3587
 30
0.0
 10
21.9664
 20
41.4192
 30
0.0
 10
21.6625
 20
40.49160000000001
 30
0.0
 10
21.6625
 20
40.49160000000001
 30
0.0
 10
21.3027
 20
39.3901
 30
0.0
 10
20.8029
 20
38.5645
 30
0.0
 10
20.1632
 20
38.0128
 30
0.0
 10
20.1632
 20
38.0128
 30
0.0
 10
19.6715
 20
37.595
 30
0.0
 10
19.1117
 20
37.3871
 30
0.0
 10
18.482
 20
37.3871
 30
0.0
 10
18.482
 20
37.3871
 30
0.0
 10
17.8383
 20
37.3871
 30
0.0
 10
17.2946
 20
37.639
 30
0.0
 10
16.8508
 20
38.1447
 30
0.0
 10
16.8508
 20
38.1447
 30
0.0
 10
16.409
 20
38.6505
 30
0.0
 10
16.1871
 20
39.3861
 30
0.0
 10
16.1871
 20
40.3497
 30
0.0
  0
SPLINE
  5
2E
330
1F
100
AcDbEntity
  8
LC-012-007-KH--0
 62
   250
100
AcDbSpline
210
0.0
220
0.0
230
1.0
 70
    11
 71
     3
 72
    48
 73
    44
 74
     0
 42
0.0000000001
 43
0.0000000001
 40
0.0
 40
0.0
 40
0.0
 40
0.0
 40
0.0909090909090909
 40
0.0909090909090909
 40
0.0909090909090909
 40
0.0909090909090909
 40
0.1818181818181818
 40
0.1818181818181818
 40
0.1818181818181818
 40
0.1818181818181818
 40
0.2727272727272727
 40
0.2727272727272727
 40
0.2727272727272727
 40
0.2727272727272727
 40
0.3636363636363637
 40
0.3636363636363637
 40
0.3636363636363637
 40
0.3636363636363637
 40
0.4545454545454546
 40
0.4545454545454546
 40
0.4545454545454546
 40
0.4545454545454546
 40
0.5454545454545455
 40
0.5454545454545455
 40
0.5454545454545455
 40
0.5454545454545455
 40
0.6363636363636365
 40
0.6363636363636365
 40
0.6363636363636365
 40
0.6363636363636365
 40
0.7272727272727274
 40
0.7272727272727274
 40
0.7272727272727274
 40
0.7272727272727274
 40
0.8181818181818183
 40
0.8181818181818183
 40
0.8181818181818183
 40
0.8181818181818183
 40
0.9090909090909093
 40
0.9090909090909093
 40
0.9090909090909093
 40
0.9090909090909093
 40
1.0
 40
1.0
 40
1.0
 40
1.0
 10
17.2126
 20
40.0798
 30
0.0
 10
17.2126
 20
39.55410000000001
 30
0.0
 10
17.2986
 20
39.1422
 30
0.0
 10
17.4745
 20
38.8444
 30
0.0
 10
17.4745
 20
38.8444
 30
0.0
 10
17.7124
 20
38.4346
 30
0.0
 10
18.0662
 20
38.2307
 30
0.0
 10
18.536
 20
38.2307
 30
0.0
 10
18.536
 20
38.2307
 30
0.0
 10
18.9458
 20
38.2307
 30
0.0
 10
19.3176
 20
38.4146
 30
0.0
 10
19.6535
 20
38.7864
 30
0.0
 10
19.6535
 20
38.7864
 30
0.0
 10
20.1373
 20
39.3102
 30
0.0
 10
20.5031
 20
40.0758
 30
0.0
 10
20.747
 20
41.0853
 30
0.0
 10
20.747
 20
41.0853
 30
0.0
 10
20.9909
 20
42.0949
 30
0.0
 10
21.1128
 20
42.9185
 30
0.0
 10
21.1128
 20
43.5602
 30
0.0
 10
21.1128
 20
43.5602
 30
0.0
 10
21.1128
 20
44.1759
 30
0.0
 10
20.9949
 20
44.6217
 30
0.0
 10
20.757
 20
44.8956
 30
0.0
 10
20.757
 20
44.8956
 30
0.0
 10
20.5211
 20
45.1674
 30
0.0
 10
20.2112
 20
45.3054
 30
0.0
 10
19.8234
 20
45.3054
 30
0.0
 10
19.8234
 20
45.3054
 30
0.0
 10
19.5435
 20
45.3054
 30
0.0
 10
19.2797
 20
45.2334
 30
0.0
 10
19.0358
 20
45.08750000000001
 30
0.0
 10
19.0358
 20
45.08750000000001
 30
0.0
 10
18.7919
 20
44.9435
 30
0.0
 10
18.558
 20
44.6957
 30
0.0
 10
18.3361
 20
44.3438
 30
0.0
 10
18.3361
 20
44.3438
 30
0.0
 10
18.0202
 20
43.8481
 30
0.0
 10
17.7444
 20
43.1064
 30
0.0
 10
17.5105
 20
42.1189
 30
0.0
 10
17.5105
 20
42.1189
 30
0.0
 10
17.3106
 20
41.2753
 30
0.0
 10
17.2126
 20
40.59560000000001
 30
0.0
 10
17.2126
 20
40.0798
 30
0.0
  0
SPLINE
  5
2F
330
1F
100
AcDbEntity
  8
LC-012-007-KH--0
 62
   250
100
AcDbSpline
210
0.0
220
0.0
230
1.0
 70
    11
 71
     3
 72
    96
 73
    92
 74
     0
 42
0.0000000001
 43
0.0000000001
 40
0.0
 40
0.0
 40
0.0
 40
0.0
 40
0.0434782608695652
 40
0.0434782608695652
 40
0.0434782608695652
 40
0.0434782608695652
 40
0.0869565217391304
 40
0.0869565217391304
 40
0.0869565217391304
 40
0.0869565217391304
 40
0.1304347826086957
 40
0.1304347826086957
 40
0.1304347826086957
 40
0.1304347826086957
 40
0.1739130434782609
 40
0.1739130434782609
 40
0.1739130434782609
 40
0.1739130434782609
 40
0.2173913043478261
 40
0.2173913043478261
 40
0.2173913043478261
 40
0.2173913043478261
 40
0.2608695652173913
 40
0.2608695652173913
 40
0.2608695652173913
 40
0.2608695652173913
 40
0.3043478260869565
 40
0.3043478260869565
 40
0.3043478260869565
 40
0.3043478260869565
 40
0.3478260869565217
 40
0.3478260869565217
 40
0.3478260869565217
 40
0.3478260869565217
 40
0.3913043478260869
 40
0.3913043478260869
 40
0.3913043478260869
 40
0.3913043478260869
 40
0.4347826086956521
 40
0.4347826086956521
 40
0.4347826086956521
 40
0.4347826086956521
 40
0.4782608695652173
 40
0.4782608695652173
 40
0.4782608695652173
 40
0.4782608695652173
 40
0.5217391304347825
 40
0.5217391304347825
 40
0.5217391304347825
 40
0.5217391304347825
 40
0.5652173913043477
 40
0.5652173913043477
 40
0.5652173913043477
 40
0.5652173913043477
 40
0.6086956521739129
 40
0.6086956521739129
 40
0.6086956521739129
 40
0.6086956521739129
 40
0.6521739130434781
 40
0.6521739130434781
 40
0.6521739130434781
 40
0.6521739130434781
 40
0.6956521739130432
 40
0.6956521739130432
 40
0.6956521739130432
 40
0.6956521739130432
 40
0.7391304347826084
 40
0.7391304347826084
 40
0.7391304347826084
 40
0.7391304347826084
 40
0.7826086956521736
 40
0.7826086956521736
 40
0.7826086956521736
 40
0.7826086956521736
 40
0.8260869565217388
 40
0.8260869565217388
 40
0.8260869565217388
 40
0.8260869565217388
 40
0.869565217391304
 40
0.869565217391304
 40
0.869565217391304
 40
0.869565217391304
 40
0.9130434782608692
 40
0.9130434782608692
 40
0.9130434782608692
 40
0.9130434782608692
 40
0.9565217391304344
 40
0.9565217391304344
 40
0.9565217391304344
 40
0.9565217391304344
 40
1.0
 40
1.0
 40
1.0
 40
1.0
 10
22.7121
 20
37.533
 30
0.0
 10
22.82
 20
38.0448
 30
0.0
 10
22.972
 20
38.4726
 30
0.0
 10
23.1659
 20
38.8184
 30
0.0
 10
23.1659
 20
38.8184
 30
0.0
 10
23.3578
 20
39.1642
 30
0.0
 10
23.6156
 20
39.4921
 30
0.0
 10
23.9355
 20
39.8019
 30
0.0
 10
23.9355
 20
39.8019
 30
0.0
 10
24.2554
 20
40.11380000000001
 30
0.0
 10
24.8731
 20
40.6336
 30
0.0
 10
25.7866
 20
41.3632
 30
0.0
 10
25.7866
 20
41.3632
 30
0.0
 10
26.3404
 20
41.805
 30
0.0
 10
26.7182
 20
42.1309
 30
0.0
 10
26.9221
 20
42.3408
 30
0.0
 10
26.9221
 20
42.3408
 30
0.0
 10
27.214
 20
42.6466
 30
0.0
 10
27.4279
 20
42.94450000000001
 30
0.0
 10
27.5598
 20
43.2383
 30
0.0
 10
27.5598
 20
43.2383
 30
0.0
 10
27.6498
 20
43.4362
 30
0.0
 10
27.6957
 20
43.6541
 30
0.0
 10
27.6957
 20
43.88800000000001
 30
0.0
 10
27.6957
 20
43.88800000000001
 30
0.0
 10
27.6957
 20
44.2818
 30
0.0
 10
27.5558
 20
44.6157
 30
0.0
 10
27.2759
 20
44.8916
 30
0.0
 10
27.2759
 20
44.8916
 30
0.0
 10
26.9981
 20
45.1674
 30
0.0
 10
26.6542
 20
45.3054
 30
0.0
 10
26.2484
 20
45.3054
 30
0.0
 10
26.2484
 20
45.3054
 30
0.0
 10
25.8466
 20
45.3054
 30
0.0
 10
25.4948
 20
45.16540000000001
 30
0.0
 10
25.1949
 20
44.8856
 30
0.0
 10
25.1949
 20
44.8856
 30
0.0
 10
24.8931
 20
44.6077
 30
0.0
 10
24.6792
 20
44.15790000000001
 30
0.0
 10
24.5492
 20
43.5422
 30
0.0
 10
24.5492
 20
43.5422
 30
0.0
 10
24.5492
 20
43.5422
 30
0.0
 10
23.5137
 20
43.6941
 30
0.0
 10
23.5137
 20
43.6941
 30
0.0
 10
23.5137
 20
43.6941
 30
0.0
 10
23.6156
 20
44.4558
 30
0.0
 10
23.9115
 20
45.0555
 30
0.0
 10
24.4013
 20
45.4953
 30
0.0
 10
24.4013
 20
45.4953
 30
0.0
 10
24.8911
 20
45.93510000000001
 30
0.0
 10
25.5008
 20
46.155
 30
0.0
 10
26.2304
 20
46.155
 30
0.0
 10
26.2304
 20
46.155
 30
0.0
 10
26.7182
 20
46.155
 30
0.0
 10
27.162
 20
46.053
 30
0.0
 10
27.5578
 20
45.8491
 30
0.0
 10
27.5578
 20
45.8491
 30
0.0
 10
27.9536
 20
45.64720000000001
 30
0.0
 10
28.2515
 20
45.3613
 30
0.0
 10
28.4514
 20
44.9935
 30
0.0
 10
28.4514
 20
44.9935
 30
0.0
 10
28.6493
 20
44.6277
 30
0.0
 10
28.7493
 20
44.2479
 30
0.0
 10
28.7493
 20
43.858
 30
0.0
 10
28.7493
 20
43.858
 30
0.0
 10
28.7493
 20
43.2883
 30
0.0
 10
28.5473
 20
42.73860000000001
 30
0.0
 10
28.1395
 20
42.2128
 30
0.0
 10
28.1395
 20
42.2128
 30
0.0
 10
27.8897
 20
41.88500000000001
 30
0.0
 10
27.156
 20
41.2393
 30
0.0
 10
25.9386
 20
40.27370000000001
 30
0.0
 10
25.9386
 20
40.27370000000001
 30
0.0
 10
25.4148
 20
39.8599
 30
0.0
 10
25.025
 20
39.5201
 30
0.0
 10
24.7691
 20
39.2542
 30
0.0
 10
24.7691
 20
39.2542
 30
0.0
 10
24.5132
 20
38.99030000000001
 30
0.0
 10
24.3213
 20
38.7404
 30
0.0
 10
24.1934
 20
38.5045
 30
0.0
 10
24.1934
 20
38.5045
 30
0.0
 10
24.1934
 20
38.5045
 30
0.0
 10
28.0356
 20
38.5045
 30
0.0
 10
28.0356
 20
38.5045
 30
0.0
 10
28.0356
 20
38.5045
 30
0.0
 10
28.0356
 20
38.5045
 30
0.0
 10
27.8297
 20
37.533
 30
0.0
 10
27.8297
 20
37.533
 30
0.0
 10
27.8297
 20
37.533
 30
0.0
 10
27.8297
 20
37.533
 30
0.0
 10
22.7121
 20
37.533
 30
0.0
 10
22.7121
 20
37.533
 30
0.0
  0
SPLINE
  5
30
330
1F
100
AcDbEntity
  8
LC-012-007-KH--0
 62
   250
100
AcDbSpline
210
0.0
220
0.0
230
1.0
 70
    11
 71
     3
 72
    60
 73
    56
 74
     0
 42
0.0000000001
 43
0.0000000001
 40
0.0
 40
0.0
 40
0.0
 40
0.0
 40
0.0714285714285714
 40
0.0714285714285714
 40
0.0714285714285714
 40
0.0714285714285714
 40
0.1428571428571429
 40
0.1428571428571429
 40
0.1428571428571429
 40
0.1428571428571429
 40
0.2142857142857143
 40
0.2142857142857143
 40
0.2142857142857143
 40
0.2142857142857143
 40
0.2857142857142857
 40
0.2857142857142857
 40
0.2857142857142857
 40
0.2857142857142857
 40
0.3571428571428571
 40
0.3571428571428571
 40
0.3571428571428571
 40
0.3571428571428571
 40
0.4285714285714285
 40
0.4285714285714285
 40
0.4285714285714285
 40
0.4285714285714285
 40
0.4999999999999999
 40
0.4999999999999999
 40
0.4999999999999999
 40
0.4999999999999999
 40
0.5714285714285713
 40
0.5714285714285713
 40
0.5714285714285713
 40
0.5714285714285713
 40
0.6428571428571427
 40
0.6428571428571427
 40
0.6428571428571427
 40
0.6428571428571427
 40
0.7142857142857141
 40
0.7142857142857141
 40
0.7142857142857141
 40
0.7142857142857141
 40
0.7857142857142855
 40
0.7857142857142855
 40
0.7857142857142855
 40
0.7857142857142855
 40
0.8571428571428569
 40
0.8571428571428569
 40
0.8571428571428569
 40
0.8571428571428569
 40
0.9285714285714283
 40
0.9285714285714283
 40
0.9285714285714283
 40
0.9285714285714283
 40
1.0
 40
1.0
 40
1.0
 40
1.0
 10
31.9937
 20
37.533
 30
0.0
 10
31.9937
 20
37.533
 30
0.0
 10
34.7004
 20
40.6895
 30
0.0
 10
34.7004
 20
40.6895
 30
0.0
 10
34.7004
 20
40.6895
 30
0.0
 10
34.7004
 20
40.6895
 30
0.0
 10
33.14720000000001
 20
43.7521
 30
0.0
 10
33.14720000000001
 20
43.7521
 30
0.0
 10
33.14720000000001
 20
43.7521
 30
0.0
 10
33.14720000000001
 20
43.7521
 30
0.0
 10
34.3186
 20
43.7521
 30
0.0
 10
34.3186
 20
43.7521
 30
0.0
 10
34.3186
 20
43.7521
 30
0.0
 10
34.3186
 20
43.7521
 30
0.0
 10
34.8464
 20
42.6466
 30
0.0
 10
34.8464
 20
42.6466
 30
0.0
 10
34.8464
 20
42.6466
 30
0.0
 10
35.0423
 20
42.23280000000001
 30
0.0
 10
35.2182
 20
41.835
 30
0.0
 10
35.3741
 20
41.4572
 30
0.0
 10
35.3741
 20
41.4572
 30
0.0
 10
35.3741
 20
41.4572
 30
0.0
 10
37.1653
 20
43.7521
 30
0.0
 10
37.1653
 20
43.7521
 30
0.0
 10
37.1653
 20
43.7521
 30
0.0
 10
37.1653
 20
43.7521
 30
0.0
 10
38.4607
 20
43.7521
 30
0.0
 10
38.4607
 20
43.7521
 30
0.0
 10
38.4607
 20
43.7521
 30
0.0
 10
38.4607
 20
43.7521
 30
0.0
 10
35.8479
 20
40.60760000000001
 30
0.0
 10
35.8479
 20
40.60760000000001
 30
0.0
 10
35.8479
 20
40.60760000000001
 30
0.0
 10
35.8479
 20
40.60760000000001
 30
0.0
 10
37.4172
 20
37.533
 30
0.0
 10
37.4172
 20
37.533
 30
0.0
 10
37.4172
 20
37.533
 30
0.0
 10
37.4172
 20
37.533
 30
0.0
 10
36.2457
 20
37.533
 30
0.0
 10
36.2457
 20
37.533
 30
0.0
 10
36.2457
 20
37.533
 30
0.0
 10
36.2457
 20
37.533
 30
0.0
 10
35.62600000000001
 20
38.7984
 30
0.0
 10
35.62600000000001
 20
38.7984
 30
0.0
 10
35.62600000000001
 20
38.7984
 30
0.0
 10
35.4921
 20
39.0683
 30
0.0
 10
35.3421
 20
39.4021
 30
0.0
 10
35.1742
 20
39.7999
 30
0.0
 10
35.1742
 20
39.7999
 30
0.0
 10
35.1742
 20
39.7999
 30
0.0
 10
33.3231
 20
37.533
 30
0.0
 10
33.3231
 20
37.533
 30
0.0
 10
33.3231
 20
37.533
 30
0.0
 10
33.3231
 20
37.533
 30
0.0
 10
31.9937
 20
37.533
 30
0.0
 10
31.9937
 20
37.533
 30
0.0
  0
SPLINE
  5
31
330
1F
100
AcDbEntity
  8
LC-012-007-KH--0
 62
   250
100
AcDbSpline
210
0.0
220
0.0
230
1.0
 70
    11
 71
     3
 72
    96
 73
    92
 74
     0
 42
0.0000000001
 43
0.0000000001
 40
0.0
 40
0.0
 40
0.0
 40
0.0
 40
0.0434782608695652
 40
0.0434782608695652
 40
0.0434782608695652
 40
0.0434782608695652
 40
0.0869565217391304
 40
0.0869565217391304
 40
0.0869565217391304
 40
0.0869565217391304
 40
0.1304347826086957
 40
0.1304347826086957
 40
0.1304347826086957
 40
0.1304347826086957
 40
0.1739130434782609
 40
0.1739130434782609
 40
0.1739130434782609
 40
0.1739130434782609
 40
0.2173913043478261
 40
0.2173913043478261
 40
0.2173913043478261
 40
0.2173913043478261
 40
0.2608695652173913
 40
0.2608695652173913
 40
0.2608695652173913
 40
0.2608695652173913
 40
0.3043478260869565
 40
0.3043478260869565
 40
0.3043478260869565
 40
0.3043478260869565
 40
0.3478260869565217
 40
0.3478260869565217
 40
0.3478260869565217
 40
0.3478260869565217
 40
0.3913043478260869
 40
0.3913043478260869
 40
0.3913043478260869
 40
0.3913043478260869
 40
0.4347826086956521
 40
0.4347826086956521
 40
0.4347826086956521
 40
0.4347826086956521
 40
0.4782608695652173
 40
0.4782608695652173
 40
0.4782608695652173
 40
0.4782608695652173
 40
0.5217391304347825
 40
0.5217391304347825
 40
0.5217391304347825
 40
0.5217391304347825
 40
0.5652173913043477
 40
0.5652173913043477
 40
0.5652173913043477
 40
0.5652173913043477
 40
0.6086956521739129
 40
0.6086956521739129
 40
0.6086956521739129
 40
0.6086956521739129
 40
0.6521739130434781
 40
0.6521739130434781
 40
0.6521739130434781
 40
0.6521739130434781
 40
0.6956521739130432
 40
0.6956521739130432
 40
0.6956521739130432
 40
0.6956521739130432
 40
0.7391304347826084
 40
0.7391304347826084
 40
0.7391304347826084
 40
0.7391304347826084
 40
0.7826086956521736
 40
0.7826086956521736
 40
0.7826086956521736
 40
0.7826086956521736
 40
0.8260869565217388
 40
0.8260869565217388
 40
0.8260869565217388
 40
0.8260869565217388
 40
0.869565217391304
 40
0.869565217391304
 40
0.869565217391304
 40
0.869565217391304
 40
0.9130434782608692
 40
0.9130434782608692
 40
0.9130434782608692
 40
0.9130434782608692
 40
0.9565217391304344
 40
0.9565217391304344
 40
0.9565217391304344
 40
0.9565217391304344
 40
1.0
 40
1.0
 40
1.0
 40
1.0
 10
42.045
 20
37.533
 30
0.0
 10
42.1529
 20
38.0448
 30
0.0
 10
42.3049
 20
38.4726
 30
0.0
 10
42.4988
 20
38.8184
 30
0.0
 10
42.4988
 20
38.8184
 30
0.0
 10
42.6907
 20
39.1642
 30
0.0
 10
42.9485
 20
39.4921
 30
0.0
 10
43.2684
 20
39.8019
 30
0.0
 10
43.2684
 20
39.8019
 30
0.0
 10
43.5883
 20
40.11380000000001
 30
0.0
 10
44.206
 20
40.6336
 30
0.0
 10
45.1195
 20
41.3632
 30
0.0
 10
45.1195
 20
41.3632
 30
0.0
 10
45.67330000000001
 20
41.805
 30
0.0
 10
46.05110000000001
 20
42.1309
 30
0.0
 10
46.255
 20
42.3408
 30
0.0
 10
46.255
 20
42.3408
 30
0.0
 10
46.5469
 20
42.6466
 30
0.0
 10
46.7608
 20
42.94450000000001
 30
0.0
 10
46.89270000000001
 20
43.2383
 30
0.0
 10
46.89270000000001
 20
43.2383
 30
0.0
 10
46.9827
 20
43.4362
 30
0.0
 10
47.0286
 20
43.6541
 30
0.0
 10
47.0286
 20
43.88800000000001
 30
0.0
 10
47.0286
 20
43.88800000000001
 30
0.0
 10
47.0286
 20
44.2818
 30
0.0
 10
46.8887
 20
44.6157
 30
0.0
 10
46.6088
 20
44.8916
 30
0.0
 10
46.6088
 20
44.8916
 30
0.0
 10
46.331
 20
45.1674
 30
0.0
 10
45.98710000000001
 20
45.3054
 30
0.0
 10
45.5813
 20
45.3054
 30
0.0
 10
45.5813
 20
45.3054
 30
0.0
 10
45.1795
 20
45.3054
 30
0.0
 10
44.8277
 20
45.16540000000001
 30
0.0
 10
44.5278
 20
44.8856
 30
0.0
 10
44.5278
 20
44.8856
 30
0.0
 10
44.226
 20
44.6077
 30
0.0
 10
44.0121
 20
44.15790000000001
 30
0.0
 10
43.8821
 20
43.5422
 30
0.0
 10
43.8821
 20
43.5422
 30
0.0
 10
43.8821
 20
43.5422
 30
0.0
 10
42.8466
 20
43.6941
 30
0.0
 10
42.8466
 20
43.6941
 30
0.0
 10
42.8466
 20
43.6941
 30
0.0
 10
42.9485
 20
44.4558
 30
0.0
 10
43.2444
 20
45.0555
 30
0.0
 10
43.7342
 20
45.4953
 30
0.0
 10
43.7342
 20
45.4953
 30
0.0
 10
44.224
 20
45.93510000000001
 30
0.0
 10
44.8337
 20
46.155
 30
0.0
 10
45.56330000000001
 20
46.155
 30
0.0
 10
45.56330000000001
 20
46.155
 30
0.0
 10
46.05110000000001
 20
46.155
 30
0.0
 10
46.4949
 20
46.053
 30
0.0
 10
46.8907
 20
45.8491
 30
0.0
 10
46.8907
 20
45.8491
 30
0.0
 10
47.2865
 20
45.64720000000001
 30
0.0
 10
47.5844
 20
45.3613
 30
0.0
 10
47.7843
 20
44.9935
 30
0.0
 10
47.7843
 20
44.9935
 30
0.0
 10
47.9822
 20
44.6277
 30
0.0
 10
48.0822
 20
44.2479
 30
0.0
 10
48.0822
 20
43.858
 30
0.0
 10
48.0822
 20
43.858
 30
0.0
 10
48.0822
 20
43.2883
 30
0.0
 10
47.8802
 20
42.73860000000001
 30
0.0
 10
47.4724
 20
42.2128
 30
0.0
 10
47.4724
 20
42.2128
 30
0.0
 10
47.2226
 20
41.88500000000001
 30
0.0
 10
46.4889
 20
41.2393
 30
0.0
 10
45.2715
 20
40.27370000000001
 30
0.0
 10
45.2715
 20
40.27370000000001
 30
0.0
 10
44.7477
 20
39.8599
 30
0.0
 10
44.3579
 20
39.5201
 30
0.0
 10
44.102
 20
39.2542
 30
0.0
 10
44.102
 20
39.2542
 30
0.0
 10
43.8461
 20
38.99030000000001
 30
0.0
 10
43.6542
 20
38.7404
 30
0.0
 10
43.5263
 20
38.5045
 30
0.0
 10
43.5263
 20
38.5045
 30
0.0
 10
43.5263
 20
38.5045
 30
0.0
 10
47.3685
 20
38.5045
 30
0.0
 10
47.3685
 20
38.5045
 30
0.0
 10
47.3685
 20
38.5045
 30
0.0
 10
47.3685
 20
38.5045
 30
0.0
 10
47.16260000000001
 20
37.533
 30
0.0
 10
47.16260000000001
 20
37.533
 30
0.0
 10
47.16260000000001
 20
37.533
 30
0.0
 10
47.16260000000001
 20
37.533
 30
0.0
 10
42.045
 20
37.533
 30
0.0
 10
42.045
 20
37.533
 30
0.0
  0
SPLINE
  5
32
330
1F
100
AcDbEntity
  8
LC-012-007-KH--0
 62
   250
100
AcDbSpline
210
0.0
220
0.0
230
1.0
 70
    11
 71
     3
 72
    52
 73
    48
 74
     0
 42
0.0000000001
 43
0.0000000001
 40
0.0
 40
0.0
 40
0.0
 40
0.0
 40
0.0833333333333333
 40
0.0833333333333333
 40
0.0833333333333333
 40
0.0833333333333333
 40
0.1666666666666667
 40
0.1666666666666667
 40
0.1666666666666667
 40
0.1666666666666667
 40
0.25
 40
0.25
 40
0.25
 40
0.25
 40
0.3333333333333333
 40
0.3333333333333333
 40
0.3333333333333333
 40
0.3333333333333333
 40
0.4166666666666666
 40
0.4166666666666666
 40
0.4166666666666666
 40
0.4166666666666666
 40
0.4999999999999999
 40
0.4999999999999999
 40
0.4999999999999999
 40
0.4999999999999999
 40
0.5833333333333333
 40
0.5833333333333333
 40
0.5833333333333333
 40
0.5833333333333333
 40
0.6666666666666666
 40
0.6666666666666666
 40
0.6666666666666666
 40
0.6666666666666666
 40
0.75
 40
0.75
 40
0.75
 40
0.75
 40
0.8333333333333334
 40
0.8333333333333334
 40
0.8333333333333334
 40
0.8333333333333334
 40
0.9166666666666667
 40
0.9166666666666667
 40
0.9166666666666667
 40
0.9166666666666667
 40
1.0
 40
1.0
 40
1.0
 40
1.0
 10
48.8618
 20
40.3497
 30
0.0
 10
48.8618
 20
41.0753
 30
0.0
 10
48.9698
 20
41.81500000000001
 30
0.0
 10
49.1857
 20
42.5647
 30
0.0
 10
49.1857
 20
42.5647
 30
0.0
 10
49.4036
 20
43.3143
 30
0.0
 10
49.6434
 20
43.912
 30
0.0
 10
49.9093
 20
44.3618
 30
0.0
 10
49.9093
 20
44.3618
 30
0.0
 10
50.1752
 20
44.81160000000001
 30
0.0
 10
50.4511
 20
45.1614
 30
0.0
 10
50.7349
 20
45.4153
 30
0.0
 10
50.7349
 20
45.4153
 30
0.0
 10
51.0208
 20
45.6692
 30
0.0
 10
51.3007
 20
45.8571
 30
0.0
 10
51.5765
 20
45.97510000000001
 30
0.0
 10
51.5765
 20
45.97510000000001
 30
0.0
 10
51.8504
 20
46.095
 30
0.0
 10
52.1563
 20
46.155
 30
0.0
 10
52.4921
 20
46.155
 30
0.0
 10
52.4921
 20
46.155
 30
0.0
 10
53.1478
 20
46.155
 30
0.0
 10
53.6955
 20
45.9091
 30
0.0
 10
54.1353
 20
45.4213
 30
0.0
 10
54.1353
 20
45.4213
 30
0.0
 10
54.57510000000001
 20
44.9335
 30
0.0
 10
54.795
 20
44.2299
 30
0.0
 10
54.795
 20
43.3083
 30
0.0
 10
54.795
 20
43.3083
 30
0.0
 10
54.795
 20
42.3587
 30
0.0
 10
54.6411
 20
41.4192
 30
0.0
 10
54.3372
 20
40.49160000000001
 30
0.0
 10
54.3372
 20
40.49160000000001
 30
0.0
 10
53.9774
 20
39.3901
 30
0.0
 10
53.4776
 20
38.5645
 30
0.0
 10
52.83790000000001
 20
38.0128
 30
0.0
 10
52.83790000000001
 20
38.0128
 30
0.0
 10
52.3462
 20
37.595
 30
0.0
 10
51.7864
 20
37.3871
 30
0.0
 10
51.1567
 20
37.3871
 30
0.0
 10
51.1567
 20
37.3871
 30
0.0
 10
50.51300000000001
 20
37.3871
 30
0.0
 10
49.9693
 20
37.639
 30
0.0
 10
49.5255
 20
38.1447
 30
0.0
 10
49.5255
 20
38.1447
 30
0.0
 10
49.0837
 20
38.6505
 30
0.0
 10
48.8618
 20
39.3861
 30
0.0
 10
48.8618
 20
40.3497
 30
0.0
  0
SPLINE
  5
33
330
1F
100
AcDbEntity
  8
LC-012-007-KH--0
 62
   250
100
AcDbSpline
210
0.0
220
0.0
230
1.0
 70
    11
 71
     3
 72
    48
 73
    44
 74
     0
 42
0.0000000001
 43
0.0000000001
 40
0.0
 40
0.0
 40
0.0
 40
0.0
 40
0.0909090909090909
 40
0.0909090909090909
 40
0.0909090909090909
 40
0.0909090909090909
 40
0.1818181818181818
 40
0.1818181818181818
 40
0.1818181818181818
 40
0.1818181818181818
 40
0.2727272727272727
 40
0.2727272727272727
 40
0.2727272727272727
 40
0.2727272727272727
 40
0.3636363636363637
 40
0.3636363636363637
 40
0.3636363636363637
 40
0.3636363636363637
 40
0.4545454545454546
 40
0.4545454545454546
 40
0.4545454545454546
 40
0.4545454545454546
 40
0.5454545454545455
 40
0.5454545454545455
 40
0.5454545454545455
 40
0.5454545454545455
 40
0.6363636363636365
 40
0.6363636363636365
 40
0.6363636363636365
 40
0.6363636363636365
 40
0.7272727272727274
 40
0.7272727272727274
 40
0.7272727272727274
 40
0.7272727272727274
 40
0.8181818181818183
 40
0.8181818181818183
 40
0.8181818181818183
 40
0.8181818181818183
 40
0.9090909090909093
 40
0.9090909090909093
 40
0.9090909090909093
 40
0.9090909090909093
 40
1.0
 40
1.0
 40
1.0
 40
1.0
 10
49.8873
 20
40.0798
 30
0.0
 10
49.8873
 20
39.55410000000001
 30
0.0
 10
49.9733
 20
39.1422
 30
0.0
 10
50.1492
 20
38.8444
 30
0.0
 10
50.1492
 20
38.8444
 30
0.0
 10
50.3871
 20
38.4346
 30
0.0
 10
50.7409
 20
38.2307
 30
0.0
 10
51.2107
 20
38.2307
 30
0.0
 10
51.2107
 20
38.2307
 30
0.0
 10
51.6205
 20
38.2307
 30
0.0
 10
51.9923
 20
38.4146
 30
0.0
 10
52.3282
 20
38.7864
 30
0.0
 10
52.3282
 20
38.7864
 30
0.0
 10
52.81200000000001
 20
39.3102
 30
0.0
 10
53.17780000000001
 20
40.0758
 30
0.0
 10
53.4217
 20
41.0853
 30
0.0
 10
53.4217
 20
41.0853
 30
0.0
 10
53.66560000000001
 20
42.0949
 30
0.0
 10
53.7875
 20
42.9185
 30
0.0
 10
53.7875
 20
43.5602
 30
0.0
 10
53.7875
 20
43.5602
 30
0.0
 10
53.7875
 20
44.1759
 30
0.0
 10
53.6696
 20
44.6217
 30
0.0
 10
53.4317
 20
44.8956
 30
0.0
 10
53.4317
 20
44.8956
 30
0.0
 10
53.19580000000001
 20
45.1674
 30
0.0
 10
52.8859
 20
45.3054
 30
0.0
 10
52.4981
 20
45.3054
 30
0.0
 10
52.4981
 20
45.3054
 30
0.0
 10
52.2182
 20
45.3054
 30
0.0
 10
51.9544
 20
45.2334
 30
0.0
 10
51.7105
 20
45.08750000000001
 30
0.0
 10
51.7105
 20
45.08750000000001
 30
0.0
 10
51.4666
 20
44.9435
 30
0.0
 10
51.2327
 20
44.6957
 30
0.0
 10
51.0108
 20
44.3438
 30
0.0
 10
51.0108
 20
44.3438
 30
0.0
 10
50.6949
 20
43.8481
 30
0.0
 10
50.4191
 20
43.1064
 30
0.0
 10
50.1852
 20
42.1189
 30
0.0
 10
50.1852
 20
42.1189
 30
0.0
 10
49.9853
 20
41.2753
 30
0.0
 10
49.8873
 20
40.59560000000001
 30
0.0
 10
49.8873
 20
40.0798
 30
0.0
  0
SPLINE
  5
34
330
1F
100
AcDbEntity
  8
LC-012-007-KH--0
 62
   250
100
AcDbSpline
210
0.0
220
0.0
230
1.0
 70
    11
 71
     3
 72
    96
 73
    92
 74
     0
 42
0.0000000001
 43
0.0000000001
 40
0.0
 40
0.0
 40
0.0
 40
0.0
 40
0.0434782608695652
 40
0.0434782608695652
 40
0.0434782608695652
 40
0.0434782608695652
 40
0.0869565217391304
 40
0.0869565217391304
 40
0.0869565217391304
 40
0.0869565217391304
 40
0.1304347826086957
 40
0.1304347826086957
 40
0.1304347826086957
 40
0.1304347826086957
 40
0.1739130434782609
 40
0.1739130434782609
 40
0.1739130434782609
 40
0.1739130434782609
 40
0.2173913043478261
 40
0.2173913043478261
 40
0.2173913043478261
 40
0.2173913043478261
 40
0.2608695652173913
 40
0.2608695652173913
 40
0.2608695652173913
 40
0.2608695652173913
 40
0.3043478260869565
 40
0.3043478260869565
 40
0.3043478260869565
 40
0.3043478260869565
 40
0.3478260869565217
 40
0.3478260869565217
 40
0.3478260869565217
 40
0.3478260869565217
 40
0.3913043478260869
 40
0.3913043478260869
 40
0.3913043478260869
 40
0.3913043478260869
 40
0.4347826086956521
 40
0.4347826086956521
 40
0.4347826086956521
 40
0.4347826086956521
 40
0.4782608695652173
 40
0.4782608695652173
 40
0.4782608695652173
 40
0.4782608695652173
 40
0.5217391304347825
 40
0.5217391304347825
 40
0.5217391304347825
 40
0.5217391304347825
 40
0.5652173913043477
 40
0.5652173913043477
 40
0.5652173913043477
 40
0.5652173913043477
 40
0.6086956521739129
 40
0.6086956521739129
 40
0.6086956521739129
 40
0.6086956521739129
 40
0.6521739130434781
 40
0.6521739130434781
 40
0.6521739130434781
 40
0.6521739130434781
 40
0.6956521739130432
 40
0.6956521739130432
 40
0.6956521739130432
 40
0.6956521739130432
 40
0.7391304347826084
 40
0.7391304347826084
 40
0.7391304347826084
 40
0.7391304347826084
 40
0.7826086956521736
 40
0.7826086956521736
 40
0.7826086956521736
 40
0.7826086956521736
 40
0.8260869565217388
 40
0.8260869565217388
 40
0.8260869565217388
 40
0.8260869565217388
 40
0.869565217391304
 40
0.869565217391304
 40
0.869565217391304
 40
0.869565217391304
 40
0.9130434782608692
 40
0.9130434782608692
 40
0.9130434782608692
 40
0.9130434782608692
 40
0.9565217391304344
 40
0.9565217391304344
 40
0.9565217391304344
 40
0.9565217391304344
 40
1.0
 40
1.0
 40
1.0
 40
1.0
 10
55.3868
 20
37.533
 30
0.0
 10
55.4947
 20
38.0448
 30
0.0
 10
55.6467
 20
38.4726
 30
0.0
 10
55.8406
 20
38.8184
 30
0.0
 10
55.8406
 20
38.8184
 30
0.0
 10
56.03250000000001
 20
39.1642
 30
0.0
 10
56.2903
 20
39.4921
 30
0.0
 10
56.61020000000001
 20
39.8019
 30
0.0
 10
56.61020000000001
 20
39.8019
 30
0.0
 10
56.9301
 20
40.11380000000001
 30
0.0
 10
57.5478
 20
40.6336
 30
0.0
 10
58.4613
 20
41.3632
 30
0.0
 10
58.4613
 20
41.3632
 30
0.0
 10
59.0151
 20
41.805
 30
0.0
 10
59.3929
 20
42.1309
 30
0.0
 10
59.5968
 20
42.3408
 30
0.0
 10
59.5968
 20
42.3408
 30
0.0
 10
59.8887
 20
42.6466
 30
0.0
 10
60.1026
 20
42.94450000000001
 30
0.0
 10
60.2345
 20
43.2383
 30
0.0
 10
60.2345
 20
43.2383
 30
0.0
 10
60.3245
 20
43.4362
 30
0.0
 10
60.3704
 20
43.6541
 30
0.0
 10
60.3704
 20
43.88800000000001
 30
0.0
 10
60.3704
 20
43.88800000000001
 30
0.0
 10
60.3704
 20
44.2818
 30
0.0
 10
60.23050000000001
 20
44.6157
 30
0.0
 10
59.9506
 20
44.8916
 30
0.0
 10
59.9506
 20
44.8916
 30
0.0
 10
59.6728
 20
45.1674
 30
0.0
 10
59.3289
 20
45.3054
 30
0.0
 10
58.92310000000001
 20
45.3054
 30
0.0
 10
58.92310000000001
 20
45.3054
 30
0.0
 10
58.5213
 20
45.3054
 30
0.0
 10
58.1695
 20
45.16540000000001
 30
0.0
 10
57.86960000000001
 20
44.8856
 30
0.0
 10
57.86960000000001
 20
44.8856
 30
0.0
 10
57.56780000000001
 20
44.6077
 30
0.0
 10
57.3539
 20
44.15790000000001
 30
0.0
 10
57.2239
 20
43.5422
 30
0.0
 10
57.2239
 20
43.5422
 30
0.0
 10
57.2239
 20
43.5422
 30
0.0
 10
56.1884
 20
43.6941
 30
0.0
 10
56.1884
 20
43.6941
 30
0.0
 10
56.1884
 20
43.6941
 30
0.0
 10
56.2903
 20
44.4558
 30
0.0
 10
56.58620000000001
 20
45.0555
 30
0.0
 10
57.076
 20
45.4953
 30
0.0
 10
57.076
 20
45.4953
 30
0.0
 10
57.5658
 20
45.93510000000001
 30
0.0
 10
58.1755
 20
46.155
 30
0.0
 10
58.9051
 20
46.155
 30
0.0
 10
58.9051
 20
46.155
 30
0.0
 10
59.3929
 20
46.155
 30
0.0
 10
59.8367
 20
46.053
 30
0.0
 10
60.2325
 20
45.8491
 30
0.0
 10
60.2325
 20
45.8491
 30
0.0
 10
60.6283
 20
45.64720000000001
 30
0.0
 10
60.9262
 20
45.3613
 30
0.0
 10
61.1261
 20
44.9935
 30
0.0
 10
61.1261
 20
44.9935
 30
0.0
 10
61.32400000000001
 20
44.6277
 30
0.0
 10
61.424
 20
44.2479
 30
0.0
 10
61.424
 20
43.858
 30
0.0
 10
61.424
 20
43.858
 30
0.0
 10
61.424
 20
43.2883
 30
0.0
 10
61.222
 20
42.73860000000001
 30
0.0
 10
60.8142
 20
42.2128
 30
0.0
 10
60.8142
 20
42.2128
 30
0.0
 10
60.56440000000001
 20
41.88500000000001
 30
0.0
 10
59.8307
 20
41.2393
 30
0.0
 10
58.6133
 20
40.27370000000001
 30
0.0
 10
58.6133
 20
40.27370000000001
 30
0.0
 10
58.0895
 20
39.8599
 30
0.0
 10
57.6997
 20
39.5201
 30
0.0
 10
57.4438
 20
39.2542
 30
0.0
 10
57.4438
 20
39.2542
 30
0.0
 10
57.18790000000001
 20
38.99030000000001
 30
0.0
 10
56.996
 20
38.7404
 30
0.0
 10
56.86810000000001
 20
38.5045
 30
0.0
 10
56.86810000000001
 20
38.5045
 30
0.0
 10
56.86810000000001
 20
38.5045
 30
0.0
 10
60.7103
 20
38.5045
 30
0.0
 10
60.7103
 20
38.5045
 30
0.0
 10
60.7103
 20
38.5045
 30
0.0
 10
60.7103
 20
38.5045
 30
0.0
 10
60.5044
 20
37.533
 30
0.0
 10
60.5044
 20
37.533
 30
0.0
 10
60.5044
 20
37.533
 30
0.0
 10
60.5044
 20
37.533
 30
0.0
 10
55.3868
 20
37.533
 30
0.0
 10
55.3868
 20
37.533
 30
0.0
  0
SPLINE
  5
35
330
1F
100
AcDbEntity
  8
LC-012-007-KH--0
 62
   250
100
AcDbSpline
210
0.0
220
0.0
230
1.0
 70
    11
 71
     3
 72
    40
 73
    36
 74
     0
 42
0.0000000001
 43
0.0000000001
 40
0.0
 40
0.0
 40
0.0
 40
0.0
 40
0.1111111111111111
 40
0.1111111111111111
 40
0.1111111111111111
 40
0.1111111111111111
 40
0.2222222222222222
 40
0.2222222222222222
 40
0.2222222222222222
 40
0.2222222222222222
 40
0.3333333333333333
 40
0.3333333333333333
 40
0.3333333333333333
 40
0.3333333333333333
 40
0.4444444444444444
 40
0.4444444444444444
 40
0.4444444444444444
 40
0.4444444444444444
 40
0.5555555555555556
 40
0.5555555555555556
 40
0.5555555555555556
 40
0.5555555555555556
 40
0.6666666666666667
 40
0.6666666666666667
 40
0.6666666666666667
 40
0.6666666666666667
 40
0.7777777777777779
 40
0.7777777777777779
 40
0.7777777777777779
 40
0.7777777777777779
 40
0.8888888888888891
 40
0.8888888888888891
 40
0.8888888888888891
 40
0.8888888888888891
 40
1.0
 40
1.0
 40
1.0
 40
1.0
 10
-60.3545
 20
27.8846
 30
0.0
 10
-60.3545
 20
27.8846
 30
0.0
 10
-66.83750000000001
 20
29.2439
 30
0.0
 10
-66.83750000000001
 20
29.2439
 30
0.0
 10
-66.83750000000001
 20
29.2439
 30
0.0
 10
-66.3777
 20
28.6582
 30
0.0
 10
-66.00790000000001
 20
27.8346
 30
0.0
 10
-65.73
 20
26.7731
 30
0.0
 10
-65.73
 20
26.7731
 30
0.0
 10
-65.73
 20
26.7731
 30
0.0
 10
-66.69150000000001
 20
26.971
 30
0.0
 10
-66.69150000000001
 20
26.971
 30
0.0
 10
-66.69150000000001
 20
26.971
 30
0.0
 10
-66.90140000000001
 20
27.4987
 30
0.0
 10
-67.1773
 20
28.0185
 30
0.0
 10
-67.5172
 20
28.5322
 30
0.0
 10
-67.5172
 20
28.5322
 30
0.0
 10
-67.857
 20
29.046
 30
0.0
 10
-68.1529
 20
29.4318
 30
0.0
 10
-68.4067
 20
29.6897
 30
0.0
 10
-68.4067
 20
29.6897
 30
0.0
 10
-68.56270000000001
 20
29.8456
 30
0.0
 10
-68.7526
 20
29.9936
 30
0.0
 10
-68.97450000000001
 20
30.1335
 30
0.0
 10
-68.97450000000001
 20
30.1335
 30
0.0
 10
-68.97450000000001
 20
30.1335
 30
0.0
 10
-68.97450000000001
 20
30.7492
 30
0.0
 10
-68.97450000000001
 20
30.7492
 30
0.0
 10
-68.97450000000001
 20
30.7492
 30
0.0
 10
-68.97450000000001
 20
30.7492
 30
0.0
 10
-60.3545
 20
28.9521
 30
0.0
 10
-60.3545
 20
28.9521
 30
0.0
 10
-60.3545
 20
28.9521
 30
0.0
 10
-60.3545
 20
28.9521
 30
0.0
 10
-60.3545
 20
27.8846
 30
0.0
 10
-60.3545
 20
27.8846
 30
0.0
  0
SPLINE
  5
36
330
1F
100
AcDbEntity
  8
LC-012-007-KH--0
 62
   250
100
AcDbSpline
210
0.0
220
0.0
230
1.0
 70
    11
 71
     3
 72
    40
 73
    36
 74
     0
 42
0.0000000001
 43
0.0000000001
 40
0.0
 40
0.0
 40
0.0
 40
0.0
 40
0.1111111111111111
 40
0.1111111111111111
 40
0.1111111111111111
 40
0.1111111111111111
 40
0.2222222222222222
 40
0.2222222222222222
 40
0.2222222222222222
 40
0.2222222222222222
 40
0.3333333333333333
 40
0.3333333333333333
 40
0.3333333333333333
 40
0.3333333333333333
 40
0.4444444444444444
 40
0.4444444444444444
 40
0.4444444444444444
 40
0.4444444444444444
 40
0.5555555555555556
 40
0.5555555555555556
 40
0.5555555555555556
 40
0.5555555555555556
 40
0.6666666666666667
 40
0.6666666666666667
 40
0.6666666666666667
 40
0.6666666666666667
 40
0.7777777777777779
 40
0.7777777777777779
 40
0.7777777777777779
 40
0.7777777777777779
 40
0.8888888888888891
 40
0.8888888888888891
 40
0.8888888888888891
 40
0.8888888888888891
 40
1.0
 40
1.0
 40
1.0
 40
1.0
 10
-60.3545
 20
33.6659
 30
0.0
 10
-60.3545
 20
33.6659
 30
0.0
 10
-66.83750000000001
 20
35.02520000000001
 30
0.0
 10
-66.83750000000001
 20
35.02520000000001
 30
0.0
 10
-66.83750000000001
 20
35.02520000000001
 30
0.0
 10
-66.3777
 20
34.4395
 30
0.0
 10
-66.00790000000001
 20
33.6159
 30
0.0
 10
-65.73
 20
32.5544
 30
0.0
 10
-65.73
 20
32.5544
 30
0.0
 10
-65.73
 20
32.5544
 30
0.0
 10
-66.69150000000001
 20
32.7523
 30
0.0
 10
-66.69150000000001
 20
32.7523
 30
0.0
 10
-66.69150000000001
 20
32.7523
 30
0.0
 10
-66.90140000000001
 20
33.28
 30
0.0
 10
-67.1773
 20
33.79980000000001
 30
0.0
 10
-67.5172
 20
34.31350000000001
 30
0.0
 10
-67.5172
 20
34.31350000000001
 30
0.0
 10
-67.857
 20
34.8273
 30
0.0
 10
-68.1529
 20
35.2131
 30
0.0
 10
-68.4067
 20
35.471
 30
0.0
 10
-68.4067
 20
35.471
 30
0.0
 10
-68.56270000000001
 20
35.6269
 30
0.0
 10
-68.7526
 20
35.7749
 30
0.0
 10
-68.97450000000001
 20
35.9148
 30
0.0
 10
-68.97450000000001
 20
35.9148
 30
0.0
 10
-68.97450000000001
 20
35.9148
 30
0.0
 10
-68.97450000000001
 20
36.5305
 30
0.0
 10
-68.97450000000001
 20
36.5305
 30
0.0
 10
-68.97450000000001
 20
36.5305
 30
0.0
 10
-68.97450000000001
 20
36.5305
 30
0.0
 10
-60.3545
 20
34.7334
 30
0.0
 10
-60.3545
 20
34.7334
 30
0.0
 10
-60.3545
 20
34.7334
 30
0.0
 10
-60.3545
 20
34.7334
 30
0.0
 10
-60.3545
 20
33.6659
 30
0.0
 10
-60.3545
 20
33.6659
 30
0.0
  0
SPLINE
  5
37
330
1F
100
AcDbEntity
  8
LC-012-007-KH--0
 62
   250
100
AcDbSpline
210
0.0
220
0.0
230
1.0
 70
    11
 71
     3
 72
    36
 73
    32
 74
     0
 42
0.0000000001
 43
0.0000000001
 40
0.0
 40
0.0
 40
0.0
 40
0.0
 40
0.125
 40
0.125
 40
0.125
 40
0.125
 40
0.25
 40
0.25
 40
0.25
 40
0.25
 40
0.375
 40
0.375
 40
0.375
 40
0.375
 40
0.5
 40
0.5
 40
0.5
 40
0.5
 40
0.625
 40
0.625
 40
0.625
 40
0.625
 40
0.75
 40
0.75
 40
0.75
 40
0.75
 40
0.875
 40
0.875
 40
0.875
 40
0.875
 40
1.0
 40
1.0
 40
1.0
 40
1.0
 10
-60.3545
 20
38.0998
 30
0.0
 10
-60.3545
 20
38.0998
 30
0.0
 10
-61.5559
 20
38.3517
 30
0.0
 10
-61.5559
 20
38.3517
 30
0.0
 10
-61.5559
 20
38.3517
 30
0.0
 10
-61.5559
 20
38.3517
 30
0.0
 10
-61.5559
 20
39.5591
 30
0.0
 10
-61.5559
 20
39.5591
 30
0.0
 10
-61.5559
 20
39.5591
 30
0.0
 10
-61.5559
 20
39.5591
 30
0.0
 10
-60.50640000000001
 20
39.3412
 30
0.0
 10
-60.50640000000001
 20
39.3412
 30
0.0
 10
-60.50640000000001
 20
39.3412
 30
0.0
 10
-59.8787
 20
39.2093
 30
0.0
 10
-59.41690000000001
 20
39.0034
 30
0.0
 10
-59.1251
 20
38.7235
 30
0.0
 10
-59.1251
 20
38.7235
 30
0.0
 10
-58.8312
 20
38.4456
 30
0.0
 10
-58.6633
 20
38.1158
 30
0.0
 10
-58.62130000000001
 20
37.738
 30
0.0
 10
-58.62130000000001
 20
37.738
 30
0.0
 10
-58.62130000000001
 20
37.738
 30
0.0
 10
-59.0831
 20
37.8359
 30
0.0
 10
-59.0831
 20
37.8359
 30
0.0
 10
-59.0831
 20
37.8359
 30
0.0
 10
-59.213
 20
38.3017
 30
0.0
 10
-59.6368
 20
38.60760000000001
 30
0.0
 10
-60.3545
 20
38.75550000000001
 30
0.0
 10
-60.3545
 20
38.75550000000001
 30
0.0
 10
-60.3545
 20
38.75550000000001
 30
0.0
 10
-60.3545
 20
38.0998
 30
0.0
 10
-60.3545
 20
38.0998
 30
0.0
  0
SPLINE
  5
38
330
1F
100
AcDbEntity
  8
LC-012-007-KH--0
 62
   250
100
AcDbSpline
210
0.0
220
0.0
230
1.0
 70
    11
 71
     3
 72
   120
 73
   116
 74
     0
 42
0.0000000001
 43
0.0000000001
 40
0.0
 40
0.0
 40
0.0
 40
0.0
 40
0.0344827586206897
 40
0.0344827586206897
 40
0.0344827586206897
 40
0.0344827586206897
 40
0.0689655172413793
 40
0.0689655172413793
 40
0.0689655172413793
 40
0.0689655172413793
 40
0.103448275862069
 40
0.103448275862069
 40
0.103448275862069
 40
0.103448275862069
 40
0.1379310344827586
 40
0.1379310344827586
 40
0.1379310344827586
 40
0.1379310344827586
 40
0.1724137931034483
 40
0.1724137931034483
 40
0.1724137931034483
 40
0.1724137931034483
 40
0.206896551724138
 40
0.206896551724138
 40
0.206896551724138
 40
0.206896551724138
 40
0.2413793103448276
 40
0.2413793103448276
 40
0.2413793103448276
 40
0.2413793103448276
 40
0.2758620689655173
 40
0.2758620689655173
 40
0.2758620689655173
 40
0.2758620689655173
 40
0.310344827586207
 40
0.310344827586207
 40
0.310344827586207
 40
0.310344827586207
 40
0.3448275862068966
 40
0.3448275862068966
 40
0.3448275862068966
 40
0.3448275862068966
 40
0.3793103448275863
 40
0.3793103448275863
 40
0.3793103448275863
 40
0.3793103448275863
 40
0.413793103448276
 40
0.413793103448276
 40
0.413793103448276
 40
0.413793103448276
 40
0.4482758620689656
 40
0.4482758620689656
 40
0.4482758620689656
 40
0.4482758620689656
 40
0.4827586206896553
 40
0.4827586206896553
 40
0.4827586206896553
 40
0.4827586206896553
 40
0.517241379310345
 40
0.517241379310345
 40
0.517241379310345
 40
0.517241379310345
 40
0.5517241379310346
 40
0.5517241379310346
 40
0.5517241379310346
 40
0.5517241379310346
 40
0.5862068965517242
 40
0.5862068965517242
 40
0.5862068965517242
 40
0.5862068965517242
 40
0.6206896551724138
 40
0.6206896551724138
 40
0.6206896551724138
 40
0.6206896551724138
 40
0.6551724137931034
 40
0.6551724137931034
 40
0.6551724137931034
 40
0.6551724137931034
 40
0.689655172413793
 40
0.689655172413793
 40
0.689655172413793
 40
0.689655172413793
 40
0.7241379310344827
 40
0.7241379310344827
 40
0.7241379310344827
 40
0.7241379310344827
 40
0.7586206896551723
 40
0.7586206896551723
 40
0.7586206896551723
 40
0.7586206896551723
 40
0.7931034482758619
 40
0.7931034482758619
 40
0.7931034482758619
 40
0.7931034482758619
 40
0.8275862068965515
 40
0.8275862068965515
 40
0.8275862068965515
 40
0.8275862068965515
 40
0.8620689655172411
 40
0.8620689655172411
 40
0.8620689655172411
 40
0.8620689655172411
 40
0.8965517241379307
 40
0.8965517241379307
 40
0.8965517241379307
 40
0.8965517241379307
 40
0.9310344827586203
 40
0.9310344827586203
 40
0.9310344827586203
 40
0.9310344827586203
 40
0.9655172413793099
 40
0.9655172413793099
 40
0.9655172413793099
 40
0.9655172413793099
 40
1.0
 40
1.0
 40
1.0
 40
1.0
 10
-62.8094
 20
41.6201
 30
0.0
 10
-62.8094
 20
41.6201
 30
0.0
 10
-62.9133
 20
42.6976
 30
0.0
 10
-62.9133
 20
42.6976
 30
0.0
 10
-62.9133
 20
42.6976
 30
0.0
 10
-62.7614
 20
42.6896
 30
0.0
 10
-62.6694
 20
42.6856
 30
0.0
 10
-62.6394
 20
42.6856
 30
0.0
 10
-62.6394
 20
42.6856
 30
0.0
 10
-62.38160000000001
 20
42.6856
 30
0.0
 10
-62.1217
 20
42.7516
 30
0.0
 10
-61.8598
 20
42.8815
 30
0.0
 10
-61.8598
 20
42.8815
 30
0.0
 10
-61.5979
 20
43.0135
 30
0.0
 10
-61.398
 20
43.1914
 30
0.0
 10
-61.2601
 20
43.4153
 30
0.0
 10
-61.2601
 20
43.4153
 30
0.0
 10
-61.1201
 20
43.6392
 30
0.0
 10
-61.05220000000001
 20
43.8771
 30
0.0
 10
-61.05220000000001
 20
44.1269
 30
0.0
 10
-61.05220000000001
 20
44.1269
 30
0.0
 10
-61.05220000000001
 20
44.4548
 30
0.0
 10
-61.16410000000001
 20
44.7886
 30
0.0
 10
-61.392
 20
45.1285
 30
0.0
 10
-61.392
 20
45.1285
 30
0.0
 10
-61.61790000000001
 20
45.4683
 30
0.0
 10
-61.9478
 20
45.7422
 30
0.0
 10
-62.38160000000001
 20
45.9541
 30
0.0
 10
-62.38160000000001
 20
45.9541
 30
0.0
 10
-62.8134
 20
46.164
 30
0.0
 10
-63.2432
 20
46.2699
 30
0.0
 10
-63.669
 20
46.2699
 30
0.0
 10
-63.669
 20
46.2699
 30
0.0
 10
-64.14870000000001
 20
46.2699
 30
0.0
 10
-64.53450000000001
 20
46.128
 30
0.0
 10
-64.8224
 20
45.8461
 30
0.0
 10
-64.8224
 20
45.8461
 30
0.0
 10
-65.11230000000001
 20
45.5623
 30
0.0
 10
-65.25620000000001
 20
45.1904
 30
0.0
 10
-65.25620000000001
 20
44.7307
 30
0.0
 10
-65.25620000000001
 20
44.7307
 30
0.0
 10
-65.25620000000001
 20
44.4208
 30
0.0
 10
-65.18220000000001
 20
44.1289
 30
0.0
 10
-65.0343
 20
43.8551
 30
0.0
 10
-65.0343
 20
43.8551
 30
0.0
 10
-64.88640000000001
 20
43.5792
 30
0.0
 10
-64.66250000000001
 20
43.3233
 30
0.0
 10
-64.36660000000001
 20
43.08340000000001
 30
0.0
 10
-64.36660000000001
 20
43.08340000000001
 30
0.0
 10
-64.36660000000001
 20
43.08340000000001
 30
0.0
 10
-64.4306
 20
42.15790000000001
 30
0.0
 10
-64.4306
 20
42.15790000000001
 30
0.0
 10
-64.4306
 20
42.15790000000001
 30
0.0
 10
-64.4306
 20
42.15790000000001
 30
0.0
 10
-68.82250000000001
 20
43.4533
 30
0.0
 10
-68.82250000000001
 20
43.4533
 30
0.0
 10
-68.82250000000001
 20
43.4533
 30
0.0
 10
-68.82250000000001
 20
43.4533
 30
0.0
 10
-68.82250000000001
 20
47.6473
 30
0.0
 10
-68.82250000000001
 20
47.6473
 30
0.0
 10
-68.82250000000001
 20
47.6473
 30
0.0
 10
-68.82250000000001
 20
47.6473
 30
0.0
 10
-67.851
 20
47.4414
 30
0.0
 10
-67.851
 20
47.4414
 30
0.0
 10
-67.851
 20
47.4414
 30
0.0
 10
-67.851
 20
47.4414
 30
0.0
 10
-67.851
 20
44.1789
 30
0.0
 10
-67.851
 20
44.1789
 30
0.0
 10
-67.851
 20
44.1789
 30
0.0
 10
-67.851
 20
44.1789
 30
0.0
 10
-65.666
 20
43.5352
 30
0.0
 10
-65.666
 20
43.5352
 30
0.0
 10
-65.666
 20
43.5352
 30
0.0
 10
-65.84190000000001
 20
43.7771
 30
0.0
 10
-65.9739
 20
44.027
 30
0.0
 10
-66.06180000000001
 20
44.2809
 30
0.0
 10
-66.06180000000001
 20
44.2809
 30
0.0
 10
-66.1498
 20
44.5367
 30
0.0
 10
-66.19380000000001
 20
44.8006
 30
0.0
 10
-66.19380000000001
 20
45.0705
 30
0.0
 10
-66.19380000000001
 20
45.0705
 30
0.0
 10
-66.19380000000001
 20
45.72620000000001
 30
0.0
 10
-65.97790000000001
 20
46.2639
 30
0.0
 10
-65.5441
 20
46.6857
 30
0.0
 10
-65.5441
 20
46.6857
 30
0.0
 10
-65.11030000000001
 20
47.1075
 30
0.0
 10
-64.5166
 20
47.3194
 30
0.0
 10
-63.7629
 20
47.3194
 30
0.0
 10
-63.7629
 20
47.3194
 30
0.0
 10
-63.1032
 20
47.3194
 30
0.0
 10
-62.4955
 20
47.1735
 30
0.0
 10
-61.9378
 20
46.8857
 30
0.0
 10
-61.9378
 20
46.8857
 30
0.0
 10
-61.38200000000001
 20
46.5958
 30
0.0
 10
-60.9542
 20
46.198
 30
0.0
 10
-60.65640000000001
 20
45.6942
 30
0.0
 10
-60.65640000000001
 20
45.6942
 30
0.0
 10
-60.3565
 20
45.1884
 30
0.0
 10
-60.2086
 20
44.64270000000001
 30
0.0
 10
-60.2086
 20
44.057
 30
0.0
 10
-60.2086
 20
44.057
 30
0.0
 10
-60.2086
 20
43.5652
 30
0.0
 10
-60.3185
 20
43.1294
 30
0.0
 10
-60.5424
 20
42.7496
 30
0.0
 10
-60.5424
 20
42.7496
 30
0.0
 10
-60.76430000000001
 20
42.3718
 30
0.0
 10
-61.0702
 20
42.08790000000001
 30
0.0
 10
-61.462
 20
41.898
 30
0.0
 10
-61.462
 20
41.898
 30
0.0
 10
-61.8518
 20
41.7081
 30
0.0
 10
-62.24160000000001
 20
41.6141
 30
0.0
 10
-62.6334
 20
41.6141
 30
0.0
 10
-62.6334
 20
41.6141
 30
0.0
 10
-62.67140000000001
 20
41.6141
 30
0.0
 10
-62.72940000000001
 20
41.6161
 30
0.0
 10
-62.8094
 20
41.6201
 30
0.0
  0
SPLINE
  5
39
330
1F
100
AcDbEntity
  8
LC-012-007-KH--0
370
    13
100
AcDbSpline
210
0.0
220
0.0
230
1.0
 70
    27
 71
     3
 72
     8
 73
     4
 74
     0
 42
0.0000000001
 43
0.0000000001
 40
0.0
 40
0.0
 40
0.0
 40
0.0
 40
1.0
 40
1.0
 40
1.0
 40
1.0
 10
134.8609
 20
16.5198
 30
0.0
 10
134.8609
 20
16.5198
 30
0.0
 10
134.8609
 20
16.5198
 30
0.0
 10
134.8609
 20
16.5198
 30
0.0
  0
SPLINE
  5
3A
330
1F
100
AcDbEntity
  8
LC-012-007-KH--0
370
    13
100
AcDbSpline
210
0.0
220
0.0
230
1.0
 70
    24
 71
     3
 72
     8
 73
     4
 74
     0
 42
0.0000000001
 43
0.0000000001
 40
0.0
 40
0.0
 40
0.0
 40
0.0
 40
1.0
 40
1.0
 40
1.0
 40
1.0
 10
131.53
 20
16.5198
 30
0.0
 10
131.53
 20
16.5198
 30
0.0
 10
134.8609
 20
16.5198
 30
0.0
 10
134.8609
 20
16.5198
 30
0.0
  0
SPLINE
  5
3B
330
1F
100
AcDbEntity
  8
LC-012-007-KH--0
370
    13
100
AcDbSpline
210
0.0
220
0.0
230
1.0
 70
    27
 71
     3
 72
     8
 73
     4
 74
     0
 42
0.0000000001
 43
0.0000000001
 40
0.0
 40
0.0
 40
0.0
 40
0.0
 40
1.0
 40
1.0
 40
1.0
 40
1.0
 10
131.53
 20
16.5198
 30
0.0
 10
131.53
 20
16.5198
 30
0.0
 10
131.53
 20
16.5198
 30
0.0
 10
131.53
 20
16.5198
 30
0.0
  0
SPLINE
  5
3C
330
1F
100
AcDbEntity
  8
LC-012-007-KH--0
370
    13
100
AcDbSpline
210
0.0
220
0.0
230
1.0
 70
    24
 71
     3
 72
     8
 73
     4
 74
     0
 42
0.0000000001
 43
0.0000000001
 40
0.0
 40
0.0
 40
0.0
 40
0.0
 40
1.0
 40
1.0
 40
1.0
 40
1.0
 10
131.53
 20
16.5198
 30
0.0
 10
131.53
 20
16.5198
 30
0.0
 10
131.3204
 20
10.5198
 30
0.0
 10
131.3204
 20
10.5198
 30
0.0
  0
SPLINE
  5
3D
330
1F
100
AcDbEntity
  8
LC-012-007-KH--0
370
    13
100
AcDbSpline
210
0.0
220
0.0
230
1.0
 70
    27
 71
     3
 72
     8
 73
     4
 74
     0
 42
0.0000000001
 43
0.0000000001
 40
0.0
 40
0.0
 40
0.0
 40
0.0
 40
1.0
 40
1.0
 40
1.0
 40
1.0
 10
131.3204
 20
10.5198
 30
0.0
 10
131.3204
 20
10.5198
 30
0.0
 10
131.3204
 20
10.5198
 30
0.0
 10
131.3204
 20
10.5198
 30
0.0
  0
SPLINE
  5
3E
330
1F
100
AcDbEntity
  8
LC-012-007-KH--0
370
    13
100
AcDbSpline
210
0.0
220
0.0
230
1.0
 70
    24
 71
     3
 72
     8
 73
     4
 74
     0
 42
0.0000000001
 43
0.0000000001
 40
0.0
 40
0.0
 40
0.0
 40
0.0
 40
1.0
 40
1.0
 40
1.0
 40
1.0
 10
131.3204
 20
10.5198
 30
0.0
 10
131.3204
 20
10.5198
 30
0.0
 10
128.8204
 20
10.5198
 30
0.0
 10
128.8204
 20
10.5198
 30
0.0
  0
SPLINE
  5
3F
330
1F
100
AcDbEntity
  8
LC-012-007-KH--0
370
    13
100
AcDbSpline
210
0.0
220
0.0
230
1.0
 70
    27
 71
     3
 72
     8
 73
     4
 74
     0
 42
0.0000000001
 43
0.0000000001
 40
0.0
 40
0.0
 40
0.0
 40
0.0
 40
1.0
 40
1.0
 40
1.0
 40
1.0
 10
129.1871
 20
21.0198
 30
0.0
 10
129.1871
 20
21.0198
 30
0.0
 10
129.1871
 20
21.0198
 30
0.0
 10
129.1871
 20
21.0198
 30
0.0
  0
SPLINE
  5
40
330
1F
100
AcDbEntity
  8
LC-012-007-KH--0
370
    13
100
AcDbSpline
210
0.0
220
0.0
230
1.0
 70
    24
 71
     3
 72
     8
 73
     4
 74
     0
 42
0.0000000001
 43
0.0000000001
 40
0.0
 40
0.0
 40
0.0
 40
0.0
 40
1.0
 40
1.0
 40
1.0
 40
1.0
 10
129.1871
 20
21.0198
 30
0.0
 10
129.1871
 20
21.0198
 30
0.0
 10
128.8204
 20
10.5198
 30
0.0
 10
128.8204
 20
10.5198
 30
0.0
  0
SPLINE
  5
41
330
1F
100
AcDbEntity
  8
LC-012-007-KH--0
370
    13
100
AcDbSpline
210
0.0
220
0.0
230
1.0
 70
    27
 71
     3
 72
     8
 73
     4
 74
     0
 42
0.0000000001
 43
0.0000000001
 40
0.0
 40
0.0
 40
0.0
 40
0.0
 40
1.0
 40
1.0
 40
1.0
 40
1.0
 10
136.7038
 20
21.0198
 30
0.0
 10
136.7038
 20
21.0198
 30
0.0
 10
136.7038
 20
21.0198
 30
0.0
 10
136.7038
 20
21.0198
 30
0.0
  0
SPLINE
  5
42
330
1F
100
AcDbEntity
  8
LC-012-007-KH--0
370
    13
100
AcDbSpline
210
0.0
220
0.0
230
1.0
 70
    24
 71
     3
 72
     8
 73
     4
 74
     0
 42
0.0000000001
 43
0.0000000001
 40
0.0
 40
0.0
 40
0.0
 40
0.0
 40
1.0
 40
1.0
 40
1.0
 40
1.0
 10
136.7038
 20
21.0198
 30
0.0
 10
136.7038
 20
21.0198
 30
0.0
 10
129.1871
 20
21.0198
 30
0.0
 10
129.1871
 20
21.0198
 30
0.0
  0
SPLINE
  5
43
330
1F
100
AcDbEntity
  8
LC-012-007-KH--0
370
    13
100
AcDbSpline
210
0.0
220
0.0
230
1.0
 70
    24
 71
     3
 72
     8
 73
     4
 74
     0
 42
0.0000000001
 43
0.0000000001
 40
0.0
 40
0.0
 40
0.0
 40
0.0
 40
1.0
 40
1.0
 40
1.0
 40
1.0
 10
137.0704
 20
10.5198
 30
0.0
 10
137.0704
 20
10.5198
 30
0.0
 10
136.7038
 20
21.0198
 30
0.0
 10
136.7038
 20
21.0198
 30
0.0
  0
SPLINE
  5
44
330
1F
100
AcDbEntity
  8
LC-012-007-KH--0
370
    13
100
AcDbSpline
210
0.0
220
0.0
230
1.0
 70
    24
 71
     3
 72
     8
 73
     4
 74
     0
 42
0.0000000001
 43
0.0000000001
 40
0.0
 40
0.0
 40
0.0
 40
0.0
 40
1.0
 40
1.0
 40
1.0
 40
1.0
 10
135.0704
 20
10.5198
 30
0.0
 10
135.0704
 20
10.5198
 30
0.0
 10
134.8609
 20
16.5198
 30
0.0
 10
134.8609
 20
16.5198
 30
0.0
  0
SPLINE
  5
45
330
1F
100
AcDbEntity
  8
LC-012-007-KH--0
370
    13
100
AcDbSpline
210
0.0
220
0.0
230
1.0
 70
    27
 71
     3
 72
     8
 73
     4
 74
     0
 42
0.0000000001
 43
0.0000000001
 40
0.0
 40
0.0
 40
0.0
 40
0.0
 40
1.0
 40
1.0
 40
1.0
 40
1.0
 10
137.0704
 20
10.5198
 30
0.0
 10
137.0704
 20
10.5198
 30
0.0
 10
137.0704
 20
10.5198
 30
0.0
 10
137.0704
 20
10.5198
 30
0.0
  0
SPLINE
  5
46
330
1F
100
AcDbEntity
  8
LC-012-007-KH--0
370
    13
100
AcDbSpline
210
0.0
220
0.0
230
1.0
 70
    24
 71
     3
 72
     8
 73
     4
 74
     0
 42
0.0000000001
 43
0.0000000001
 40
0.0
 40
0.0
 40
0.0
 40
0.0
 40
1.0
 40
1.0
 40
1.0
 40
1.0
 10
137.0704
 20
10.5198
 30
0.0
 10
137.0704
 20
10.5198
 30
0.0
 10
135.0704
 20
10.5198
 30
0.0
 10
135.0704
 20
10.5198
 30
0.0
  0
SPLINE
  5
47
330
1F
100
AcDbEntity
  8
LC-012-007-KH--0
370
    13
100
AcDbSpline
210
0.0
220
0.0
230
1.0
 70
    24
 71
     3
 72
     8
 73
     4
 74
     0
 42
0.0000000001
 43
0.0000000001
 40
0.0
 40
0.0
 40
0.0
 40
0.0
 40
1.0
 40
1.0
 40
1.0
 40
1.0
 10
-38.5461
 20
21.0198
 30
0.0
 10
-38.5461
 20
21.0198
 30
0.0
 10
-46.0628
 20
21.0198
 30
0.0
 10
-46.0628
 20
21.0198
 30
0.0
  0
SPLINE
  5
48
330
1F
100
AcDbEntity
  8
LC-012-007-KH--0
370
    13
100
AcDbSpline
210
0.0
220
0.0
230
1.0
 70
    24
 71
     3
 72
     8
 73
     4
 74
     0
 42
0.0000000001
 43
0.0000000001
 40
0.0
 40
0.0
 40
0.0
 40
0.0
 40
1.0
 40
1.0
 40
1.0
 40
1.0
 10
-40.6795
 20
10.5198
 30
0.0
 10
-40.6795
 20
10.5198
 30
0.0
 10
-40.889
 20
16.5198
 30
0.0
 10
-40.889
 20
16.5198
 30
0.0
  0
SPLINE
  5
49
330
1F
100
AcDbEntity
  8
LC-012-007-KH--0
370
    13
100
AcDbSpline
210
0.0
220
0.0
230
1.0
 70
    24
 71
     3
 72
     8
 73
     4
 74
     0
 42
0.0000000001
 43
0.0000000001
 40
0.0
 40
0.0
 40
0.0
 40
0.0
 40
1.0
 40
1.0
 40
1.0
 40
1.0
 10
-44.2199
 20
16.5198
 30
0.0
 10
-44.2199
 20
16.5198
 30
0.0
 10
-40.889
 20
16.5198
 30
0.0
 10
-40.889
 20
16.5198
 30
0.0
  0
SPLINE
  5
4A
330
1F
100
AcDbEntity
  8
LC-012-007-KH--0
370
    13
100
AcDbSpline
210
0.0
220
0.0
230
1.0
 70
    24
 71
     3
 72
     8
 73
     4
 74
     0
 42
0.0000000001
 43
0.0000000001
 40
0.0
 40
0.0
 40
0.0
 40
0.0
 40
1.0
 40
1.0
 40
1.0
 40
1.0
 10
-38.1795
 20
10.5198
 30
0.0
 10
-38.1795
 20
10.5198
 30
0.0
 10
-40.6795
 20
10.5198
 30
0.0
 10
-40.6795
 20
10.5198
 30
0.0
  0
SPLINE
  5
4B
330
1F
100
AcDbEntity
  8
LC-012-007-KH--0
370
    13
100
AcDbSpline
210
0.0
220
0.0
230
1.0
 70
    24
 71
     3
 72
     8
 73
     4
 74
     0
 42
0.0000000001
 43
0.0000000001
 40
0.0
 40
0.0
 40
0.0
 40
0.0
 40
1.0
 40
1.0
 40
1.0
 40
1.0
 10
-38.1795
 20
10.5198
 30
0.0
 10
-38.1795
 20
10.5198
 30
0.0
 10
-38.5461
 20
21.0198
 30
0.0
 10
-38.5461
 20
21.0198
 30
0.0
  0
SPLINE
  5
4C
330
1F
100
AcDbEntity
  8
LC-012-007-KH--0
370
    13
100
AcDbSpline
210
0.0
220
0.0
230
1.0
 70
    24
 71
     3
 72
     8
 73
     4
 74
     0
 42
0.0000000001
 43
0.0000000001
 40
0.0
 40
0.0
 40
0.0
 40
0.0
 40
1.0
 40
1.0
 40
1.0
 40
1.0
 10
-46.0628
 20
21.0198
 30
0.0
 10
-46.0628
 20
21.0198
 30
0.0
 10
-46.4295
 20
10.5198
 30
0.0
 10
-46.4295
 20
10.5198
 30
0.0
  0
SPLINE
  5
4D
330
1F
100
AcDbEntity
  8
LC-012-007-KH--0
370
    13
100
AcDbSpline
210
0.0
220
0.0
230
1.0
 70
    24
 71
     3
 72
     8
 73
     4
 74
     0
 42
0.0000000001
 43
0.0000000001
 40
0.0
 40
0.0
 40
0.0
 40
0.0
 40
1.0
 40
1.0
 40
1.0
 40
1.0
 10
-44.2199
 20
16.5198
 30
0.0
 10
-44.2199
 20
16.5198
 30
0.0
 10
-44.4295
 20
10.5198
 30
0.0
 10
-44.4295
 20
10.5198
 30
0.0
  0
SPLINE
  5
4E
330
1F
100
AcDbEntity
  8
LC-012-007-KH--0
370
    13
100
AcDbSpline
210
0.0
220
0.0
230
1.0
 70
    24
 71
     3
 72
     8
 73
     4
 74
     0
 42
0.0000000001
 43
0.0000000001
 40
0.0
 40
0.0
 40
0.0
 40
0.0
 40
1.0
 40
1.0
 40
1.0
 40
1.0
 10
-44.4295
 20
10.5198
 30
0.0
 10
-44.4295
 20
10.5198
 30
0.0
 10
-46.4295
 20
10.5198
 30
0.0
 10
-46.4295
 20
10.5198
 30
0.0
  0
SPLINE
  5
4F
330
1F
100
AcDbEntity
  8
LC-012-007-KH--0
370
    13
100
AcDbSpline
210
0.0
220
0.0
230
1.0
 70
    24
 71
     3
 72
     8
 73
     4
 74
     0
 42
0.0000000001
 43
0.0000000001
 40
0.0
 40
0.0
 40
0.0
 40
0.0
 40
1.0
 40
1.0
 40
1.0
 40
1.0
 10
-38.5461
 20
21.0198
 30
0.0
 10
-38.5461
 20
21.0198
 30
0.0
 10
129.1871
 20
21.0198
 30
0.0
 10
129.1871
 20
21.0198
 30
0.0
  0
SPLINE
  5
50
330
1F
100
AcDbEntity
  8
LC-012-007-KH--0
370
    13
100
AcDbSpline
210
0.0
220
0.0
230
1.0
 70
    27
 71
     3
 72
     8
 73
     4
 74
     0
 42
0.0000000001
 43
0.0000000001
 40
0.0
 40
0.0
 40
0.0
 40
0.0
 40
1.0
 40
1.0
 40
1.0
 40
1.0
 10
128.8204
 20
10.5198
 30
0.0
 10
128.8204
 20
10.5198
 30
0.0
 10
128.8204
 20
10.5198
 30
0.0
 10
128.8204
 20
10.5198
 30
0.0
  0
SPLINE
  5
51
330
1F
100
AcDbEntity
  8
LC-012-007-KH--0
370
    13
100
AcDbSpline
210
0.0
220
0.0
230
1.0
 70
    24
 71
     3
 72
     8
 73
     4
 74
     0
 42
0.0000000001
 43
0.0000000001
 40
0.0
 40
0.0
 40
0.0
 40
0.0
 40
1.0
 40
1.0
 40
1.0
 40
1.0
 10
128.8204
 20
10.5198
 30
0.0
 10
128.8204
 20
10.5198
 30
0.0
 10
-38.1795
 20
10.5198
 30
0.0
 10
-38.1795
 20
10.5198
 30
0.0
  0
SPLINE
  5
52
330
1F
100
AcDbEntity
  8
LC-012-007-KH--0
370
    13
100
AcDbSpline
210
0.0
220
0.0
230
1.0
 70
    27
 71
     3
 72
     8
 73
     4
 74
     0
 42
0.0000000001
 43
0.0000000001
 40
0.0
 40
0.0
 40
0.0
 40
0.0
 40
1.0
 40
1.0
 40
1.0
 40
1.0
 10
135.0704
 20
10.5198
 30
0.0
 10
135.0704
 20
10.5198
 30
0.0
 10
135.0704
 20
10.5198
 30
0.0
 10
135.0704
 20
10.5198
 30
0.0
  0
SPLINE
  5
53
330
1F
100
AcDbEntity
  8
LC-012-007-KH--0
370
    13
100
AcDbSpline
210
0.0
220
0.0
230
1.0
 70
    24
 71
     3
 72
     8
 73
     4
 74
     0
 42
0.0000000001
 43
0.0000000001
 40
0.0
 40
0.0
 40
0.0
 40
0.0
 40
1.0
 40
1.0
 40
1.0
 40
1.0
 10
135.0704
 20
10.5198
 30
0.0
 10
135.0704
 20
10.5198
 30
0.0
 10
131.3204
 20
10.5198
 30
0.0
 10
131.3204
 20
10.5198
 30
0.0
  0
SPLINE
  5
54
330
1F
100
AcDbEntity
  8
LC-012-007-KH--0
370
    13
100
AcDbSpline
210
0.0
220
0.0
230
1.0
 70
    24
 71
     3
 72
     8
 73
     4
 74
     0
 42
0.0000000001
 43
0.0000000001
 40
0.0
 40
0.0
 40
0.0
 40
0.0
 40
1.0
 40
1.0
 40
1.0
 40
1.0
 10
-40.6795
 20
10.5198
 30
0.0
 10
-40.6795
 20
10.5198
 30
0.0
 10
-44.4295
 20
10.5198
 30
0.0
 10
-44.4295
 20
10.5198
 30
0.0
  0
SPLINE
  5
55
330
1F
100
AcDbEntity
  8
LC-012-007-KH--0
100
AcDbSpline
210
0.0
220
0.0
230
1.0
 70
    27
 71
     3
 72
    12
 73
     8
 74
     0
 42
0.0000000001
 43
0.0000000001
 40
0.0
 40
0.0
 40
0.0
 40
0.0
 40
0.5
 40
0.5
 40
0.5
 40
0.5
 40
1.0
 40
1.0
 40
1.0
 40
1.0
 10
-46.4295
 20
34.8069
 30
0.0
 10
-46.4295
 20
34.8069
 30
0.0
 10
-40.4295
 20
35.70690000000001
 30
0.0
 10
-40.4295
 20
35.70690000000001
 30
0.0
 10
-40.4295
 20
35.70690000000001
 30
0.0
 10
-40.4295
 20
35.70690000000001
 30
0.0
 10
-46.4295
 20
34.8069
 30
0.0
 10
-46.4295
 20
34.8069
 30
0.0
  0
SPLINE
  5
56
330
1F
100
AcDbEntity
  8
LC-012-007-KH--0
100
AcDbSpline
210
0.0
220
0.0
230
1.0
 70
     8
 71
     3
 72
    12
 73
     8
 74
     0
 42
0.0000000001
 43
0.0000000001
 40
0.0
 40
0.0
 40
0.0
 40
0.0
 40
0.5
 40
0.5
 40
0.5
 40
0.5
 40
1.0
 40
1.0
 40
1.0
 40
1.0
 10
-40.4295
 20
35.70690000000001
 30
0.0
 10
-40.4295
 20
35.70690000000001
 30
0.0
 10
-40.4295
 20
33.9069
 30
0.0
 10
-40.4295
 20
33.9069
 30
0.0
 10
-40.4295
 20
33.9069
 30
0.0
 10
-40.4295
 20
33.9069
 30
0.0
 10
-46.4295
 20
34.8069
 30
0.0
 10
-46.4295
 20
34.8069
 30
0.0
  0
SPLINE
  5
57
330
1F
100
AcDbEntity
  8
LC-012-007-KH--0
370
     5
100
AcDbSpline
210
0.0
220
0.0
230
1.0
 70
    24
 71
     3
 72
     8
 73
     4
 74
     0
 42
0.0000000001
 43
0.0000000001
 40
0.0
 40
0.0
 40
0.0
 40
0.0
 40
1.0
 40
1.0
 40
1.0
 40
1.0
 10
-46.4295
 20
34.8069
 30
0.0
 10
-46.4295
 20
34.8069
 30
0.0
 10
-40.4295
 20
35.70690000000001
 30
0.0
 10
-40.4295
 20
35.70690000000001
 30
0.0
  0
SPLINE
  5
58
330
1F
100
AcDbEntity
  8
LC-012-007-KH--0
370
     5
100
AcDbSpline
210
0.0
220
0.0
230
1.0
 70
     8
 71
     3
 72
    12
 73
     8
 74
     0
 42
0.0000000001
 43
0.0000000001
 40
0.0
 40
0.0
 40
0.0
 40
0.0
 40
0.5
 40
0.5
 40
0.5
 40
0.5
 40
1.0
 40
1.0
 40
1.0
 40
1.0
 10
-40.4295
 20
35.70690000000001
 30
0.0
 10
-40.4295
 20
35.70690000000001
 30
0.0
 10
-40.4295
 20
33.9069
 30
0.0
 10
-40.4295
 20
33.9069
 30
0.0
 10
-40.4295
 20
33.9069
 30
0.0
 10
-40.4295
 20
33.9069
 30
0.0
 10
-46.4295
 20
34.8069
 30
0.0
 10
-46.4295
 20
34.8069
 30
0.0
  0
SPLINE
  5
59
330
1F
100
AcDbEntity
  8
LC-012-007-KH--0
100
AcDbSpline
210
0.0
220
0.0
230
1.0
 70
    27
 71
     3
 72
    12
 73
     8
 74
     0
 42
0.0000000001
 43
0.0000000001
 40
0.0
 40
0.0
 40
0.0
 40
0.0
 40
0.5
 40
0.5
 40
0.5
 40
0.5
 40
1.0
 40
1.0
 40
1.0
 40
1.0
 10
137.0704
 20
34.8069
 30
0.0
 10
137.0704
 20
34.8069
 30
0.0
 10
131.0704
 20
33.9069
 30
0.0
 10
131.0704
 20
33.9069
 30
0.0
 10
131.0704
 20
33.9069
 30
0.0
 10
131.0704
 20
33.9069
 30
0.0
 10
137.0704
 20
34.8069
 30
0.0
 10
137.0704
 20
34.8069
 30
0.0
  0
SPLINE
  5
5A
330
1F
100
AcDbEntity
  8
LC-012-007-KH--0
100
AcDbSpline
210
0.0
220
0.0
230
1.0
 70
     8
 71
     3
 72
    12
 73
     8
 74
     0
 42
0.0000000001
 43
0.0000000001
 40
0.0
 40
0.0
 40
0.0
 40
0.0
 40
0.5
 40
0.5
 40
0.5
 40
0.5
 40
1.0
 40
1.0
 40
1.0
 40
1.0
 10
131.0704
 20
33.9069
 30
0.0
 10
131.0704
 20
33.9069
 30
0.0
 10
131.0704
 20
35.70690000000001
 30
0.0
 10
131.0704
 20
35.70690000000001
 30
0.0
 10
131.0704
 20
35.70690000000001
 30
0.0
 10
131.0704
 20
35.70690000000001
 30
0.0
 10
137.0704
 20
34.8069
 30
0.0
 10
137.0704
 20
34.8069
 30
0.0
  0
SPLINE
  5
5B
330
1F
100
AcDbEntity
  8
LC-012-007-KH--0
370
     5
100
AcDbSpline
210
0.0
220
0.0
230
1.0
 70
    24
 71
     3
 72
     8
 73
     4
 74
     0
 42
0.0000000001
 43
0.0000000001
 40
0.0
 40
0.0
 40
0.0
 40
0.0
 40
1.0
 40
1.0
 40
1.0
 40
1.0
 10
137.0704
 20
34.8069
 30
0.0
 10
137.0704
 20
34.8069
 30
0.0
 10
131.0704
 20
33.9069
 30
0.0
 10
131.0704
 20
33.9069
 30
0.0
  0
SPLINE
  5
5C
330
1F
100
AcDbEntity
  8
LC-012-007-KH--0
370
     5
100
AcDbSpline
210
0.0
220
0.0
230
1.0
 70
     8
 71
     3
 72
    12
 73
     8
 74
     0
 42
0.0000000001
 43
0.0000000001
 40
0.0
 40
0.0
 40
0.0
 40
0.0
 40
0.5
 40
0.5
 40
0.5
 40
0.5
 40
1.0
 40
1.0
 40
1.0
 40
1.0
 10
131.0704
 20
33.9069
 30
0.0
 10
131.0704
 20
33.9069
 30
0.0
 10
131.0704
 20
35.70690000000001
 30
0.0
 10
131.0704
 20
35.70690000000001
 30
0.0
 10
131.0704
 20
35.70690000000001
 30
0.0
 10
131.0704
 20
35.70690000000001
 30
0.0
 10
137.0704
 20
34.8069
 30
0.0
 10
137.0704
 20
34.8069
 30
0.0
  0
SPLINE
  5
5D
330
1F
100
AcDbEntity
  8
LC-012-007-KH--0
370
     5
100
AcDbSpline
210
0.0
220
0.0
230
1.0
 70
    24
 71
     3
 72
     8
 73
     4
 74
     0
 42
0.0000000001
 43
0.0000000001
 40
0.0
 40
0.0
 40
0.0
 40
0.0
 40
1.0
 40
1.0
 40
1.0
 40
1.0
 10
-46.4295
 20
11.5198
 30
0.0
 10
-46.4295
 20
11.5198
 30
0.0
 10
-46.4295
 20
35.8069
 30
0.0
 10
-46.4295
 20
35.8069
 30
0.0
  0
SPLINE
  5
5E
330
1F
100
AcDbEntity
  8
LC-012-007-KH--0
370
     5
100
AcDbSpline
210
0.0
220
0.0
230
1.0
 70
    27
 71
     3
 72
     8
 73
     4
 74
     0
 42
0.0000000001
 43
0.0000000001
 40
0.0
 40
0.0
 40
0.0
 40
0.0
 40
1.0
 40
1.0
 40
1.0
 40
1.0
 10
137.0704
 20
35.8069
 30
0.0
 10
137.0704
 20
35.8069
 30
0.0
 10
137.0704
 20
35.8069
 30
0.0
 10
137.0704
 20
35.8069
 30
0.0
  0
SPLINE
  5
5F
330
1F
100
AcDbEntity
  8
LC-012-007-KH--0
370
     5
100
AcDbSpline
210
0.0
220
0.0
230
1.0
 70
    24
 71
     3
 72
     8
 73
     4
 74
     0
 42
0.0000000001
 43
0.0000000001
 40
0.0
 40
0.0
 40
0.0
 40
0.0
 40
1.0
 40
1.0
 40
1.0
 40
1.0
 10
137.0704
 20
11.5198
 30
0.0
 10
137.0704
 20
11.5198
 30
0.0
 10
137.0704
 20
35.8069
 30
0.0
 10
137.0704
 20
35.8069
 30
0.0
  0
SPLINE
  5
60
330
1F
100
AcDbEntity
  8
LC-012-007-KH--0
370
     5
100
AcDbSpline
210
0.0
220
0.0
230
1.0
 70
    24
 71
     3
 72
     8
 73
     4
 74
     0
 42
0.0000000001
 43
0.0000000001
 40
0.0
 40
0.0
 40
0.0
 40
0.0
 40
1.0
 40
1.0
 40
1.0
 40
1.0
 10
-46.4295
 20
34.8069
 30
0.0
 10
-46.4295
 20
34.8069
 30
0.0
 10
137.0704
 20
34.8069
 30
0.0
 10
137.0704
 20
34.8069
 30
0.0
  0
SPLINE
  5
61
330
1F
100
AcDbEntity
  8
LC-012-007-KH--0
100
AcDbSpline
210
0.0
220
0.0
230
1.0
 70
    27
 71
     3
 72
    12
 73
     8
 74
     0
 42
0.0000000001
 43
0.0000000001
 40
0.0
 40
0.0
 40
0.0
 40
0.0
 40
0.5
 40
0.5
 40
0.5
 40
0.5
 40
1.0
 40
1.0
 40
1.0
 40
1.0
 10
-58.1921
 20
21.0198
 30
0.0
 10
-58.1921
 20
21.0198
 30
0.0
 10
-59.0921
 20
27.0198
 30
0.0
 10
-59.0921
 20
27.0198
 30
0.0
 10
-59.0921
 20
27.0198
 30
0.0
 10
-59.0921
 20
27.0198
 30
0.0
 10
-58.1921
 20
21.0198
 30
0.0
 10
-58.1921
 20
21.0198
 30
0.0
  0
SPLINE
  5
62
330
1F
100
AcDbEntity
  8
LC-012-007-KH--0
100
AcDbSpline
210
0.0
220
0.0
230
1.0
 70
     8
 71
     3
 72
    12
 73
     8
 74
     0
 42
0.0000000001
 43
0.0000000001
 40
0.0
 40
0.0
 40
0.0
 40
0.0
 40
0.5
 40
0.5
 40
0.5
 40
0.5
 40
1.0
 40
1.0
 40
1.0
 40
1.0
 10
-59.0921
 20
27.0198
 30
0.0
 10
-59.0921
 20
27.0198
 30
0.0
 10
-57.29210000000001
 20
27.0198
 30
0.0
 10
-57.29210000000001
 20
27.0198
 30
0.0
 10
-57.29210000000001
 20
27.0198
 30
0.0
 10
-57.29210000000001
 20
27.0198
 30
0.0
 10
-58.1921
 20
21.0198
 30
0.0
 10
-58.1921
 20
21.0198
 30
0.0
  0
SPLINE
  5
63
330
1F
100
AcDbEntity
  8
LC-012-007-KH--0
370
     5
100
AcDbSpline
210
0.0
220
0.0
230
1.0
 70
    24
 71
     3
 72
     8
 73
     4
 74
     0
 42
0.0000000001
 43
0.0000000001
 40
0.0
 40
0.0
 40
0.0
 40
0.0
 40
1.0
 40
1.0
 40
1.0
 40
1.0
 10
-58.1921
 20
21.0198
 30
0.0
 10
-58.1921
 20
21.0198
 30
0.0
 10
-59.0921
 20
27.0198
 30
0.0
 10
-59.0921
 20
27.0198
 30
0.0
  0
SPLINE
  5
64
330
1F
100
AcDbEntity
  8
LC-012-007-KH--0
370
     5
100
AcDbSpline
210
0.0
220
0.0
230
1.0
 70
     8
 71
     3
 72
    12
 73
     8
 74
     0
 42
0.0000000001
 43
0.0000000001
 40
0.0
 40
0.0
 40
0.0
 40
0.0
 40
0.5
 40
0.5
 40
0.5
 40
0.5
 40
1.0
 40
1.0
 40
1.0
 40
1.0
 10
-59.0921
 20
27.0198
 30
0.0
 10
-59.0921
 20
27.0198
 30
0.0
 10
-57.29210000000001
 20
27.0198
 30
0.0
 10
-57.29210000000001
 20
27.0198
 30
0.0
 10
-57.29210000000001
 20
27.0198
 30
0.0
 10
-57.29210000000001
 20
27.0198
 30
0.0
 10
-58.1921
 20
21.0198
 30
0.0
 10
-58.1921
 20
21.0198
 30
0.0
  0
SPLINE
  5
65
330
1F
100
AcDbEntity
  8
LC-012-007-KH--0
100
AcDbSpline
210
0.0
220
0.0
230
1.0
 70
    27
 71
     3
 72
    12
 73
     8
 74
     0
 42
0.0000000001
 43
0.0000000001
 40
0.0
 40
0.0
 40
0.0
 40
0.0
 40
0.5
 40
0.5
 40
0.5
 40
0.5
 40
1.0
 40
1.0
 40
1.0
 40
1.0
 10
-58.1921
 20
10.5198
 30
0.0
 10
-58.1921
 20
10.5198
 30
0.0
 10
-57.29210000000001
 20
4.5198
 30
0.0
 10
-57.29210000000001
 20
4.5198
 30
0.0
 10
-57.29210000000001
 20
4.5198
 30
0.0
 10
-57.29210000000001
 20
4.5198
 30
0.0
 10
-58.1921
 20
10.5198
 30
0.0
 10
-58.1921
 20
10.5198
 30
0.0
  0
SPLINE
  5
66
330
1F
100
AcDbEntity
  8
LC-012-007-KH--0
100
AcDbSpline
210
0.0
220
0.0
230
1.0
 70
     8
 71
     3
 72
    12
 73
     8
 74
     0
 42
0.0000000001
 43
0.0000000001
 40
0.0
 40
0.0
 40
0.0
 40
0.0
 40
0.5
 40
0.5
 40
0.5
 40
0.5
 40
1.0
 40
1.0
 40
1.0
 40
1.0
 10
-57.29210000000001
 20
4.5198
 30
0.0
 10
-57.29210000000001
 20
4.5198
 30
0.0
 10
-59.0921
 20
4.5198
 30
0.0
 10
-59.0921
 20
4.5198
 30
0.0
 10
-59.0921
 20
4.5198
 30
0.0
 10
-59.0921
 20
4.5198
 30
0.0
 10
-58.1921
 20
10.5198
 30
0.0
 10
-58.1921
 20
10.5198
 30
0.0
  0
SPLINE
  5
67
330
1F
100
AcDbEntity
  8
LC-012-007-KH--0
370
     5
100
AcDbSpline
210
0.0
220
0.0
230
1.0
 70
    24
 71
     3
 72
     8
 73
     4
 74
     0
 42
0.0000000001
 43
0.0000000001
 40
0.0
 40
0.0
 40
0.0
 40
0.0
 40
1.0
 40
1.0
 40
1.0
 40
1.0
 10
-58.1921
 20
10.5198
 30
0.0
 10
-58.1921
 20
10.5198
 30
0.0
 10
-57.29210000000001
 20
4.5198
 30
0.0
 10
-57.29210000000001
 20
4.5198
 30
0.0
  0
SPLINE
  5
68
330
1F
100
AcDbEntity
  8
LC-012-007-KH--0
370
     5
100
AcDbSpline
210
0.0
220
0.0
230
1.0
 70
     8
 71
     3
 72
    12
 73
     8
 74
     0
 42
0.0000000001
 43
0.0000000001
 40
0.0
 40
0.0
 40
0.0
 40
0.0
 40
0.5
 40
0.5
 40
0.5
 40
0.5
 40
1.0
 40
1.0
 40
1.0
 40
1.0
 10
-57.29210000000001
 20
4.5198
 30
0.0
 10
-57.29210000000001
 20
4.5198
 30
0.0
 10
-59.0921
 20
4.5198
 30
0.0
 10
-59.0921
 20
4.5198
 30
0.0
 10
-59.0921
 20
4.5198
 30
0.0
 10
-59.0921
 20
4.5198
 30
0.0
 10
-58.1921
 20
10.5198
 30
0.0
 10
-58.1921
 20
10.5198
 30
0.0
  0
SPLINE
  5
69
330
1F
100
AcDbEntity
  8
LC-012-007-KH--0
370
     5
100
AcDbSpline
210
0.0
220
0.0
230
1.0
 70
    24
 71
     3
 72
     8
 73
     4
 74
     0
 42
0.0000000001
 43
0.0000000001
 40
0.0
 40
0.0
 40
0.0
 40
0.0
 40
1.0
 40
1.0
 40
1.0
 40
1.0
 10
-47.0628
 20
21.0198
 30
0.0
 10
-47.0628
 20
21.0198
 30
0.0
 10
-59.1921
 20
21.0198
 30
0.0
 10
-59.1921
 20
21.0198
 30
0.0
  0
SPLINE
  5
6A
330
1F
100
AcDbEntity
  8
LC-012-007-KH--0
370
     5
100
AcDbSpline
210
0.0
220
0.0
230
1.0
 70
    24
 71
     3
 72
     8
 73
     4
 74
     0
 42
0.0000000001
 43
0.0000000001
 40
0.0
 40
0.0
 40
0.0
 40
0.0
 40
1.0
 40
1.0
 40
1.0
 40
1.0
 10
-41.6795
 20
10.5198
 30
0.0
 10
-41.6795
 20
10.5198
 30
0.0
 10
-59.1921
 20
10.5198
 30
0.0
 10
-59.1921
 20
10.5198
 30
0.0
  0
SPLINE
  5
6B
330
1F
100
AcDbEntity
  8
LC-012-007-KH--0
370
     5
100
AcDbSpline
210
0.0
220
0.0
230
1.0
 70
    24
 71
     3
 72
     8
 73
     4
 74
     0
 42
0.0000000001
 43
0.0000000001
 40
0.0
 40
0.0
 40
0.0
 40
0.0
 40
1.0
 40
1.0
 40
1.0
 40
1.0
 10
-58.1921
 20
21.0198
 30
0.0
 10
-58.1921
 20
21.0198
 30
0.0
 10
-58.1921
 20
49.665
 30
0.0
 10
-58.1921
 20
49.665
 30
0.0
  0
SPLINE
  5
6C
330
1F
100
AcDbEntity
  8
LC-012-007-KH--0
370
     5
100
AcDbSpline
210
0.0
220
0.0
230
1.0
 70
    24
 71
     3
 72
     8
 73
     4
 74
     0
 42
0.0000000001
 43
0.0000000001
 40
0.0
 40
0.0
 40
0.0
 40
0.0
 40
1.0
 40
1.0
 40
1.0
 40
1.0
 10
-58.1921
 20
21.0198
 30
0.0
 10
-58.1921
 20
21.0198
 30
0.0
 10
-58.1921
 20
10.5198
 30
0.0
 10
-58.1921
 20
10.5198
 30
0.0
  0
SPLINE
  5
6D
330
1F
100
AcDbEntity
  8
LC-012-007-KH--0
370
     5
100
AcDbSpline
210
0.0
220
0.0
230
1.0
 70
    24
 71
     3
 72
     8
 73
     4
 74
     0
 42
0.0000000001
 43
0.0000000001
 40
0.0
 40
0.0
 40
0.0
 40
0.0
 40
1.0
 40
1.0
 40
1.0
 40
1.0
 10
-58.1921
 20
10.5198
 30
0.0
 10
-58.1921
 20
10.5198
 30
0.0
 10
-58.1921
 20
-1.4802
 30
0.0
 10
-58.1921
 20
-1.4802
 30
0.0
  0
SPLINE
  5
6E
330
1F
100
AcDbEntity
  8
LC-012-007-KH--0
  6
New Line1
370
     5
100
AcDbSpline
210
0.0
220
0.0
230
1.0
 70
    24
 71
     3
 72
     8
 73
     4
 74
     0
 42
0.0000000001
 43
0.0000000001
 40
0.0
 40
0.0
 40
0.0
 40
0.0
 40
1.0
 40
1.0
 40
1.0
 40
1.0
 10
45.3205
 20
8.5198
 30
0.0
 10
45.3205
 20
8.5198
 30
0.0
 10
45.3205
 20
23.0198
 30
0.0
 10
45.3205
 20
23.0198
 30
0.0
  0
ENDSEC
  0
SECTION
  2
OBJECTS
  0
DICTIONARY
  5
C
330
0
100
AcDbDictionary
281
     1
  3
ACAD_GROUP
350
D
  3
ACAD_LAYOUT
350
1A
  3
ACAD_MLINESTYLE
350
17
  3
ACAD_PLOTSETTINGS
350
19
  3
ACAD_PLOTSTYLENAME
350
E
  0
DICTIONARY
  5
D
102
{ACAD_REACTORS
330
C
102
}
330
C
100
AcDbDictionary
281
     1
  0
DICTIONARY
  5
1A
102
{ACAD_REACTORS
330
C
102
}
330
C
100
AcDbDictionary
281
     1
  3
Layout1
350
1E
  3
Layout2
350
26
  3
Model
350
22
  0
DICTIONARY
  5
17
102
{ACAD_REACTORS
330
C
102
}
330
C
100
AcDbDictionary
281
     1
  3
Standard
350
18
  0
DICTIONARY
  5
19
102
{ACAD_REACTORS
330
C
102
}
330
C
100
AcDbDictionary
281
     1
  0
ACDBDICTIONARYWDFLT
  5
E
102
{ACAD_REACTORS
330
C
102
}
330
C
100
AcDbDictionary
281
     1
  3
Normal
350
F
100
AcDbDictionaryWithDefault
340
F
  0
LAYOUT
  5
1E
102
{ACAD_REACTORS
330
1A
102
}
330
1A
100
AcDbPlotSettings
  1

  2

  4

  6

 40
0.0
 41
0.0
 42
0.0
 43
0.0
 44
0.0
 45
0.0
 46
0.0
 47
0.0
 48
0.0
 49
0.0
140
0.0
141
0.0
142
1.0
143
1.0
 70
   688
 72
     0
 73
     0
 74
     5
  7

 75
    16
 76
     0
 77
     2
 78
   300
147
1.0
148
0.0
149
0.0
100
AcDbLayout
  1
Layout1
 70
     1
 71
     1
 10
0.0
 20
0.0
 11
12.0
 21
9.0
 12
0.0
 22
0.0
 32
0.0
 14
1.000000000000000E+20
 24
1.000000000000000E+20
 34
1.000000000000000E+20
 15
-1.000000000000000E+20
 25
-1.000000000000000E+20
 35
-1.000000000000000E+20
146
0.0
 13
0.0
 23
0.0
 33
0.0
 16
1.0
 26
0.0
 36
0.0
 17
0.0
 27
1.0
 37
0.0
 76
     0
330
1B
  0
LAYOUT
  5
26
102
{ACAD_REACTORS
330
1A
102
}
330
1A
100
AcDbPlotSettings
  1

  2

  4

  6

 40
0.0
 41
0.0
 42
0.0
 43
0.0
 44
0.0
 45
0.0
 46
0.0
 47
0.0
 48
0.0
 49
0.0
140
0.0
141
0.0
142
1.0
143
1.0
 70
   688
 72
     0
 73
     0
 74
     5
  7

 75
    16
 76
     0
 77
     2
 78
   300
147
1.0
148
0.0
149
0.0
100
AcDbLayout
  1
Layout2
 70
     1
 71
     2
 10
0.0
 20
0.0
 11
0.0
 21
0.0
 12
0.0
 22
0.0
 32
0.0
 14
0.0
 24
0.0
 34
0.0
 15
0.0
 25
0.0
 35
0.0
146
0.0
 13
0.0
 23
0.0
 33
0.0
 16
1.0
 26
0.0
 36
0.0
 17
0.0
 27
1.0
 37
0.0
 76
     0
330
23
  0
LAYOUT
  5
22
102
{ACAD_REACTORS
330
1A
102
}
330
1A
100
AcDbPlotSettings
  1

  2

  4

  6

 40
0.0
 41
0.0
 42
0.0
 43
0.0
 44
0.0
 45
0.0
 46
0.0
 47
0.0
 48
0.0
 49
0.0
140
0.0
141
0.0
142
1.0
143
1.0
 70
  1712
 72
     0
 73
     0
 74
     0
  7

 75
     0
 76
     0
 77
     2
 78
   300
147
1.0
148
0.0
149
0.0
100
AcDbLayout
  1
Model
 70
     1
 71
     0
 10
0.0
 20
0.0
 11
0.0
 21
0.0
 12
0.0
 22
0.0
 32
0.0
 14
-68.9765
 24
-1.4802
 34
0.0
 15
137.1451
 25
49.665
 35
0.0
146
0.0
 13
0.0
 23
0.0
 33
0.0
 16
1.0
 26
0.0
 36
0.0
 17
0.0
 27
1.0
 37
0.0
 76
     0
330
1F
  0
MLINESTYLE
  5
18
102
{ACAD_REACTORS
330
17
102
}
330
17
100
AcDbMlineStyle
  2
Standard
 70
     0
  3

 62
   256
 51
90.0
 52
90.0
 71
     2
 49
0.5
 62
   256
  6
BYLAYER
 49
-0.5
 62
   256
  6
BYLAYER
  0
ACDBPLACEHOLDER
  5
F
102
{ACAD_REACTORS
330
E
102
}
330
E
  0
ENDSEC
  0
EOF
