  0
SECTION
  2
HEADER
  9
$ACADVER
  1
AC1015
  9
$ACADMAINTVER
 70
     6
  9
$DWGCODEPAGE
  3
DOS850
  9
$INSBASE
 10
0.0
 20
0.0
 30
0.0
  9
$EXTMIN
 10
-84.6381
 20
-21.0287
 30
1.000000E+20
  9
$EXTMAX
 10
77.9649
 20
37.3313
 30
-1.000000E+20
  9
$LIMMIN
 10
0.0
 20
0.0
  9
$LIMMAX
 10
0.0
 20
0.0
  9
$ORTHOMODE
 70
     0
  9
$REGENMODE
 70
     1
  9
$FILLMODE
 70
     1
  9
$QTEXTMODE
 70
     0
  9
$MIRRTEXT
 70
     1
  9
$LTSCALE
 40
1.0
  9
$ATTMODE
 70
     1
  9
$TEXTSIZE
 40
0.2
  9
$TRACEWID
 40
0.05
  9
$TEXTSTYLE
  7
Standard
  9
$CLAYER
  8
0
  9
$CELTYPE
  6
Continuous
  9
$CECOLOR
 62
   256
  9
$CELTSCALE
 40
1.0
  9
$DISPSILH
 70
     0
  9
$DIMSCALE
 40
1.0
  9
$DIMASZ
 40
0.18
  9
$DIMEXO
 40
0.0625
  9
$DIMDLI
 40
0.38
  9
$DIMRND
 40
0.0
  9
$DIMDLE
 40
0.0
  9
$DIMEXE
 40
0.18
  9
$DIMTP
 40
0.0
  9
$DIMTM
 40
0.0
  9
$DIMTXT
 40
0.18
  9
$DIMCEN
 40
0.09
  9
$DIMTSZ
 40
0.0
  9
$DIMTOL
 70
     0
  9
$DIMLIM
 70
     0
  9
$DIMTIH
 70
     1
  9
$DIMTOH
 70
     1
  9
$DIMSE1
 70
     0
  9
$DIMSE2
 70
     0
  9
$DIMTAD
 70
     0
  9
$DIMZIN
 70
     0
  9
$DIMBLK
  1

  9
$DIMASO
 70
     1
  9
$DIMSHO
 70
     1
  9
$DIMPOST
  1

  9
$DIMAPOST
  1

  9
$DIMALT
 70
     0
  9
$DIMALTD
 70
     2
  9
$DIMALTF
 40
25.4
  9
$DIMLFAC
 40
1.0
  9
$DIMTOFL
 70
     0
  9
$DIMTVP
 40
0.0
  9
$DIMTIX
 70
     0
  9
$DIMSOXD
 70
     0
  9
$DIMSAH
 70
     0
  9
$DIMBLK1
  1

  9
$DIMBLK2
  1

  9
$DIMSTYLE
  2
Standard
  9
$DIMCLRD
 70
     0
  9
$DIMCLRE
 70
     0
  9
$DIMCLRT
 70
     0
  9
$DIMTFAC
 40
1.0
  9
$DIMGAP
 40
0.09
  9
$DIMJUST
 70
     0
  9
$DIMSD1
 70
     0
  9
$DIMSD2
 70
     0
  9
$DIMTOLJ
 70
     1
  9
$DIMTZIN
 70
     0
  9
$DIMALTZ
 70
     0
  9
$DIMALTTZ
 70
     0
  9
$DIMUPT
 70
     0
  9
$DIMDEC
 70
     4
  9
$DIMTDEC
 70
     4
  9
$DIMALTU
 70
     2
  9
$DIMALTTD
 70
     2
  9
$DIMTXSTY
  7
Standard
  9
$DIMAUNIT
 70
     0
  9
$DIMADEC
 70
     0
  9
$DIMALTRND
 40
0.0
  9
$DIMAZIN
 70
     0
  9
$DIMDSEP
 70
     0
  9
$DIMATFIT
 70
     3
  9
$DIMFRAC
 70
     0
  9
$DIMLDRBLK
  1

  9
$DIMLUNIT
 70
     2
  9
$DIMLWD
 70
     0
  9
$DIMLWE
 70
     0
  9
$DIMTMOVE
 70
     0
  9
$LUNITS
 70
     2
  9
$LUPREC
 70
     4
  9
$SKETCHINC
 40
0.1
  9
$FILLETRAD
 40
0.0
  9
$AUNITS
 70
     0
  9
$AUPREC
 70
     0
  9
$MENU
  1
acad
  9
$ELEVATION
 40
0.0
  9
$PELEVATION
 40
0.0
  9
$THICKNESS
 40
0.0
  9
$LIMCHECK
 70
     0
  9
$CHAMFERA
 40
0.0
  9
$CHAMFERB
 40
0.0
  9
$CHAMFERC
 40
0.0
  9
$CHAMFERD
 40
0.0
  9
$SKPOLY
 70
     0
  9
$TDCREATE
 40
0.000000000
  9
$TDUCREATE
 40
0.000000000
  9
$TDUPDATE
 40
0.000000000
  9
$TDUUPDATE
 40
0.000000000
  9
$TDINDWG
 40
0.0000000000
  9
$TDUSRTIMER
 40
0.0000000000
  9
$USRTIMER
 70
     1
  9
$ANGBASE
 50
0.0
  9
$ANGDIR
 70
     0
  9
$PDMODE
 70
     0
  9
$PDSIZE
 40
0.0
  9
$PLINEWID
 40
0.0
  9
$SPLFRAME
 70
     0
  9
$SPLINETYPE
 70
     6
  9
$SPLINESEGS
 70
     8
  9
$HANDSEED
  5
100
  9
$SURFTAB1
 70
     6
  9
$SURFTAB2
 70
     6
  9
$SURFTYPE
 70
     6
  9
$SURFU
 70
     6
  9
$SURFV
 70
     6
  9
$UCSBASE
  2

  9
$UCSNAME
  2

  9
$UCSORG
 10
0.0
 20
0.0
 30
0.0
  9
$UCSXDIR
 10
1.0
 20
0.0
 30
0.0
  9
$UCSYDIR
 10
0.0
 20
1.0
 30
0.0
  9
$UCSORTHOREF
  2

  9
$UCSORTHOVIEW
 70
     0
  9
$UCSORGTOP
 10
0.0
 20
0.0
 30
0.0
  9
$UCSORGBOTTOM
 10
0.0
 20
0.0
 30
0.0
  9
$UCSORGLEFT
 10
0.0
 20
0.0
 30
0.0
  9
$UCSORGRIGHT
 10
0.0
 20
0.0
 30
0.0
  9
$UCSORGFRONT
 10
0.0
 20
0.0
 30
0.0
  9
$UCSORGBACK
 10
0.0
 20
0.0
 30
0.0
  9
$PUCSBASE
  2

  9
$PUCSNAME
  2

  9
$PUCSORG
 10
0.0
 20
0.0
 30
0.0
  9
$PUCSXDIR
 10
1.0
 20
0.0
 30
0.0
  9
$PUCSYDIR
 10
0.0
 20
1.0
 30
0.0
  9
$PUCSORTHOREF
  2

  9
$PUCSORTHOVIEW
 70
     0
  9
$PUCSORGTOP
 10
0.0
 20
0.0
 30
0.0
  9
$PUCSORGBOTTOM
 10
0.0
 20
0.0
 30
0.0
  9
$PUCSORGLEFT
 10
0.0
 20
0.0
 30
0.0
  9
$PUCSORGRIGHT
 10
0.0
 20
0.0
 30
0.0
  9
$PUCSORGFRONT
 10
0.0
 20
0.0
 30
0.0
  9
$PUCSORGBACK
 10
0.0
 20
0.0
 30
0.0
  9
$USERI1
 70
     0
  9
$USERI2
 70
     0
  9
$USERI3
 70
     0
  9
$USERI4
 70
     0
  9
$USERI5
 70
     0
  9
$USERR1
 40
0.0
  9
$USERR2
 40
0.0
  9
$USERR3
 40
0.0
  9
$USERR4
 40
0.0
  9
$USERR5
 40
0.0
  9
$WORLDVIEW
 70
     1
  9
$SHADEDGE
 70
     3
  9
$SHADEDIF
 70
    70
  9
$TILEMODE
 70
     1
  9
$MAXACTVP
 70
    16
  9
$PINSBASE
 10
0.0
 20
0.0
 30
0.0
  9
$PLIMCHECK
 70
     0
  9
$PEXTMIN
 10
1.000000E+20
 20
1.000000E+20
 30
1.000000E+20
  9
$PEXTMAX
 10
-1.000000E+20
 20
-1.000000E+20
 30
-1.000000E+20
  9
$PLIMMIN
 10
0.0
 20
0.0
  9
$PLIMMAX
 10
12.0
 20
9.0
  9
$UNITMODE
 70
     0
  9
$VISRETAIN
 70
     0
  9
$PLINEGEN
 70
     1
  9
$PSLTSCALE
 70
     0
  9
$TREEDEPTH
 70
  3020
  9
$CMLSTYLE
  2
Standard
  9
$CMLJUST
 70
     0
  9
$CMLSCALE
 40
1.0
  9
$PROXYGRAPHICS
 70
     0
  9
$MEASUREMENT
 70
     0
  9
$CELWEIGHT
370
     0
  9
$ENDCAPS
280
     0
  9
$JOINSTYLE
280
     0
  9
$LWDISPLAY
290
     0
  9
$INSUNITS
 70
     4
  9
$HYPERLINKBASE
  1

  9
$XEDIT
290
     1
  9
$CEPSNTYPE
380
     0
  9
$PSTYLEMODE
290
     1
  9
$FINGERPRINTGUID
  2

  9
$VERSIONGUID
  2

  9
$EXTNAMES
290
     1
  9
$PSVPSCALE
 40
0.0
  0
ENDSEC
  0
SECTION
  2
CLASSES
  0
CLASS
  1
LWPOLYLINE
  2
AcDbPolyline
  3
AutoCAD 2000
 90
    32768
280
     0
281
     1
  0
CLASS
  1
IMAGE
  2
AcDbRasterImage
  3
ISM
 90
    32895
280
     0
281
     1
  0
CLASS
  1
OLE2FRAME
  2
AcDbOle2Frame
  3
AutoCAD 2000
 90
    32768
280
     0
281
     1
  0
CLASS
  1
HATCH
  2
AcDbHatch
  3
AutoCAD 2000
 90
    32768
280
     0
281
     1
  0
CLASS
  1
DICTIONARYVAR
  2
AcDbDictionaryVar
  3
AutoCAD 2000
 90
    32768
280
     0
281
     0
  0
CLASS
  1
RASTERVARIABLES
  2
AcDbRasterVariables
  3
ISM
 90
    32768
280
     0
281
     0
  0
CLASS
  1
IMAGEDEF
  2
AcDbRasterImageDef
  3
ISM
 90
    32768
280
     0
281
     0
  0
CLASS
  1
IMAGEDEF_REACTOR
  2
AcDbRasterImageDefReactor
  3
ISM
 90
    32769
280
     0
281
     0
  0
CLASS
  1
IDBUFFER
  2
AcDbIdBuffer
  3
AutoCAD 2000
 90
    32768
280
     0
281
     0
  0
CLASS
  1
SPATIAL_FILTER
  2
AcDbSpatialFilter
  3
AutoCAD 2000
 90
    32768
280
     0
281
     0
  0
CLASS
  1
XRECORD
  2
AcDbXrecord
  3
AutoCAD 2000
 90
    32768
280
     0
281
     0
  0
CLASS
  1
SORTENTSTABLE
  2
AcDbSortentsTable
  3
AutoCAD 2000
 90
    32768
280
     0
281
     0
  0
CLASS
  1
LAYER_INDEX
  2
AcDbLayerIndex
  3
AutoCAD 2000
 90
    32768
280
     0
281
     0
  0
CLASS
  1
SPATIAL_INDEX
  2
AcDbSpatialIndex
  3
AutoCAD 2000
 90
    32768
280
     0
281
     0
  0
CLASS
  1
OBJECT_PTR
  2
CAseDLPNTableRecord
  3
"ASE-LPNTableRecord"
 90
    32769
280
     0
281
     0
  0
CLASS
  1
LAYOUT
  2
AcDbLayout
  3
AutoCAD 2000
 90
        0
280
     0
281
     0
  0
CLASS
  1
PLOTSETTINGS
  2
AcDbPlotSettings
  3
AutoCAD 2000
 90
    32768
280
     0
281
     0
  0
CLASS
  1
ACDBDICTIONARYWDFLT
  2
AcDbDictionaryWithDefault
  3
AutoCAD 2000
 90
        0
280
     0
281
     0
  0
CLASS
  1
ACDBPLACEHOLDER
  2
AcDbPlaceHolder
  3
AutoCAD 2000
 90
        0
280
     0
281
     0
  0
CLASS
  1
VBA_PROJECT
  2
AcDbVbaProject
  3
acadvba
 90
    32768
280
     0
281
     0
  0
CLASS
  1
WIPEOUT
  2
AcDbWipeout
  3
WipeOut|AutoCAD Express Tool|expresstools@autodesk.com
 90
    32895
280
     0
281
     1
  0
CLASS
  1
WIPEOUTVARIABLES
  2
AcDbWipeoutVariables
  3
WipeOut|AutoCAD Express Tool|expresstools@autodesk.com
 90
        0
280
     0
281
     0
  0
CLASS
  1
RTEXT
  2
RText
  3
RText|AutoCAD Express Tool|expresstools@autodesk.com
 90
    32768
280
     0
281
     1
  0
CLASS
  1
ARCALIGNEDTEXT
  2
AcDbArcAlignedText
  3
ATEXT|AutoCAD Express Tool|expresstools@autodesk.com
 90
    32768
280
     0
281
     1
  0
ENDSEC
  0
SECTION
  2
TABLES
  0
TABLE
  2
VPORT
  5
7
100
AcDbSymbolTable
 70
     1
  0
VPORT
  5
15
100
AcDbSymbolTableRecord
100
AcDbViewportTableRecord
  2
*ACTIVE
 70
     0
 10
0.0
 20
0.0
 11
1.0
 21
1.0
 12
6.591288
 22
4.579184
 13
0.0
 23
0.0
 14
1.0
 24
1.0
 15
0.0
 25
0.0
 16
0.0
 26
0.0
 36
1.0
 17
0.0
 27
0.0
 37
0.0
 40
9.158369
 41
0.688564
 42
50.0
 43
0.0
 44
0.0
 50
0.0
 51
0.0
 71
     0
 72
   100
 73
     1
 74
     1
 75
     0
 76
     0
 77
     0
 78
     0
281
     0
 65
     0
110
0.0
120
0.0
130
0.0
111
1.0
121
0.0
131
0.0
112
0.0
122
1.0
132
0.0
345
0
346
0
 79
     0
146
0.0
  0
ENDTAB
  0
TABLE
  2
LTYPE
  5
4
100
AcDbSymbolTable
 70
     4
  0
LTYPE
  5
11
100
AcDbSymbolTableRecord
100
AcDbLinetypeTableRecord
  2
ByBlock
 70
    64
  3

 72
    65
 73
     0
 40
0.0
  0
LTYPE
  5
12
100
AcDbSymbolTableRecord
100
AcDbLinetypeTableRecord
  2
ByLayer
 70
    64
  3

 72
    65
 73
     0
 40
0.0
  0
LTYPE
  5
13
100
AcDbSymbolTableRecord
100
AcDbLinetypeTableRecord
  2
Continuous
 70
    64
  3
Solid line
 72
    65
 73
     0
 40
0.0
  0
LTYPE
  5
31
100
AcDbSymbolTableRecord
100
AcDbLinetypeTableRecord
  2
New Line1
 70
    65
  3

 72
    64
 73
     4
 40
2.5
 49
1.8
 74
     0
 49
-0.3
 74
     0
 49
0.1
 74
     0
 49
-0.3
 74
     0
  0
ENDTAB
  0
TABLE
  2
LAYER
  5
2
100
AcDbSymbolTable
 70
     2
  0
LAYER
  5
14
100
AcDbSymbolTableRecord
100
AcDbLayerTableRecord
  2
0
 70
     0
 62
     7
  6
Continuous
290
     1
370
    -3
390
1D
  0
LAYER
  5
24
100
AcDbSymbolTableRecord
100
AcDbLayerTableRecord
  2
Ebene 1
 70
     0
 62
     7
  6
Continuous
290
     1
370
    -3
390
1F
  0
ENDTAB
  0
TABLE
  2
STYLE
  5
3
100
AcDbSymbolTable
 70
     2
  0
STYLE
  5
17
100
AcDbSymbolTableRecord
100
AcDbTextStyleTableRecord
  2
Standard
 70
     0
 40
0.0
 41
1.0
 50
0.0
 71
     0
 42
0.0
  3
txt
  4

  0
STYLE
  5
25
100
AcDbSymbolTableRecord
100
AcDbTextStyleTableRecord
  2
Arial
 70
     0
 40
1.0
 41
1.0
 50
0.0
 71
     0
 42
1.0
  3
Arial
  4

  0
ENDTAB
  0
TABLE
  2
VIEW
  5
5
100
AcDbSymbolTable
 70
     0
  0
ENDTAB
  0
TABLE
  2
UCS
  5
6
100
AcDbSymbolTable
 70
     0
  0
ENDTAB
  0
TABLE
  2
APPID
  5
8
100
AcDbSymbolTable
 70
     1
  0
APPID
  5
16
100
AcDbSymbolTableRecord
100
AcDbRegAppTableRecord
  2
ACAD
 70
     0
  0
ENDTAB
  0
TABLE
  2
DIMSTYLE
  5
9
100
AcDbSymbolTable
 70
     1
100
AcDbDimStyleTable
 71
     0
  0
DIMSTYLE
105
18
100
AcDbSymbolTableRecord
100
AcDbDimStyleTableRecord
  2
Standard
 70
     0
  3

  4

 40
1.0
 41
0.18
 42
0.0625
 43
0.38
 44
0.18
 45
0.0
 46
0.0
 47
0.0
 48
0.0
 71
     0
 72
     0
 73
     1
 74
     1
 75
     0
 76
     0
 77
     0
 78
     0
 79
     0
140
0.18
141
0.09
142
0.0
143
25.4
144
1.0
145
0.0
146
1.0
147
0.09
148
0.0
170
     0
171
     2
172
     0
173
     0
174
     0
175
     0
176
     0
177
     0
178
     0
179
     0
271
     4
272
     4
273
     2
274
     2
275
     0
276
     0
277
     2
278
    46
279
     0
280
     0
281
     0
282
     0
283
     1
284
     0
285
     0
286
     0
288
     0
340
17
341
0
342
0
343
0
344
0
371
    -2
372
    -2
  0
ENDTAB
  0
TABLE
  2
BLOCK_RECORD
  5
1
100
AcDbSymbolTable
 70
     0
  0
BLOCK_RECORD
  5
A
100
AcDbSymbolTableRecord
100
AcDbBlockTableRecord
  2
*MODEL_SPACE
340
20
  0
BLOCK_RECORD
  5
B
100
AcDbSymbolTableRecord
100
AcDbBlockTableRecord
  2
*PAPER_SPACE
340
21
  0
ENDTAB
  0
ENDSEC
  0
SECTION
  2
BLOCKS
  0
BLOCK
  5
D
100
AcDbEntity
  8
0
100
AcDbBlockBegin
  2
*MODEL_SPACE
 70
     0
 10
0.0
 20
0.0
 30
0.0
  3
*MODEL_SPACE
  1

  0
ENDBLK
  5
E
100
AcDbEntity
  8
0
100
AcDbBlockEnd
  0
BLOCK
  5
F
100
AcDbEntity
 67
     1
  8
0
100
AcDbBlockBegin
  2
*PAPER_SPACE
 70
     0
 10
0.0
 20
0.0
 30
0.0
  3
*PAPER_SPACE
  1

  0
ENDBLK
  5
10
100
AcDbEntity
 67
     1
  8
0
100
AcDbBlockEnd
  0
ENDSEC
  0
SECTION
  2
ENTITIES
  0
TEXT
  5
26
100
AcDbEntity
  8
Ebene 1
100
AcDbText
 10
-48.7144
 20
25.1485
 30
0.0
 40
7.860744
  1
150
 41
1.0
 51
-0.000002
  7
Arial
100
AcDbText
  0
TEXT
  5
27
100
AcDbEntity
  8
Ebene 1
100
AcDbText
 10
-76.7901
 20
19.8525
 30
0.0
 40
7.860744
  1
6
 50
90.0
 51
-0.000002
  7
Arial
100
AcDbText
  0
SPLINE
  5
28
100
AcDbEntity
  8
Ebene 1
370
    20
 62
     0
100
AcDbSpline
210
0.0
220
0.0
230
1.0
 70
     0
 71
     3
 72
     8
 73
     4
 74
     0
 42
0.0000000001
 43
0.0000000001
 40
0.0
 40
0.0
 40
0.0
 40
0.0
 40
1.0
 40
1.0
 40
1.0
 40
1.0
 10
-59.320700000000002
 20
25.150200000000002
 30
0.0
 10
-59.320700000000002
 20
25.150200000000002
 30
0.0
 10
-53.5627
 20
25.150200000000002
 30
0.0
 10
-53.5627
 20
25.150200000000002
 30
0.0
  0
SPLINE
  5
29
100
AcDbEntity
  8
Ebene 1
370
    20
 62
     0
100
AcDbSpline
210
0.0
220
0.0
230
1.0
 70
     0
 71
     3
 72
     8
 73
     4
 74
     0
 42
0.0000000001
 43
0.0000000001
 40
0.0
 40
0.0
 40
0.0
 40
0.0
 40
1.0
 40
1.0
 40
1.0
 40
1.0
 10
-53.5627
 20
25.150200000000002
 30
0.0
 10
-53.5627
 20
25.150200000000002
 30
0.0
 10
-53.5627
 20
30.986900000000002
 30
0.0
 10
-53.5627
 20
30.986900000000002
 30
0.0
  0
SPLINE
  5
2A
100
AcDbEntity
  8
Ebene 1
370
    20
 62
     0
100
AcDbSpline
210
0.0
220
0.0
230
1.0
 70
     0
 71
     3
 72
     8
 73
     4
 74
     0
 42
0.0000000001
 43
0.0000000001
 40
0.0
 40
0.0
 40
0.0
 40
0.0
 40
1.0
 40
1.0
 40
1.0
 40
1.0
 10
-59.320700000000002
 20
30.986900000000002
 30
0.0
 10
-59.320700000000002
 20
30.986900000000002
 30
0.0
 10
-53.5627
 20
30.986900000000002
 30
0.0
 10
-53.5627
 20
30.986900000000002
 30
0.0
  0
SPLINE
  5
2B
100
AcDbEntity
  8
Ebene 1
370
    20
 62
     0
100
AcDbSpline
210
0.0
220
0.0
230
1.0
 70
     0
 71
     3
 72
     8
 73
     4
 74
     0
 42
0.0000000001
 43
0.0000000001
 40
0.0
 40
0.0
 40
0.0
 40
0.0
 40
1.0
 40
1.0
 40
1.0
 40
1.0
 10
-59.320700000000002
 20
30.986900000000002
 30
0.0
 10
-59.320700000000002
 20
30.986900000000002
 30
0.0
 10
-59.320700000000002
 20
25.150200000000002
 30
0.0
 10
-59.320700000000002
 20
25.150200000000002
 30
0.0
  0
SPLINE
  5
2C
100
AcDbEntity
  8
Ebene 1
370
    40
 62
     0
100
AcDbSpline
210
0.0
220
0.0
230
1.0
 70
     0
 71
     3
 72
     8
 73
     4
 74
     0
 42
0.0000000001
 43
0.0000000001
 40
0.0
 40
0.0
 40
0.0
 40
0.0
 40
1.0
 40
1.0
 40
1.0
 40
1.0
 10
-65.609300000000005
 20
7.9941000000000004
 30
0.0
 10
-65.609300000000005
 20
7.9941000000000004
 30
0.0
 10
-10.1318
 20
7.9941000000000004
 30
0.0
 10
-10.1318
 20
7.9941000000000004
 30
0.0
  0
SPLINE
  5
2D
100
AcDbEntity
  8
Ebene 1
370
    20
 62
     0
100
AcDbSpline
210
0.0
220
0.0
230
1.0
 70
     0
 71
     3
 72
    44
 73
    40
 74
     0
 42
0.0000000001
 43
0.0000000001
 40
0.0
 40
0.0
 40
0.0
 40
0.0
 40
0.1
 40
0.1
 40
0.1
 40
0.1
 40
0.2
 40
0.2
 40
0.2
 40
0.2
 40
0.3
 40
0.3
 40
0.3
 40
0.3
 40
0.4
 40
0.4
 40
0.4
 40
0.4
 40
0.5
 40
0.5
 40
0.5
 40
0.5
 40
0.6
 40
0.6
 40
0.6
 40
0.6
 40
0.7
 40
0.7
 40
0.7
 40
0.7
 40
0.7999999999999999
 40
0.7999999999999999
 40
0.7999999999999999
 40
0.7999999999999999
 40
0.8999999999999999
 40
0.8999999999999999
 40
0.8999999999999999
 40
0.8999999999999999
 40
1.0
 40
1.0
 40
1.0
 40
1.0
 10
70.441299999999998
 20
30.986900000000002
 30
0.0
 10
70.441299999999998
 20
30.986900000000002
 30
0.0
 10
70.578900000000004
 20
30.397300000000001
 30
0.0
 10
70.578900000000004
 20
30.397300000000001
 30
0.0
 10
70.578900000000004
 20
30.397300000000001
 30
0.0
 10
70.578900000000004
 20
30.397300000000001
 30
0.0
 10
71.030900000000003
 20
30.004300000000001
 30
0.0
 10
71.030900000000003
 20
30.004300000000001
 30
0.0
 10
71.030900000000003
 20
30.004300000000001
 30
0.0
 10
71.030900000000003
 20
30.004300000000001
 30
0.0
 10
71.561500000000009
 20
29.8078
 30
0.0
 10
71.561500000000009
 20
29.8078
 30
0.0
 10
71.561500000000009
 20
29.8078
 30
0.0
 10
71.561500000000009
 20
29.8078
 30
0.0
 10
72.15100000000001
 20
29.945300000000003
 30
0.0
 10
72.15100000000001
 20
29.945300000000003
 30
0.0
 10
72.15100000000001
 20
29.945300000000003
 30
0.0
 10
72.15100000000001
 20
29.945300000000003
 30
0.0
 10
72.603000000000009
 20
30.397300000000001
 30
0.0
 10
72.603000000000009
 20
30.397300000000001
 30
0.0
 10
72.603000000000009
 20
30.397300000000001
 30
0.0
 10
72.603000000000009
 20
30.397300000000001
 30
0.0
 10
72.740600000000001
 20
30.927900000000001
 30
0.0
 10
72.740600000000001
 20
30.927900000000001
 30
0.0
 10
72.740600000000001
 20
30.927900000000001
 30
0.0
 10
72.740600000000001
 20
30.927900000000001
 30
0.0
 10
72.603000000000009
 20
31.517500000000002
 30
0.0
 10
72.603000000000009
 20
31.517500000000002
 30
0.0
 10
72.603000000000009
 20
31.517500000000002
 30
0.0
 10
72.603000000000009
 20
31.517500000000002
 30
0.0
 10
72.210000000000008
 20
31.9695
 30
0.0
 10
72.210000000000008
 20
31.9695
 30
0.0
 10
72.210000000000008
 20
31.9695
 30
0.0
 10
72.210000000000008
 20
31.9695
 30
0.0
 10
71.679400000000001
 20
32.166000000000004
 30
0.0
 10
71.679400000000001
 20
32.166000000000004
 30
0.0
 10
71.679400000000001
 20
32.166000000000004
 30
0.0
 10
71.679400000000001
 20
32.166000000000004
 30
0.0
 10
71.620400000000004
 20
32.166000000000004
 30
0.0
 10
71.620400000000004
 20
32.166000000000004
 30
0.0
  0
SPLINE
  5
2E
100
AcDbEntity
  8
Ebene 1
370
    40
 62
     0
100
AcDbSpline
210
0.0
220
0.0
230
1.0
 70
     0
 71
     3
 72
    52
 73
    48
 74
     0
 42
0.0000000001
 43
0.0000000001
 40
0.0
 40
0.0
 40
0.0
 40
0.0
 40
0.0833333333333333
 40
0.0833333333333333
 40
0.0833333333333333
 40
0.0833333333333333
 40
0.1666666666666667
 40
0.1666666666666667
 40
0.1666666666666667
 40
0.1666666666666667
 40
0.25
 40
0.25
 40
0.25
 40
0.25
 40
0.3333333333333333
 40
0.3333333333333333
 40
0.3333333333333333
 40
0.3333333333333333
 40
0.4166666666666666
 40
0.4166666666666666
 40
0.4166666666666666
 40
0.4166666666666666
 40
0.4999999999999999
 40
0.4999999999999999
 40
0.4999999999999999
 40
0.4999999999999999
 40
0.5833333333333333
 40
0.5833333333333333
 40
0.5833333333333333
 40
0.5833333333333333
 40
0.6666666666666666
 40
0.6666666666666666
 40
0.6666666666666666
 40
0.6666666666666666
 40
0.75
 40
0.75
 40
0.75
 40
0.75
 40
0.8333333333333334
 40
0.8333333333333334
 40
0.8333333333333334
 40
0.8333333333333334
 40
0.9166666666666667
 40
0.9166666666666667
 40
0.9166666666666667
 40
0.9166666666666667
 40
1.0
 40
1.0
 40
1.0
 40
1.0
 10
72.603000000000009
 20
30.986900000000002
 30
0.0
 10
72.603000000000009
 20
30.986900000000002
 30
0.0
 10
72.406500000000008
 20
31.517500000000002
 30
0.0
 10
72.406500000000008
 20
31.517500000000002
 30
0.0
 10
72.406500000000008
 20
31.517500000000002
 30
0.0
 10
72.406500000000008
 20
31.517500000000002
 30
0.0
 10
72.013500000000008
 20
31.910500000000003
 30
0.0
 10
72.013500000000008
 20
31.910500000000003
 30
0.0
 10
72.013500000000008
 20
31.910500000000003
 30
0.0
 10
72.013500000000008
 20
31.910500000000003
 30
0.0
 10
71.482900000000001
 20
31.9695
 30
0.0
 10
71.482900000000001
 20
31.9695
 30
0.0
 10
71.482900000000001
 20
31.9695
 30
0.0
 10
71.482900000000001
 20
31.9695
 30
0.0
 10
70.971900000000005
 20
31.773000000000003
 30
0.0
 10
70.971900000000005
 20
31.773000000000003
 30
0.0
 10
70.971900000000005
 20
31.773000000000003
 30
0.0
 10
70.971900000000005
 20
31.773000000000003
 30
0.0
 10
70.69680000000001
 20
31.321000000000002
 30
0.0
 10
70.69680000000001
 20
31.321000000000002
 30
0.0
 10
70.69680000000001
 20
31.321000000000002
 30
0.0
 10
70.69680000000001
 20
31.321000000000002
 30
0.0
 10
70.637799999999999
 20
30.790400000000002
 30
0.0
 10
70.637799999999999
 20
30.790400000000002
 30
0.0
 10
70.637799999999999
 20
30.790400000000002
 30
0.0
 10
70.637799999999999
 20
30.790400000000002
 30
0.0
 10
70.893299999999996
 20
30.259800000000002
 30
0.0
 10
70.893299999999996
 20
30.259800000000002
 30
0.0
 10
70.893299999999996
 20
30.259800000000002
 30
0.0
 10
70.893299999999996
 20
30.259800000000002
 30
0.0
 10
71.423900000000003
 20
30.004300000000001
 30
0.0
 10
71.423900000000003
 20
30.004300000000001
 30
0.0
 10
71.423900000000003
 20
30.004300000000001
 30
0.0
 10
71.423900000000003
 20
30.004300000000001
 30
0.0
 10
71.95450000000001
 20
30.063200000000002
 30
0.0
 10
71.95450000000001
 20
30.063200000000002
 30
0.0
 10
71.95450000000001
 20
30.063200000000002
 30
0.0
 10
71.95450000000001
 20
30.063200000000002
 30
0.0
 10
72.406500000000008
 20
30.397300000000001
 30
0.0
 10
72.406500000000008
 20
30.397300000000001
 30
0.0
 10
72.406500000000008
 20
30.397300000000001
 30
0.0
 10
72.406500000000008
 20
30.397300000000001
 30
0.0
 10
72.603000000000009
 20
30.849300000000003
 30
0.0
 10
72.603000000000009
 20
30.849300000000003
 30
0.0
 10
72.603000000000009
 20
30.849300000000003
 30
0.0
 10
72.603000000000009
 20
30.849300000000003
 30
0.0
 10
72.603000000000009
 20
30.986900000000002
 30
0.0
 10
72.603000000000009
 20
30.986900000000002
 30
0.0
  0
SPLINE
  5
2F
100
AcDbEntity
  8
Ebene 1
370
    40
 62
     0
100
AcDbSpline
210
0.0
220
0.0
230
1.0
 70
     0
 71
     3
 72
    12
 73
     8
 74
     0
 42
0.0000000001
 43
0.0000000001
 40
0.0
 40
0.0
 40
0.0
 40
0.0
 40
0.5
 40
0.5
 40
0.5
 40
0.5
 40
1.0
 40
1.0
 40
1.0
 40
1.0
 10
-11.173400000000001
 20
5.8324000000000007
 30
0.0
 10
-11.173400000000001
 20
5.8324000000000007
 30
0.0
 10
-11.055400000000001
 20
5.8913000000000002
 30
0.0
 10
-11.055400000000001
 20
5.8913000000000002
 30
0.0
 10
-11.055400000000001
 20
5.8913000000000002
 30
0.0
 10
-11.055400000000001
 20
5.8913000000000002
 30
0.0
 10
-10.976800000000001
 20
6.0289000000000001
 30
0.0
 10
-10.976800000000001
 20
6.0289000000000001
 30
0.0
  0
SPLINE
  5
30
100
AcDbEntity
  8
Ebene 1
370
    20
  6
New Line1
 62
     0
100
AcDbSpline
210
0.0
220
0.0
230
1.0
 70
     0
 71
     3
 72
     8
 73
     4
 74
     0
 42
0.0000000001
 43
0.0000000001
 40
0.0
 40
0.0
 40
0.0
 40
0.0
 40
1.0
 40
1.0
 40
1.0
 40
1.0
 10
-37.899999999999999
 20
-1.1048
 30
0.0
 10
-37.899999999999999
 20
-1.1048
 30
0.0
 10
-37.899999999999999
 20
12.062000000000001
 30
0.0
 10
-37.899999999999999
 20
12.062000000000001
 30
0.0
  0
SPLINE
  5
32
100
AcDbEntity
  8
Ebene 1
370
    40
 62
     0
100
AcDbSpline
210
0.0
220
0.0
230
1.0
 70
     0
 71
     3
 72
     8
 73
     4
 74
     0
 42
0.0000000001
 43
0.0000000001
 40
0.0
 40
0.0
 40
0.0
 40
0.0
 40
1.0
 40
1.0
 40
1.0
 40
1.0
 10
-64.6267
 20
2.7470000000000003
 30
0.0
 10
-64.6267
 20
2.7470000000000003
 30
0.0
 10
-11.1144
 20
2.7470000000000003
 30
0.0
 10
-11.1144
 20
2.7470000000000003
 30
0.0
  0
SPLINE
  5
33
100
AcDbEntity
  8
Ebene 1
370
    40
 62
     0
100
AcDbSpline
210
0.0
220
0.0
230
1.0
 70
     0
 71
     3
 72
     8
 73
     4
 74
     0
 42
0.0000000001
 43
0.0000000001
 40
0.0
 40
0.0
 40
0.0
 40
0.0
 40
1.0
 40
1.0
 40
1.0
 40
1.0
 10
-11.1144
 20
2.7470000000000003
 30
0.0
 10
-11.1144
 20
2.7470000000000003
 30
0.0
 10
-10.721400000000001
 20
2.7470000000000003
 30
0.0
 10
-10.721400000000001
 20
2.7470000000000003
 30
0.0
  0
SPLINE
  5
34
100
AcDbEntity
  8
Ebene 1
370
    40
 62
     0
100
AcDbSpline
210
0.0
220
0.0
230
1.0
 70
     0
 71
     3
 72
    20
 73
    16
 74
     0
 42
0.0000000001
 43
0.0000000001
 40
0.0
 40
0.0
 40
0.0
 40
0.0
 40
0.25
 40
0.25
 40
0.25
 40
0.25
 40
0.5
 40
0.5
 40
0.5
 40
0.5
 40
0.75
 40
0.75
 40
0.75
 40
0.75
 40
1.0
 40
1.0
 40
1.0
 40
1.0
 10
74.50930000000001
 20
-18.732600000000001
 30
0.0
 10
74.50930000000001
 20
-18.732600000000001
 30
0.0
 10
75.098799999999997
 20
-18.595000000000002
 30
0.0
 10
75.098799999999997
 20
-18.595000000000002
 30
0.0
 10
75.098799999999997
 20
-18.595000000000002
 30
0.0
 10
75.098799999999997
 20
-18.595000000000002
 30
0.0
 10
75.491900000000001
 20
-18.143000000000001
 30
0.0
 10
75.491900000000001
 20
-18.143000000000001
 30
0.0
 10
75.491900000000001
 20
-18.143000000000001
 30
0.0
 10
75.491900000000001
 20
-18.143000000000001
 30
0.0
 10
75.688400000000001
 20
-17.612400000000001
 30
0.0
 10
75.688400000000001
 20
-17.612400000000001
 30
0.0
 10
75.688400000000001
 20
-17.612400000000001
 30
0.0
 10
75.688400000000001
 20
-17.612400000000001
 30
0.0
 10
75.688400000000001
 20
-17.5535
 30
0.0
 10
75.688400000000001
 20
-17.5535
 30
0.0
  0
SPLINE
  5
35
100
AcDbEntity
  8
Ebene 1
370
    40
 62
     0
100
AcDbSpline
210
0.0
220
0.0
230
1.0
 70
     0
 71
     3
 72
    20
 73
    16
 74
     0
 42
0.0000000001
 43
0.0000000001
 40
0.0
 40
0.0
 40
0.0
 40
0.0
 40
0.25
 40
0.25
 40
0.25
 40
0.25
 40
0.5
 40
0.5
 40
0.5
 40
0.5
 40
0.75
 40
0.75
 40
0.75
 40
0.75
 40
1.0
 40
1.0
 40
1.0
 40
1.0
 10
21.9009
 20
-17.5535
 30
0.0
 10
21.9009
 20
-17.5535
 30
0.0
 10
22.038500000000003
 20
-18.143000000000001
 30
0.0
 10
22.038500000000003
 20
-18.143000000000001
 30
0.0
 10
22.038500000000003
 20
-18.143000000000001
 30
0.0
 10
22.038500000000003
 20
-18.143000000000001
 30
0.0
 10
22.490500000000001
 20
-18.536100000000001
 30
0.0
 10
22.490500000000001
 20
-18.536100000000001
 30
0.0
 10
22.490500000000001
 20
-18.536100000000001
 30
0.0
 10
22.490500000000001
 20
-18.536100000000001
 30
0.0
 10
23.021100000000001
 20
-18.732600000000001
 30
0.0
 10
23.021100000000001
 20
-18.732600000000001
 30
0.0
 10
23.021100000000001
 20
-18.732600000000001
 30
0.0
 10
23.021100000000001
 20
-18.732600000000001
 30
0.0
 10
23.080000000000002
 20
-18.732600000000001
 30
0.0
 10
23.080000000000002
 20
-18.732600000000001
 30
0.0
  0
SPLINE
  5
36
100
AcDbEntity
  8
Ebene 1
370
    40
 62
     0
100
AcDbSpline
210
0.0
220
0.0
230
1.0
 70
     0
 71
     3
 72
    16
 73
    12
 74
     0
 42
0.0000000001
 43
0.0000000001
 40
0.0
 40
0.0
 40
0.0
 40
0.0
 40
0.3333333333333333
 40
0.3333333333333333
 40
0.3333333333333333
 40
0.3333333333333333
 40
0.6666666666666666
 40
0.6666666666666666
 40
0.6666666666666666
 40
0.6666666666666666
 40
1.0
 40
1.0
 40
1.0
 40
1.0
 10
75.688400000000001
 20
33.875700000000002
 30
0.0
 10
75.688400000000001
 20
33.875700000000002
 30
0.0
 10
75.491900000000001
 20
34.465299999999999
 30
0.0
 10
75.491900000000001
 20
34.465299999999999
 30
0.0
 10
75.491900000000001
 20
34.465299999999999
 30
0.0
 10
75.491900000000001
 20
34.465299999999999
 30
0.0
 10
75.098799999999997
 20
34.8583
 30
0.0
 10
75.098799999999997
 20
34.8583
 30
0.0
 10
75.098799999999997
 20
34.8583
 30
0.0
 10
75.098799999999997
 20
34.8583
 30
0.0
 10
74.50930000000001
 20
35.0548
 30
0.0
 10
74.50930000000001
 20
35.0548
 30
0.0
  0
SPLINE
  5
37
100
AcDbEntity
  8
Ebene 1
370
    40
 62
     0
100
AcDbSpline
210
0.0
220
0.0
230
1.0
 70
     0
 71
     3
 72
    20
 73
    16
 74
     0
 42
0.0000000001
 43
0.0000000001
 40
0.0
 40
0.0
 40
0.0
 40
0.0
 40
0.25
 40
0.25
 40
0.25
 40
0.25
 40
0.5
 40
0.5
 40
0.5
 40
0.5
 40
0.75
 40
0.75
 40
0.75
 40
0.75
 40
1.0
 40
1.0
 40
1.0
 40
1.0
 10
23.080000000000002
 20
35.0548
 30
0.0
 10
23.080000000000002
 20
35.0548
 30
0.0
 10
22.490500000000001
 20
34.917300000000004
 30
0.0
 10
22.490500000000001
 20
34.917300000000004
 30
0.0
 10
22.490500000000001
 20
34.917300000000004
 30
0.0
 10
22.490500000000001
 20
34.917300000000004
 30
0.0
 10
22.038500000000003
 20
34.465299999999999
 30
0.0
 10
22.038500000000003
 20
34.465299999999999
 30
0.0
 10
22.038500000000003
 20
34.465299999999999
 30
0.0
 10
22.038500000000003
 20
34.465299999999999
 30
0.0
 10
21.9009
 20
33.934699999999999
 30
0.0
 10
21.9009
 20
33.934699999999999
 30
0.0
 10
21.9009
 20
33.934699999999999
 30
0.0
 10
21.9009
 20
33.934699999999999
 30
0.0
 10
21.9009
 20
33.875700000000002
 30
0.0
 10
21.9009
 20
33.875700000000002
 30
0.0
  0
SPLINE
  5
38
100
AcDbEntity
  8
Ebene 1
370
    40
 62
     0
100
AcDbSpline
210
0.0
220
0.0
230
1.0
 70
     0
 71
     3
 72
     8
 73
     4
 74
     0
 42
0.0000000001
 43
0.0000000001
 40
0.0
 40
0.0
 40
0.0
 40
0.0
 40
1.0
 40
1.0
 40
1.0
 40
1.0
 10
21.9009
 20
33.875700000000002
 30
0.0
 10
21.9009
 20
33.875700000000002
 30
0.0
 10
21.9009
 20
-17.5535
 30
0.0
 10
21.9009
 20
-17.5535
 30
0.0
  0
SPLINE
  5
39
100
AcDbEntity
  8
Ebene 1
370
    40
 62
     0
100
AcDbSpline
210
0.0
220
0.0
230
1.0
 70
     0
 71
     3
 72
     8
 73
     4
 74
     0
 42
0.0000000001
 43
0.0000000001
 40
0.0
 40
0.0
 40
0.0
 40
0.0
 40
1.0
 40
1.0
 40
1.0
 40
1.0
 10
23.080000000000002
 20
-18.732600000000001
 30
0.0
 10
23.080000000000002
 20
-18.732600000000001
 30
0.0
 10
74.50930000000001
 20
-18.732600000000001
 30
0.0
 10
74.50930000000001
 20
-18.732600000000001
 30
0.0
  0
SPLINE
  5
3A
100
AcDbEntity
  8
Ebene 1
370
    40
 62
     0
100
AcDbSpline
210
0.0
220
0.0
230
1.0
 70
     0
 71
     3
 72
     8
 73
     4
 74
     0
 42
0.0000000001
 43
0.0000000001
 40
0.0
 40
0.0
 40
0.0
 40
0.0
 40
1.0
 40
1.0
 40
1.0
 40
1.0
 10
75.688400000000001
 20
-17.5535
 30
0.0
 10
75.688400000000001
 20
-17.5535
 30
0.0
 10
75.688400000000001
 20
33.875700000000002
 30
0.0
 10
75.688400000000001
 20
33.875700000000002
 30
0.0
  0
SPLINE
  5
3B
100
AcDbEntity
  8
Ebene 1
370
    40
 62
     0
100
AcDbSpline
210
0.0
220
0.0
230
1.0
 70
     0
 71
     3
 72
     8
 73
     4
 74
     0
 42
0.0000000001
 43
0.0000000001
 40
0.0
 40
0.0
 40
0.0
 40
0.0
 40
1.0
 40
1.0
 40
1.0
 40
1.0
 10
23.080000000000002
 20
35.0548
 30
0.0
 10
23.080000000000002
 20
35.0548
 30
0.0
 10
74.50930000000001
 20
35.0548
 30
0.0
 10
74.50930000000001
 20
35.0548
 30
0.0
  0
SPLINE
  5
3C
100
AcDbEntity
  8
Ebene 1
370
    20
 62
     0
100
AcDbSpline
210
0.0
220
0.0
230
1.0
 70
     0
 71
     3
 72
    84
 73
    80
 74
     0
 42
0.0000000001
 43
0.0000000001
 40
0.0
 40
0.0
 40
0.0
 40
0.0
 40
0.05
 40
0.05
 40
0.05
 40
0.05
 40
0.1
 40
0.1
 40
0.1
 40
0.1
 40
0.15
 40
0.15
 40
0.15
 40
0.15
 40
0.2
 40
0.2
 40
0.2
 40
0.2
 40
0.25
 40
0.25
 40
0.25
 40
0.25
 40
0.3
 40
0.3
 40
0.3
 40
0.3
 40
0.35
 40
0.35
 40
0.35
 40
0.35
 40
0.4
 40
0.4
 40
0.4
 40
0.4
 40
0.45
 40
0.45
 40
0.45
 40
0.45
 40
0.4999999999999999
 40
0.4999999999999999
 40
0.4999999999999999
 40
0.4999999999999999
 40
0.5499999999999999
 40
0.5499999999999999
 40
0.5499999999999999
 40
0.5499999999999999
 40
0.6
 40
0.6
 40
0.6
 40
0.6
 40
0.65
 40
0.65
 40
0.65
 40
0.65
 40
0.7000000000000001
 40
0.7000000000000001
 40
0.7000000000000001
 40
0.7000000000000001
 40
0.7500000000000001
 40
0.7500000000000001
 40
0.7500000000000001
 40
0.7500000000000001
 40
0.8000000000000002
 40
0.8000000000000002
 40
0.8000000000000002
 40
0.8000000000000002
 40
0.8500000000000002
 40
0.8500000000000002
 40
0.8500000000000002
 40
0.8500000000000002
 40
0.9000000000000002
 40
0.9000000000000002
 40
0.9000000000000002
 40
0.9000000000000002
 40
0.9500000000000003
 40
0.9500000000000003
 40
0.9500000000000003
 40
0.9500000000000003
 40
1.0
 40
1.0
 40
1.0
 40
1.0
 10
71.620400000000004
 20
-17.5535
 30
0.0
 10
71.620400000000004
 20
-17.5535
 30
0.0
 10
72.5441
 20
-17.3569
 30
0.0
 10
72.5441
 20
-17.3569
 30
0.0
 10
72.5441
 20
-17.3569
 30
0.0
 10
72.5441
 20
-17.3569
 30
0.0
 10
73.330100000000002
 20
-16.905000000000001
 30
0.0
 10
73.330100000000002
 20
-16.905000000000001
 30
0.0
 10
73.330100000000002
 20
-16.905000000000001
 30
0.0
 10
73.330100000000002
 20
-16.905000000000001
 30
0.0
 10
73.978700000000003
 20
-16.236800000000002
 30
0.0
 10
73.978700000000003
 20
-16.236800000000002
 30
0.0
 10
73.978700000000003
 20
-16.236800000000002
 30
0.0
 10
73.978700000000003
 20
-16.236800000000002
 30
0.0
 10
74.371700000000004
 20
-15.3918
 30
0.0
 10
74.371700000000004
 20
-15.3918
 30
0.0
 10
74.371700000000004
 20
-15.3918
 30
0.0
 10
74.371700000000004
 20
-15.3918
 30
0.0
 10
74.430700000000002
 20
-14.468100000000002
 30
0.0
 10
74.430700000000002
 20
-14.468100000000002
 30
0.0
 10
74.430700000000002
 20
-14.468100000000002
 30
0.0
 10
74.430700000000002
 20
-14.468100000000002
 30
0.0
 10
74.234099999999998
 20
-13.5641
 30
0.0
 10
74.234099999999998
 20
-13.5641
 30
0.0
 10
74.234099999999998
 20
-13.5641
 30
0.0
 10
74.234099999999998
 20
-13.5641
 30
0.0
 10
73.723200000000006
 20
-12.778
 30
0.0
 10
73.723200000000006
 20
-12.778
 30
0.0
 10
73.723200000000006
 20
-12.778
 30
0.0
 10
73.723200000000006
 20
-12.778
 30
0.0
 10
72.996099999999998
 20
-12.188500000000001
 30
0.0
 10
72.996099999999998
 20
-12.188500000000001
 30
0.0
 10
72.996099999999998
 20
-12.188500000000001
 30
0.0
 10
72.996099999999998
 20
-12.188500000000001
 30
0.0
 10
72.15100000000001
 20
-11.8544
 30
0.0
 10
72.15100000000001
 20
-11.8544
 30
0.0
 10
72.15100000000001
 20
-11.8544
 30
0.0
 10
72.15100000000001
 20
-11.8544
 30
0.0
 10
71.168400000000005
 20
-11.8544
 30
0.0
 10
71.168400000000005
 20
-11.8544
 30
0.0
 10
71.168400000000005
 20
-11.8544
 30
0.0
 10
71.168400000000005
 20
-11.8544
 30
0.0
 10
70.303700000000006
 20
-12.109900000000001
 30
0.0
 10
70.303700000000006
 20
-12.109900000000001
 30
0.0
 10
70.303700000000006
 20
-12.109900000000001
 30
0.0
 10
70.303700000000006
 20
-12.109900000000001
 30
0.0
 10
69.517700000000005
 20
-12.699400000000001
 30
0.0
 10
69.517700000000005
 20
-12.699400000000001
 30
0.0
 10
69.517700000000005
 20
-12.699400000000001
 30
0.0
 10
69.517700000000005
 20
-12.699400000000001
 30
0.0
 10
69.006700000000009
 20
-13.4855
 30
0.0
 10
69.006700000000009
 20
-13.4855
 30
0.0
 10
69.006700000000009
 20
-13.4855
 30
0.0
 10
69.006700000000009
 20
-13.4855
 30
0.0
 10
68.7316
 20
-14.350200000000001
 30
0.0
 10
68.7316
 20
-14.350200000000001
 30
0.0
 10
68.7316
 20
-14.350200000000001
 30
0.0
 10
68.7316
 20
-14.350200000000001
 30
0.0
 10
68.810200000000009
 20
-15.332800000000001
 30
0.0
 10
68.810200000000009
 20
-15.332800000000001
 30
0.0
 10
68.810200000000009
 20
-15.332800000000001
 30
0.0
 10
68.810200000000009
 20
-15.332800000000001
 30
0.0
 10
69.20320000000001
 20
-16.177800000000001
 30
0.0
 10
69.20320000000001
 20
-16.177800000000001
 30
0.0
 10
69.20320000000001
 20
-16.177800000000001
 30
0.0
 10
69.20320000000001
 20
-16.177800000000001
 30
0.0
 10
69.7928
 20
-16.905000000000001
 30
0.0
 10
69.7928
 20
-16.905000000000001
 30
0.0
 10
69.7928
 20
-16.905000000000001
 30
0.0
 10
69.7928
 20
-16.905000000000001
 30
0.0
 10
70.578900000000004
 20
-17.3569
 30
0.0
 10
70.578900000000004
 20
-17.3569
 30
0.0
 10
70.578900000000004
 20
-17.3569
 30
0.0
 10
70.578900000000004
 20
-17.3569
 30
0.0
 10
71.482900000000001
 20
-17.5535
 30
0.0
 10
71.482900000000001
 20
-17.5535
 30
0.0
 10
71.482900000000001
 20
-17.5535
 30
0.0
 10
71.482900000000001
 20
-17.5535
 30
0.0
 10
71.620400000000004
 20
-17.5535
 30
0.0
 10
71.620400000000004
 20
-17.5535
 30
0.0
  0
SPLINE
  5
3D
100
AcDbEntity
  8
Ebene 1
370
    40
 62
     0
100
AcDbSpline
210
0.0
220
0.0
230
1.0
 70
     0
 71
     3
 72
    80
 73
    76
 74
     0
 42
0.0000000001
 43
0.0000000001
 40
0.0
 40
0.0
 40
0.0
 40
0.0
 40
0.0526315789473684
 40
0.0526315789473684
 40
0.0526315789473684
 40
0.0526315789473684
 40
0.1052631578947368
 40
0.1052631578947368
 40
0.1052631578947368
 40
0.1052631578947368
 40
0.1578947368421053
 40
0.1578947368421053
 40
0.1578947368421053
 40
0.1578947368421053
 40
0.2105263157894737
 40
0.2105263157894737
 40
0.2105263157894737
 40
0.2105263157894737
 40
0.2631578947368421
 40
0.2631578947368421
 40
0.2631578947368421
 40
0.2631578947368421
 40
0.3157894736842105
 40
0.3157894736842105
 40
0.3157894736842105
 40
0.3157894736842105
 40
0.3684210526315789
 40
0.3684210526315789
 40
0.3684210526315789
 40
0.3684210526315789
 40
0.4210526315789474
 40
0.4210526315789474
 40
0.4210526315789474
 40
0.4210526315789474
 40
0.4736842105263158
 40
0.4736842105263158
 40
0.4736842105263158
 40
0.4736842105263158
 40
0.5263157894736842
 40
0.5263157894736842
 40
0.5263157894736842
 40
0.5263157894736842
 40
0.5789473684210527
 40
0.5789473684210527
 40
0.5789473684210527
 40
0.5789473684210527
 40
0.631578947368421
 40
0.631578947368421
 40
0.631578947368421
 40
0.631578947368421
 40
0.6842105263157894
 40
0.6842105263157894
 40
0.6842105263157894
 40
0.6842105263157894
 40
0.7368421052631577
 40
0.7368421052631577
 40
0.7368421052631577
 40
0.7368421052631577
 40
0.7894736842105261
 40
0.7894736842105261
 40
0.7894736842105261
 40
0.7894736842105261
 40
0.8421052631578945
 40
0.8421052631578945
 40
0.8421052631578945
 40
0.8421052631578945
 40
0.8947368421052628
 40
0.8947368421052628
 40
0.8947368421052628
 40
0.8947368421052628
 40
0.9473684210526312
 40
0.9473684210526312
 40
0.9473684210526312
 40
0.9473684210526312
 40
1.0
 40
1.0
 40
1.0
 40
1.0
 10
25.968900000000001
 20
28.294600000000003
 30
0.0
 10
25.968900000000001
 20
28.294600000000003
 30
0.0
 10
26.872900000000001
 20
28.432100000000002
 30
0.0
 10
26.872900000000001
 20
28.432100000000002
 30
0.0
 10
26.872900000000001
 20
28.432100000000002
 30
0.0
 10
26.872900000000001
 20
28.432100000000002
 30
0.0
 10
27.659000000000002
 20
28.8841
 30
0.0
 10
27.659000000000002
 20
28.8841
 30
0.0
 10
27.659000000000002
 20
28.8841
 30
0.0
 10
27.659000000000002
 20
28.8841
 30
0.0
 10
28.2485
 20
29.552300000000002
 30
0.0
 10
28.2485
 20
29.552300000000002
 30
0.0
 10
28.2485
 20
29.552300000000002
 30
0.0
 10
28.2485
 20
29.552300000000002
 30
0.0
 10
28.582600000000003
 20
30.397300000000001
 30
0.0
 10
28.582600000000003
 20
30.397300000000001
 30
0.0
 10
28.582600000000003
 20
30.397300000000001
 30
0.0
 10
28.582600000000003
 20
30.397300000000001
 30
0.0
 10
28.641500000000001
 20
31.321000000000002
 30
0.0
 10
28.641500000000001
 20
31.321000000000002
 30
0.0
 10
28.641500000000001
 20
31.321000000000002
 30
0.0
 10
28.641500000000001
 20
31.321000000000002
 30
0.0
 10
28.386100000000003
 20
32.166000000000004
 30
0.0
 10
28.386100000000003
 20
32.166000000000004
 30
0.0
 10
28.386100000000003
 20
32.166000000000004
 30
0.0
 10
28.386100000000003
 20
32.166000000000004
 30
0.0
 10
27.855500000000003
 20
32.952100000000002
 30
0.0
 10
27.855500000000003
 20
32.952100000000002
 30
0.0
 10
27.855500000000003
 20
32.952100000000002
 30
0.0
 10
27.855500000000003
 20
32.952100000000002
 30
0.0
 10
27.069400000000002
 20
33.4041
 30
0.0
 10
27.069400000000002
 20
33.4041
 30
0.0
 10
27.069400000000002
 20
33.4041
 30
0.0
 10
27.069400000000002
 20
33.4041
 30
0.0
 10
26.224400000000003
 20
33.679200000000002
 30
0.0
 10
26.224400000000003
 20
33.679200000000002
 30
0.0
 10
26.224400000000003
 20
33.679200000000002
 30
0.0
 10
26.224400000000003
 20
33.679200000000002
 30
0.0
 10
25.300700000000003
 20
33.6006
 30
0.0
 10
25.300700000000003
 20
33.6006
 30
0.0
 10
25.300700000000003
 20
33.6006
 30
0.0
 10
25.300700000000003
 20
33.6006
 30
0.0
 10
24.4557
 20
33.207599999999999
 30
0.0
 10
24.4557
 20
33.207599999999999
 30
0.0
 10
24.4557
 20
33.207599999999999
 30
0.0
 10
24.4557
 20
33.207599999999999
 30
0.0
 10
23.807200000000002
 20
32.618000000000002
 30
0.0
 10
23.807200000000002
 20
32.618000000000002
 30
0.0
 10
23.807200000000002
 20
32.618000000000002
 30
0.0
 10
23.807200000000002
 20
32.618000000000002
 30
0.0
 10
23.414100000000001
 20
31.831900000000001
 30
0.0
 10
23.414100000000001
 20
31.831900000000001
 30
0.0
 10
23.414100000000001
 20
31.831900000000001
 30
0.0
 10
23.414100000000001
 20
31.831900000000001
 30
0.0
 10
23.276600000000002
 20
30.927900000000001
 30
0.0
 10
23.276600000000002
 20
30.927900000000001
 30
0.0
 10
23.276600000000002
 20
30.927900000000001
 30
0.0
 10
23.276600000000002
 20
30.927900000000001
 30
0.0
 10
23.414100000000001
 20
30.004300000000001
 30
0.0
 10
23.414100000000001
 20
30.004300000000001
 30
0.0
 10
23.414100000000001
 20
30.004300000000001
 30
0.0
 10
23.414100000000001
 20
30.004300000000001
 30
0.0
 10
23.866099999999999
 20
29.218200000000003
 30
0.0
 10
23.866099999999999
 20
29.218200000000003
 30
0.0
 10
23.866099999999999
 20
29.218200000000003
 30
0.0
 10
23.866099999999999
 20
29.218200000000003
 30
0.0
 10
24.5932
 20
28.628600000000002
 30
0.0
 10
24.5932
 20
28.628600000000002
 30
0.0
 10
24.5932
 20
28.628600000000002
 30
0.0
 10
24.5932
 20
28.628600000000002
 30
0.0
 10
25.438300000000002
 20
28.294600000000003
 30
0.0
 10
25.438300000000002
 20
28.294600000000003
 30
0.0
 10
25.438300000000002
 20
28.294600000000003
 30
0.0
 10
25.438300000000002
 20
28.294600000000003
 30
0.0
 10
25.968900000000001
 20
28.294600000000003
 30
0.0
 10
25.968900000000001
 20
28.294600000000003
 30
0.0
  0
SPLINE
  5
3E
100
AcDbEntity
  8
Ebene 1
370
    20
 62
     0
100
AcDbSpline
210
0.0
220
0.0
230
1.0
 70
     0
 71
     3
 72
    84
 73
    80
 74
     0
 42
0.0000000001
 43
0.0000000001
 40
0.0
 40
0.0
 40
0.0
 40
0.0
 40
0.05
 40
0.05
 40
0.05
 40
0.05
 40
0.1
 40
0.1
 40
0.1
 40
0.1
 40
0.15
 40
0.15
 40
0.15
 40
0.15
 40
0.2
 40
0.2
 40
0.2
 40
0.2
 40
0.25
 40
0.25
 40
0.25
 40
0.25
 40
0.3
 40
0.3
 40
0.3
 40
0.3
 40
0.35
 40
0.35
 40
0.35
 40
0.35
 40
0.4
 40
0.4
 40
0.4
 40
0.4
 40
0.45
 40
0.45
 40
0.45
 40
0.45
 40
0.4999999999999999
 40
0.4999999999999999
 40
0.4999999999999999
 40
0.4999999999999999
 40
0.5499999999999999
 40
0.5499999999999999
 40
0.5499999999999999
 40
0.5499999999999999
 40
0.6
 40
0.6
 40
0.6
 40
0.6
 40
0.65
 40
0.65
 40
0.65
 40
0.65
 40
0.7000000000000001
 40
0.7000000000000001
 40
0.7000000000000001
 40
0.7000000000000001
 40
0.7500000000000001
 40
0.7500000000000001
 40
0.7500000000000001
 40
0.7500000000000001
 40
0.8000000000000002
 40
0.8000000000000002
 40
0.8000000000000002
 40
0.8000000000000002
 40
0.8500000000000002
 40
0.8500000000000002
 40
0.8500000000000002
 40
0.8500000000000002
 40
0.9000000000000002
 40
0.9000000000000002
 40
0.9000000000000002
 40
0.9000000000000002
 40
0.9500000000000003
 40
0.9500000000000003
 40
0.9500000000000003
 40
0.9500000000000003
 40
1.0
 40
1.0
 40
1.0
 40
1.0
 10
25.968900000000001
 20
28.098000000000003
 30
0.0
 10
25.968900000000001
 20
28.098000000000003
 30
0.0
 10
26.872900000000001
 20
28.294600000000003
 30
0.0
 10
26.872900000000001
 20
28.294600000000003
 30
0.0
 10
26.872900000000001
 20
28.294600000000003
 30
0.0
 10
26.872900000000001
 20
28.294600000000003
 30
0.0
 10
27.7376
 20
28.6876
 30
0.0
 10
27.7376
 20
28.6876
 30
0.0
 10
27.7376
 20
28.6876
 30
0.0
 10
27.7376
 20
28.6876
 30
0.0
 10
28.327100000000002
 20
29.4147
 30
0.0
 10
28.327100000000002
 20
29.4147
 30
0.0
 10
28.327100000000002
 20
29.4147
 30
0.0
 10
28.327100000000002
 20
29.4147
 30
0.0
 10
28.720200000000002
 20
30.259800000000002
 30
0.0
 10
28.720200000000002
 20
30.259800000000002
 30
0.0
 10
28.720200000000002
 20
30.259800000000002
 30
0.0
 10
28.720200000000002
 20
30.259800000000002
 30
0.0
 10
28.7791
 20
31.183400000000002
 30
0.0
 10
28.7791
 20
31.183400000000002
 30
0.0
 10
28.7791
 20
31.183400000000002
 30
0.0
 10
28.7791
 20
31.183400000000002
 30
0.0
 10
28.582600000000003
 20
32.106999999999999
 30
0.0
 10
28.582600000000003
 20
32.106999999999999
 30
0.0
 10
28.582600000000003
 20
32.106999999999999
 30
0.0
 10
28.582600000000003
 20
32.106999999999999
 30
0.0
 10
28.052
 20
32.893100000000004
 30
0.0
 10
28.052
 20
32.893100000000004
 30
0.0
 10
28.052
 20
32.893100000000004
 30
0.0
 10
28.052
 20
32.893100000000004
 30
0.0
 10
27.3445
 20
33.482700000000001
 30
0.0
 10
27.3445
 20
33.482700000000001
 30
0.0
 10
27.3445
 20
33.482700000000001
 30
0.0
 10
27.3445
 20
33.482700000000001
 30
0.0
 10
26.479800000000001
 20
33.7971
 30
0.0
 10
26.479800000000001
 20
33.7971
 30
0.0
 10
26.479800000000001
 20
33.7971
 30
0.0
 10
26.479800000000001
 20
33.7971
 30
0.0
 10
25.497200000000003
 20
33.7971
 30
0.0
 10
25.497200000000003
 20
33.7971
 30
0.0
 10
25.497200000000003
 20
33.7971
 30
0.0
 10
25.497200000000003
 20
33.7971
 30
0.0
 10
24.652200000000001
 20
33.541600000000003
 30
0.0
 10
24.652200000000001
 20
33.541600000000003
 30
0.0
 10
24.652200000000001
 20
33.541600000000003
 30
0.0
 10
24.652200000000001
 20
33.541600000000003
 30
0.0
 10
23.866099999999999
 20
32.952100000000002
 30
0.0
 10
23.866099999999999
 20
32.952100000000002
 30
0.0
 10
23.866099999999999
 20
32.952100000000002
 30
0.0
 10
23.866099999999999
 20
32.952100000000002
 30
0.0
 10
23.3355
 20
32.166000000000004
 30
0.0
 10
23.3355
 20
32.166000000000004
 30
0.0
 10
23.3355
 20
32.166000000000004
 30
0.0
 10
23.3355
 20
32.166000000000004
 30
0.0
 10
23.080000000000002
 20
31.2424
 30
0.0
 10
23.080000000000002
 20
31.2424
 30
0.0
 10
23.080000000000002
 20
31.2424
 30
0.0
 10
23.080000000000002
 20
31.2424
 30
0.0
 10
23.138999999999999
 20
30.3384
 30
0.0
 10
23.138999999999999
 20
30.3384
 30
0.0
 10
23.138999999999999
 20
30.3384
 30
0.0
 10
23.138999999999999
 20
30.3384
 30
0.0
 10
23.532
 20
29.473700000000001
 30
0.0
 10
23.532
 20
29.473700000000001
 30
0.0
 10
23.532
 20
29.473700000000001
 30
0.0
 10
23.532
 20
29.473700000000001
 30
0.0
 10
24.121600000000001
 20
28.766200000000001
 30
0.0
 10
24.121600000000001
 20
28.766200000000001
 30
0.0
 10
24.121600000000001
 20
28.766200000000001
 30
0.0
 10
24.121600000000001
 20
28.766200000000001
 30
0.0
 10
24.9863
 20
28.294600000000003
 30
0.0
 10
24.9863
 20
28.294600000000003
 30
0.0
 10
24.9863
 20
28.294600000000003
 30
0.0
 10
24.9863
 20
28.294600000000003
 30
0.0
 10
25.8903
 20
28.098000000000003
 30
0.0
 10
25.8903
 20
28.098000000000003
 30
0.0
 10
25.8903
 20
28.098000000000003
 30
0.0
 10
25.8903
 20
28.098000000000003
 30
0.0
 10
25.968900000000001
 20
28.098000000000003
 30
0.0
 10
25.968900000000001
 20
28.098000000000003
 30
0.0
  0
SPLINE
  5
3F
100
AcDbEntity
  8
Ebene 1
370
    40
 62
     0
100
AcDbSpline
210
0.0
220
0.0
230
1.0
 70
     0
 71
     3
 72
    80
 73
    76
 74
     0
 42
0.0000000001
 43
0.0000000001
 40
0.0
 40
0.0
 40
0.0
 40
0.0
 40
0.0526315789473684
 40
0.0526315789473684
 40
0.0526315789473684
 40
0.0526315789473684
 40
0.1052631578947368
 40
0.1052631578947368
 40
0.1052631578947368
 40
0.1052631578947368
 40
0.1578947368421053
 40
0.1578947368421053
 40
0.1578947368421053
 40
0.1578947368421053
 40
0.2105263157894737
 40
0.2105263157894737
 40
0.2105263157894737
 40
0.2105263157894737
 40
0.2631578947368421
 40
0.2631578947368421
 40
0.2631578947368421
 40
0.2631578947368421
 40
0.3157894736842105
 40
0.3157894736842105
 40
0.3157894736842105
 40
0.3157894736842105
 40
0.3684210526315789
 40
0.3684210526315789
 40
0.3684210526315789
 40
0.3684210526315789
 40
0.4210526315789474
 40
0.4210526315789474
 40
0.4210526315789474
 40
0.4210526315789474
 40
0.4736842105263158
 40
0.4736842105263158
 40
0.4736842105263158
 40
0.4736842105263158
 40
0.5263157894736842
 40
0.5263157894736842
 40
0.5263157894736842
 40
0.5263157894736842
 40
0.5789473684210527
 40
0.5789473684210527
 40
0.5789473684210527
 40
0.5789473684210527
 40
0.631578947368421
 40
0.631578947368421
 40
0.631578947368421
 40
0.631578947368421
 40
0.6842105263157894
 40
0.6842105263157894
 40
0.6842105263157894
 40
0.6842105263157894
 40
0.7368421052631577
 40
0.7368421052631577
 40
0.7368421052631577
 40
0.7368421052631577
 40
0.7894736842105261
 40
0.7894736842105261
 40
0.7894736842105261
 40
0.7894736842105261
 40
0.8421052631578945
 40
0.8421052631578945
 40
0.8421052631578945
 40
0.8421052631578945
 40
0.8947368421052628
 40
0.8947368421052628
 40
0.8947368421052628
 40
0.8947368421052628
 40
0.9473684210526312
 40
0.9473684210526312
 40
0.9473684210526312
 40
0.9473684210526312
 40
1.0
 40
1.0
 40
1.0
 40
1.0
 10
25.968900000000001
 20
-17.3569
 30
0.0
 10
25.968900000000001
 20
-17.3569
 30
0.0
 10
26.872900000000001
 20
-17.2194
 30
0.0
 10
26.872900000000001
 20
-17.2194
 30
0.0
 10
26.872900000000001
 20
-17.2194
 30
0.0
 10
26.872900000000001
 20
-17.2194
 30
0.0
 10
27.659000000000002
 20
-16.767400000000002
 30
0.0
 10
27.659000000000002
 20
-16.767400000000002
 30
0.0
 10
27.659000000000002
 20
-16.767400000000002
 30
0.0
 10
27.659000000000002
 20
-16.767400000000002
 30
0.0
 10
28.2485
 20
-16.1189
 30
0.0
 10
28.2485
 20
-16.1189
 30
0.0
 10
28.2485
 20
-16.1189
 30
0.0
 10
28.2485
 20
-16.1189
 30
0.0
 10
28.582600000000003
 20
-15.254200000000001
 30
0.0
 10
28.582600000000003
 20
-15.254200000000001
 30
0.0
 10
28.582600000000003
 20
-15.254200000000001
 30
0.0
 10
28.582600000000003
 20
-15.254200000000001
 30
0.0
 10
28.641500000000001
 20
-14.350200000000001
 30
0.0
 10
28.641500000000001
 20
-14.350200000000001
 30
0.0
 10
28.641500000000001
 20
-14.350200000000001
 30
0.0
 10
28.641500000000001
 20
-14.350200000000001
 30
0.0
 10
28.386100000000003
 20
-13.4855
 30
0.0
 10
28.386100000000003
 20
-13.4855
 30
0.0
 10
28.386100000000003
 20
-13.4855
 30
0.0
 10
28.386100000000003
 20
-13.4855
 30
0.0
 10
27.855500000000003
 20
-12.699400000000001
 30
0.0
 10
27.855500000000003
 20
-12.699400000000001
 30
0.0
 10
27.855500000000003
 20
-12.699400000000001
 30
0.0
 10
27.855500000000003
 20
-12.699400000000001
 30
0.0
 10
27.069400000000002
 20
-12.188500000000001
 30
0.0
 10
27.069400000000002
 20
-12.188500000000001
 30
0.0
 10
27.069400000000002
 20
-12.188500000000001
 30
0.0
 10
27.069400000000002
 20
-12.188500000000001
 30
0.0
 10
26.224400000000003
 20
-11.992000000000001
 30
0.0
 10
26.224400000000003
 20
-11.992000000000001
 30
0.0
 10
26.224400000000003
 20
-11.992000000000001
 30
0.0
 10
26.224400000000003
 20
-11.992000000000001
 30
0.0
 10
25.300700000000003
 20
-12.0509
 30
0.0
 10
25.300700000000003
 20
-12.0509
 30
0.0
 10
25.300700000000003
 20
-12.0509
 30
0.0
 10
25.300700000000003
 20
-12.0509
 30
0.0
 10
24.4557
 20
-12.385
 30
0.0
 10
24.4557
 20
-12.385
 30
0.0
 10
24.4557
 20
-12.385
 30
0.0
 10
24.4557
 20
-12.385
 30
0.0
 10
23.807200000000002
 20
-13.0335
 30
0.0
 10
23.807200000000002
 20
-13.0335
 30
0.0
 10
23.807200000000002
 20
-13.0335
 30
0.0
 10
23.807200000000002
 20
-13.0335
 30
0.0
 10
23.414100000000001
 20
-13.819600000000001
 30
0.0
 10
23.414100000000001
 20
-13.819600000000001
 30
0.0
 10
23.414100000000001
 20
-13.819600000000001
 30
0.0
 10
23.414100000000001
 20
-13.819600000000001
 30
0.0
 10
23.276600000000002
 20
-14.7432
 30
0.0
 10
23.276600000000002
 20
-14.7432
 30
0.0
 10
23.276600000000002
 20
-14.7432
 30
0.0
 10
23.276600000000002
 20
-14.7432
 30
0.0
 10
23.414100000000001
 20
-15.647200000000002
 30
0.0
 10
23.414100000000001
 20
-15.647200000000002
 30
0.0
 10
23.414100000000001
 20
-15.647200000000002
 30
0.0
 10
23.414100000000001
 20
-15.647200000000002
 30
0.0
 10
23.866099999999999
 20
-16.433299999999999
 30
0.0
 10
23.866099999999999
 20
-16.433299999999999
 30
0.0
 10
23.866099999999999
 20
-16.433299999999999
 30
0.0
 10
23.866099999999999
 20
-16.433299999999999
 30
0.0
 10
24.5932
 20
-17.0229
 30
0.0
 10
24.5932
 20
-17.0229
 30
0.0
 10
24.5932
 20
-17.0229
 30
0.0
 10
24.5932
 20
-17.0229
 30
0.0
 10
25.438300000000002
 20
-17.298000000000002
 30
0.0
 10
25.438300000000002
 20
-17.298000000000002
 30
0.0
 10
25.438300000000002
 20
-17.298000000000002
 30
0.0
 10
25.438300000000002
 20
-17.298000000000002
 30
0.0
 10
25.968900000000001
 20
-17.3569
 30
0.0
 10
25.968900000000001
 20
-17.3569
 30
0.0
  0
SPLINE
  5
40
100
AcDbEntity
  8
Ebene 1
370
    20
 62
     0
100
AcDbSpline
210
0.0
220
0.0
230
1.0
 70
     0
 71
     3
 72
    84
 73
    80
 74
     0
 42
0.0000000001
 43
0.0000000001
 40
0.0
 40
0.0
 40
0.0
 40
0.0
 40
0.05
 40
0.05
 40
0.05
 40
0.05
 40
0.1
 40
0.1
 40
0.1
 40
0.1
 40
0.15
 40
0.15
 40
0.15
 40
0.15
 40
0.2
 40
0.2
 40
0.2
 40
0.2
 40
0.25
 40
0.25
 40
0.25
 40
0.25
 40
0.3
 40
0.3
 40
0.3
 40
0.3
 40
0.35
 40
0.35
 40
0.35
 40
0.35
 40
0.4
 40
0.4
 40
0.4
 40
0.4
 40
0.45
 40
0.45
 40
0.45
 40
0.45
 40
0.4999999999999999
 40
0.4999999999999999
 40
0.4999999999999999
 40
0.4999999999999999
 40
0.5499999999999999
 40
0.5499999999999999
 40
0.5499999999999999
 40
0.5499999999999999
 40
0.6
 40
0.6
 40
0.6
 40
0.6
 40
0.65
 40
0.65
 40
0.65
 40
0.65
 40
0.7000000000000001
 40
0.7000000000000001
 40
0.7000000000000001
 40
0.7000000000000001
 40
0.7500000000000001
 40
0.7500000000000001
 40
0.7500000000000001
 40
0.7500000000000001
 40
0.8000000000000002
 40
0.8000000000000002
 40
0.8000000000000002
 40
0.8000000000000002
 40
0.8500000000000002
 40
0.8500000000000002
 40
0.8500000000000002
 40
0.8500000000000002
 40
0.9000000000000002
 40
0.9000000000000002
 40
0.9000000000000002
 40
0.9000000000000002
 40
0.9500000000000003
 40
0.9500000000000003
 40
0.9500000000000003
 40
0.9500000000000003
 40
1.0
 40
1.0
 40
1.0
 40
1.0
 10
25.968900000000001
 20
-17.5535
 30
0.0
 10
25.968900000000001
 20
-17.5535
 30
0.0
 10
26.872900000000001
 20
-17.3569
 30
0.0
 10
26.872900000000001
 20
-17.3569
 30
0.0
 10
26.872900000000001
 20
-17.3569
 30
0.0
 10
26.872900000000001
 20
-17.3569
 30
0.0
 10
27.7376
 20
-16.905000000000001
 30
0.0
 10
27.7376
 20
-16.905000000000001
 30
0.0
 10
27.7376
 20
-16.905000000000001
 30
0.0
 10
27.7376
 20
-16.905000000000001
 30
0.0
 10
28.327100000000002
 20
-16.236800000000002
 30
0.0
 10
28.327100000000002
 20
-16.236800000000002
 30
0.0
 10
28.327100000000002
 20
-16.236800000000002
 30
0.0
 10
28.327100000000002
 20
-16.236800000000002
 30
0.0
 10
28.720200000000002
 20
-15.3918
 30
0.0
 10
28.720200000000002
 20
-15.3918
 30
0.0
 10
28.720200000000002
 20
-15.3918
 30
0.0
 10
28.720200000000002
 20
-15.3918
 30
0.0
 10
28.7791
 20
-14.468100000000002
 30
0.0
 10
28.7791
 20
-14.468100000000002
 30
0.0
 10
28.7791
 20
-14.468100000000002
 30
0.0
 10
28.7791
 20
-14.468100000000002
 30
0.0
 10
28.582600000000003
 20
-13.5641
 30
0.0
 10
28.582600000000003
 20
-13.5641
 30
0.0
 10
28.582600000000003
 20
-13.5641
 30
0.0
 10
28.582600000000003
 20
-13.5641
 30
0.0
 10
28.052
 20
-12.778
 30
0.0
 10
28.052
 20
-12.778
 30
0.0
 10
28.052
 20
-12.778
 30
0.0
 10
28.052
 20
-12.778
 30
0.0
 10
27.3445
 20
-12.188500000000001
 30
0.0
 10
27.3445
 20
-12.188500000000001
 30
0.0
 10
27.3445
 20
-12.188500000000001
 30
0.0
 10
27.3445
 20
-12.188500000000001
 30
0.0
 10
26.479800000000001
 20
-11.8544
 30
0.0
 10
26.479800000000001
 20
-11.8544
 30
0.0
 10
26.479800000000001
 20
-11.8544
 30
0.0
 10
26.479800000000001
 20
-11.8544
 30
0.0
 10
25.497200000000003
 20
-11.8544
 30
0.0
 10
25.497200000000003
 20
-11.8544
 30
0.0
 10
25.497200000000003
 20
-11.8544
 30
0.0
 10
25.497200000000003
 20
-11.8544
 30
0.0
 10
24.652200000000001
 20
-12.109900000000001
 30
0.0
 10
24.652200000000001
 20
-12.109900000000001
 30
0.0
 10
24.652200000000001
 20
-12.109900000000001
 30
0.0
 10
24.652200000000001
 20
-12.109900000000001
 30
0.0
 10
23.866099999999999
 20
-12.699400000000001
 30
0.0
 10
23.866099999999999
 20
-12.699400000000001
 30
0.0
 10
23.866099999999999
 20
-12.699400000000001
 30
0.0
 10
23.866099999999999
 20
-12.699400000000001
 30
0.0
 10
23.3355
 20
-13.4855
 30
0.0
 10
23.3355
 20
-13.4855
 30
0.0
 10
23.3355
 20
-13.4855
 30
0.0
 10
23.3355
 20
-13.4855
 30
0.0
 10
23.080000000000002
 20
-14.350200000000001
 30
0.0
 10
23.080000000000002
 20
-14.350200000000001
 30
0.0
 10
23.080000000000002
 20
-14.350200000000001
 30
0.0
 10
23.080000000000002
 20
-14.350200000000001
 30
0.0
 10
23.138999999999999
 20
-15.332800000000001
 30
0.0
 10
23.138999999999999
 20
-15.332800000000001
 30
0.0
 10
23.138999999999999
 20
-15.332800000000001
 30
0.0
 10
23.138999999999999
 20
-15.332800000000001
 30
0.0
 10
23.532
 20
-16.177800000000001
 30
0.0
 10
23.532
 20
-16.177800000000001
 30
0.0
 10
23.532
 20
-16.177800000000001
 30
0.0
 10
23.532
 20
-16.177800000000001
 30
0.0
 10
24.121600000000001
 20
-16.905000000000001
 30
0.0
 10
24.121600000000001
 20
-16.905000000000001
 30
0.0
 10
24.121600000000001
 20
-16.905000000000001
 30
0.0
 10
24.121600000000001
 20
-16.905000000000001
 30
0.0
 10
24.9863
 20
-17.3569
 30
0.0
 10
24.9863
 20
-17.3569
 30
0.0
 10
24.9863
 20
-17.3569
 30
0.0
 10
24.9863
 20
-17.3569
 30
0.0
 10
25.8903
 20
-17.5535
 30
0.0
 10
25.8903
 20
-17.5535
 30
0.0
 10
25.8903
 20
-17.5535
 30
0.0
 10
25.8903
 20
-17.5535
 30
0.0
 10
25.968900000000001
 20
-17.5535
 30
0.0
 10
25.968900000000001
 20
-17.5535
 30
0.0
  0
SPLINE
  5
41
100
AcDbEntity
  8
Ebene 1
370
    40
 62
     0
100
AcDbSpline
210
0.0
220
0.0
230
1.0
 70
     0
 71
     3
 72
    80
 73
    76
 74
     0
 42
0.0000000001
 43
0.0000000001
 40
0.0
 40
0.0
 40
0.0
 40
0.0
 40
0.0526315789473684
 40
0.0526315789473684
 40
0.0526315789473684
 40
0.0526315789473684
 40
0.1052631578947368
 40
0.1052631578947368
 40
0.1052631578947368
 40
0.1052631578947368
 40
0.1578947368421053
 40
0.1578947368421053
 40
0.1578947368421053
 40
0.1578947368421053
 40
0.2105263157894737
 40
0.2105263157894737
 40
0.2105263157894737
 40
0.2105263157894737
 40
0.2631578947368421
 40
0.2631578947368421
 40
0.2631578947368421
 40
0.2631578947368421
 40
0.3157894736842105
 40
0.3157894736842105
 40
0.3157894736842105
 40
0.3157894736842105
 40
0.3684210526315789
 40
0.3684210526315789
 40
0.3684210526315789
 40
0.3684210526315789
 40
0.4210526315789474
 40
0.4210526315789474
 40
0.4210526315789474
 40
0.4210526315789474
 40
0.4736842105263158
 40
0.4736842105263158
 40
0.4736842105263158
 40
0.4736842105263158
 40
0.5263157894736842
 40
0.5263157894736842
 40
0.5263157894736842
 40
0.5263157894736842
 40
0.5789473684210527
 40
0.5789473684210527
 40
0.5789473684210527
 40
0.5789473684210527
 40
0.631578947368421
 40
0.631578947368421
 40
0.631578947368421
 40
0.631578947368421
 40
0.6842105263157894
 40
0.6842105263157894
 40
0.6842105263157894
 40
0.6842105263157894
 40
0.7368421052631577
 40
0.7368421052631577
 40
0.7368421052631577
 40
0.7368421052631577
 40
0.7894736842105261
 40
0.7894736842105261
 40
0.7894736842105261
 40
0.7894736842105261
 40
0.8421052631578945
 40
0.8421052631578945
 40
0.8421052631578945
 40
0.8421052631578945
 40
0.8947368421052628
 40
0.8947368421052628
 40
0.8947368421052628
 40
0.8947368421052628
 40
0.9473684210526312
 40
0.9473684210526312
 40
0.9473684210526312
 40
0.9473684210526312
 40
1.0
 40
1.0
 40
1.0
 40
1.0
 10
71.620400000000004
 20
28.294600000000003
 30
0.0
 10
71.620400000000004
 20
28.294600000000003
 30
0.0
 10
72.465500000000006
 20
28.432100000000002
 30
0.0
 10
72.465500000000006
 20
28.432100000000002
 30
0.0
 10
72.465500000000006
 20
28.432100000000002
 30
0.0
 10
72.465500000000006
 20
28.432100000000002
 30
0.0
 10
73.330100000000002
 20
28.8841
 30
0.0
 10
73.330100000000002
 20
28.8841
 30
0.0
 10
73.330100000000002
 20
28.8841
 30
0.0
 10
73.330100000000002
 20
28.8841
 30
0.0
 10
73.919700000000006
 20
29.552300000000002
 30
0.0
 10
73.919700000000006
 20
29.552300000000002
 30
0.0
 10
73.919700000000006
 20
29.552300000000002
 30
0.0
 10
73.919700000000006
 20
29.552300000000002
 30
0.0
 10
74.234099999999998
 20
30.397300000000001
 30
0.0
 10
74.234099999999998
 20
30.397300000000001
 30
0.0
 10
74.234099999999998
 20
30.397300000000001
 30
0.0
 10
74.234099999999998
 20
30.397300000000001
 30
0.0
 10
74.312700000000007
 20
31.321000000000002
 30
0.0
 10
74.312700000000007
 20
31.321000000000002
 30
0.0
 10
74.312700000000007
 20
31.321000000000002
 30
0.0
 10
74.312700000000007
 20
31.321000000000002
 30
0.0
 10
74.037599999999998
 20
32.166000000000004
 30
0.0
 10
74.037599999999998
 20
32.166000000000004
 30
0.0
 10
74.037599999999998
 20
32.166000000000004
 30
0.0
 10
74.037599999999998
 20
32.166000000000004
 30
0.0
 10
73.526700000000005
 20
32.952100000000002
 30
0.0
 10
73.526700000000005
 20
32.952100000000002
 30
0.0
 10
73.526700000000005
 20
32.952100000000002
 30
0.0
 10
73.526700000000005
 20
32.952100000000002
 30
0.0
 10
72.740600000000001
 20
33.4041
 30
0.0
 10
72.740600000000001
 20
33.4041
 30
0.0
 10
72.740600000000001
 20
33.4041
 30
0.0
 10
72.740600000000001
 20
33.4041
 30
0.0
 10
71.875900000000001
 20
33.679200000000002
 30
0.0
 10
71.875900000000001
 20
33.679200000000002
 30
0.0
 10
71.875900000000001
 20
33.679200000000002
 30
0.0
 10
71.875900000000001
 20
33.679200000000002
 30
0.0
 10
70.971900000000005
 20
33.6006
 30
0.0
 10
70.971900000000005
 20
33.6006
 30
0.0
 10
70.971900000000005
 20
33.6006
 30
0.0
 10
70.971900000000005
 20
33.6006
 30
0.0
 10
70.107200000000006
 20
33.207599999999999
 30
0.0
 10
70.107200000000006
 20
33.207599999999999
 30
0.0
 10
70.107200000000006
 20
33.207599999999999
 30
0.0
 10
70.107200000000006
 20
33.207599999999999
 30
0.0
 10
69.458700000000007
 20
32.618000000000002
 30
0.0
 10
69.458700000000007
 20
32.618000000000002
 30
0.0
 10
69.458700000000007
 20
32.618000000000002
 30
0.0
 10
69.458700000000007
 20
32.618000000000002
 30
0.0
 10
69.006700000000009
 20
31.831900000000001
 30
0.0
 10
69.006700000000009
 20
31.831900000000001
 30
0.0
 10
69.006700000000009
 20
31.831900000000001
 30
0.0
 10
69.006700000000009
 20
31.831900000000001
 30
0.0
 10
68.869100000000003
 20
30.927900000000001
 30
0.0
 10
68.869100000000003
 20
30.927900000000001
 30
0.0
 10
68.869100000000003
 20
30.927900000000001
 30
0.0
 10
68.869100000000003
 20
30.927900000000001
 30
0.0
 10
69.065700000000007
 20
30.004300000000001
 30
0.0
 10
69.065700000000007
 20
30.004300000000001
 30
0.0
 10
69.065700000000007
 20
30.004300000000001
 30
0.0
 10
69.065700000000007
 20
30.004300000000001
 30
0.0
 10
69.517700000000005
 20
29.218200000000003
 30
0.0
 10
69.517700000000005
 20
29.218200000000003
 30
0.0
 10
69.517700000000005
 20
29.218200000000003
 30
0.0
 10
69.517700000000005
 20
29.218200000000003
 30
0.0
 10
70.244799999999998
 20
28.628600000000002
 30
0.0
 10
70.244799999999998
 20
28.628600000000002
 30
0.0
 10
70.244799999999998
 20
28.628600000000002
 30
0.0
 10
70.244799999999998
 20
28.628600000000002
 30
0.0
 10
71.089799999999997
 20
28.294600000000003
 30
0.0
 10
71.089799999999997
 20
28.294600000000003
 30
0.0
 10
71.089799999999997
 20
28.294600000000003
 30
0.0
 10
71.089799999999997
 20
28.294600000000003
 30
0.0
 10
71.620400000000004
 20
28.294600000000003
 30
0.0
 10
71.620400000000004
 20
28.294600000000003
 30
0.0
  0
SPLINE
  5
42
100
AcDbEntity
  8
Ebene 1
370
    20
 62
     0
100
AcDbSpline
210
0.0
220
0.0
230
1.0
 70
     0
 71
     3
 72
    84
 73
    80
 74
     0
 42
0.0000000001
 43
0.0000000001
 40
0.0
 40
0.0
 40
0.0
 40
0.0
 40
0.05
 40
0.05
 40
0.05
 40
0.05
 40
0.1
 40
0.1
 40
0.1
 40
0.1
 40
0.15
 40
0.15
 40
0.15
 40
0.15
 40
0.2
 40
0.2
 40
0.2
 40
0.2
 40
0.25
 40
0.25
 40
0.25
 40
0.25
 40
0.3
 40
0.3
 40
0.3
 40
0.3
 40
0.35
 40
0.35
 40
0.35
 40
0.35
 40
0.4
 40
0.4
 40
0.4
 40
0.4
 40
0.45
 40
0.45
 40
0.45
 40
0.45
 40
0.4999999999999999
 40
0.4999999999999999
 40
0.4999999999999999
 40
0.4999999999999999
 40
0.5499999999999999
 40
0.5499999999999999
 40
0.5499999999999999
 40
0.5499999999999999
 40
0.6
 40
0.6
 40
0.6
 40
0.6
 40
0.65
 40
0.65
 40
0.65
 40
0.65
 40
0.7000000000000001
 40
0.7000000000000001
 40
0.7000000000000001
 40
0.7000000000000001
 40
0.7500000000000001
 40
0.7500000000000001
 40
0.7500000000000001
 40
0.7500000000000001
 40
0.8000000000000002
 40
0.8000000000000002
 40
0.8000000000000002
 40
0.8000000000000002
 40
0.8500000000000002
 40
0.8500000000000002
 40
0.8500000000000002
 40
0.8500000000000002
 40
0.9000000000000002
 40
0.9000000000000002
 40
0.9000000000000002
 40
0.9000000000000002
 40
0.9500000000000003
 40
0.9500000000000003
 40
0.9500000000000003
 40
0.9500000000000003
 40
1.0
 40
1.0
 40
1.0
 40
1.0
 10
71.620400000000004
 20
28.098000000000003
 30
0.0
 10
71.620400000000004
 20
28.098000000000003
 30
0.0
 10
72.5441
 20
28.294600000000003
 30
0.0
 10
72.5441
 20
28.294600000000003
 30
0.0
 10
72.5441
 20
28.294600000000003
 30
0.0
 10
72.5441
 20
28.294600000000003
 30
0.0
 10
73.330100000000002
 20
28.6876
 30
0.0
 10
73.330100000000002
 20
28.6876
 30
0.0
 10
73.330100000000002
 20
28.6876
 30
0.0
 10
73.330100000000002
 20
28.6876
 30
0.0
 10
73.978700000000003
 20
29.4147
 30
0.0
 10
73.978700000000003
 20
29.4147
 30
0.0
 10
73.978700000000003
 20
29.4147
 30
0.0
 10
73.978700000000003
 20
29.4147
 30
0.0
 10
74.371700000000004
 20
30.259800000000002
 30
0.0
 10
74.371700000000004
 20
30.259800000000002
 30
0.0
 10
74.371700000000004
 20
30.259800000000002
 30
0.0
 10
74.371700000000004
 20
30.259800000000002
 30
0.0
 10
74.430700000000002
 20
31.183400000000002
 30
0.0
 10
74.430700000000002
 20
31.183400000000002
 30
0.0
 10
74.430700000000002
 20
31.183400000000002
 30
0.0
 10
74.430700000000002
 20
31.183400000000002
 30
0.0
 10
74.234099999999998
 20
32.106999999999999
 30
0.0
 10
74.234099999999998
 20
32.106999999999999
 30
0.0
 10
74.234099999999998
 20
32.106999999999999
 30
0.0
 10
74.234099999999998
 20
32.106999999999999
 30
0.0
 10
73.723200000000006
 20
32.893100000000004
 30
0.0
 10
73.723200000000006
 20
32.893100000000004
 30
0.0
 10
73.723200000000006
 20
32.893100000000004
 30
0.0
 10
73.723200000000006
 20
32.893100000000004
 30
0.0
 10
72.996099999999998
 20
33.482700000000001
 30
0.0
 10
72.996099999999998
 20
33.482700000000001
 30
0.0
 10
72.996099999999998
 20
33.482700000000001
 30
0.0
 10
72.996099999999998
 20
33.482700000000001
 30
0.0
 10
72.15100000000001
 20
33.7971
 30
0.0
 10
72.15100000000001
 20
33.7971
 30
0.0
 10
72.15100000000001
 20
33.7971
 30
0.0
 10
72.15100000000001
 20
33.7971
 30
0.0
 10
71.168400000000005
 20
33.7971
 30
0.0
 10
71.168400000000005
 20
33.7971
 30
0.0
 10
71.168400000000005
 20
33.7971
 30
0.0
 10
71.168400000000005
 20
33.7971
 30
0.0
 10
70.303700000000006
 20
33.541600000000003
 30
0.0
 10
70.303700000000006
 20
33.541600000000003
 30
0.0
 10
70.303700000000006
 20
33.541600000000003
 30
0.0
 10
70.303700000000006
 20
33.541600000000003
 30
0.0
 10
69.517700000000005
 20
32.952100000000002
 30
0.0
 10
69.517700000000005
 20
32.952100000000002
 30
0.0
 10
69.517700000000005
 20
32.952100000000002
 30
0.0
 10
69.517700000000005
 20
32.952100000000002
 30
0.0
 10
69.006700000000009
 20
32.166000000000004
 30
0.0
 10
69.006700000000009
 20
32.166000000000004
 30
0.0
 10
69.006700000000009
 20
32.166000000000004
 30
0.0
 10
69.006700000000009
 20
32.166000000000004
 30
0.0
 10
68.7316
 20
31.2424
 30
0.0
 10
68.7316
 20
31.2424
 30
0.0
 10
68.7316
 20
31.2424
 30
0.0
 10
68.7316
 20
31.2424
 30
0.0
 10
68.810200000000009
 20
30.3384
 30
0.0
 10
68.810200000000009
 20
30.3384
 30
0.0
 10
68.810200000000009
 20
30.3384
 30
0.0
 10
68.810200000000009
 20
30.3384
 30
0.0
 10
69.20320000000001
 20
29.473700000000001
 30
0.0
 10
69.20320000000001
 20
29.473700000000001
 30
0.0
 10
69.20320000000001
 20
29.473700000000001
 30
0.0
 10
69.20320000000001
 20
29.473700000000001
 30
0.0
 10
69.7928
 20
28.766200000000001
 30
0.0
 10
69.7928
 20
28.766200000000001
 30
0.0
 10
69.7928
 20
28.766200000000001
 30
0.0
 10
69.7928
 20
28.766200000000001
 30
0.0
 10
70.578900000000004
 20
28.294600000000003
 30
0.0
 10
70.578900000000004
 20
28.294600000000003
 30
0.0
 10
70.578900000000004
 20
28.294600000000003
 30
0.0
 10
70.578900000000004
 20
28.294600000000003
 30
0.0
 10
71.482900000000001
 20
28.098000000000003
 30
0.0
 10
71.482900000000001
 20
28.098000000000003
 30
0.0
 10
71.482900000000001
 20
28.098000000000003
 30
0.0
 10
71.482900000000001
 20
28.098000000000003
 30
0.0
 10
71.620400000000004
 20
28.098000000000003
 30
0.0
 10
71.620400000000004
 20
28.098000000000003
 30
0.0
  0
SPLINE
  5
43
100
AcDbEntity
  8
Ebene 1
370
    40
 62
     0
100
AcDbSpline
210
0.0
220
0.0
230
1.0
 70
     0
 71
     3
 72
    80
 73
    76
 74
     0
 42
0.0000000001
 43
0.0000000001
 40
0.0
 40
0.0
 40
0.0
 40
0.0
 40
0.0526315789473684
 40
0.0526315789473684
 40
0.0526315789473684
 40
0.0526315789473684
 40
0.1052631578947368
 40
0.1052631578947368
 40
0.1052631578947368
 40
0.1052631578947368
 40
0.1578947368421053
 40
0.1578947368421053
 40
0.1578947368421053
 40
0.1578947368421053
 40
0.2105263157894737
 40
0.2105263157894737
 40
0.2105263157894737
 40
0.2105263157894737
 40
0.2631578947368421
 40
0.2631578947368421
 40
0.2631578947368421
 40
0.2631578947368421
 40
0.3157894736842105
 40
0.3157894736842105
 40
0.3157894736842105
 40
0.3157894736842105
 40
0.3684210526315789
 40
0.3684210526315789
 40
0.3684210526315789
 40
0.3684210526315789
 40
0.4210526315789474
 40
0.4210526315789474
 40
0.4210526315789474
 40
0.4210526315789474
 40
0.4736842105263158
 40
0.4736842105263158
 40
0.4736842105263158
 40
0.4736842105263158
 40
0.5263157894736842
 40
0.5263157894736842
 40
0.5263157894736842
 40
0.5263157894736842
 40
0.5789473684210527
 40
0.5789473684210527
 40
0.5789473684210527
 40
0.5789473684210527
 40
0.631578947368421
 40
0.631578947368421
 40
0.631578947368421
 40
0.631578947368421
 40
0.6842105263157894
 40
0.6842105263157894
 40
0.6842105263157894
 40
0.6842105263157894
 40
0.7368421052631577
 40
0.7368421052631577
 40
0.7368421052631577
 40
0.7368421052631577
 40
0.7894736842105261
 40
0.7894736842105261
 40
0.7894736842105261
 40
0.7894736842105261
 40
0.8421052631578945
 40
0.8421052631578945
 40
0.8421052631578945
 40
0.8421052631578945
 40
0.8947368421052628
 40
0.8947368421052628
 40
0.8947368421052628
 40
0.8947368421052628
 40
0.9473684210526312
 40
0.9473684210526312
 40
0.9473684210526312
 40
0.9473684210526312
 40
1.0
 40
1.0
 40
1.0
 40
1.0
 10
71.620400000000004
 20
-17.3569
 30
0.0
 10
71.620400000000004
 20
-17.3569
 30
0.0
 10
72.465500000000006
 20
-17.2194
 30
0.0
 10
72.465500000000006
 20
-17.2194
 30
0.0
 10
72.465500000000006
 20
-17.2194
 30
0.0
 10
72.465500000000006
 20
-17.2194
 30
0.0
 10
73.330100000000002
 20
-16.767400000000002
 30
0.0
 10
73.330100000000002
 20
-16.767400000000002
 30
0.0
 10
73.330100000000002
 20
-16.767400000000002
 30
0.0
 10
73.330100000000002
 20
-16.767400000000002
 30
0.0
 10
73.919700000000006
 20
-16.1189
 30
0.0
 10
73.919700000000006
 20
-16.1189
 30
0.0
 10
73.919700000000006
 20
-16.1189
 30
0.0
 10
73.919700000000006
 20
-16.1189
 30
0.0
 10
74.234099999999998
 20
-15.254200000000001
 30
0.0
 10
74.234099999999998
 20
-15.254200000000001
 30
0.0
 10
74.234099999999998
 20
-15.254200000000001
 30
0.0
 10
74.234099999999998
 20
-15.254200000000001
 30
0.0
 10
74.312700000000007
 20
-14.350200000000001
 30
0.0
 10
74.312700000000007
 20
-14.350200000000001
 30
0.0
 10
74.312700000000007
 20
-14.350200000000001
 30
0.0
 10
74.312700000000007
 20
-14.350200000000001
 30
0.0
 10
74.037599999999998
 20
-13.4855
 30
0.0
 10
74.037599999999998
 20
-13.4855
 30
0.0
 10
74.037599999999998
 20
-13.4855
 30
0.0
 10
74.037599999999998
 20
-13.4855
 30
0.0
 10
73.526700000000005
 20
-12.699400000000001
 30
0.0
 10
73.526700000000005
 20
-12.699400000000001
 30
0.0
 10
73.526700000000005
 20
-12.699400000000001
 30
0.0
 10
73.526700000000005
 20
-12.699400000000001
 30
0.0
 10
72.740600000000001
 20
-12.188500000000001
 30
0.0
 10
72.740600000000001
 20
-12.188500000000001
 30
0.0
 10
72.740600000000001
 20
-12.188500000000001
 30
0.0
 10
72.740600000000001
 20
-12.188500000000001
 30
0.0
 10
71.875900000000001
 20
-11.992000000000001
 30
0.0
 10
71.875900000000001
 20
-11.992000000000001
 30
0.0
 10
71.875900000000001
 20
-11.992000000000001
 30
0.0
 10
71.875900000000001
 20
-11.992000000000001
 30
0.0
 10
70.971900000000005
 20
-12.0509
 30
0.0
 10
70.971900000000005
 20
-12.0509
 30
0.0
 10
70.971900000000005
 20
-12.0509
 30
0.0
 10
70.971900000000005
 20
-12.0509
 30
0.0
 10
70.107200000000006
 20
-12.385
 30
0.0
 10
70.107200000000006
 20
-12.385
 30
0.0
 10
70.107200000000006
 20
-12.385
 30
0.0
 10
70.107200000000006
 20
-12.385
 30
0.0
 10
69.458700000000007
 20
-13.0335
 30
0.0
 10
69.458700000000007
 20
-13.0335
 30
0.0
 10
69.458700000000007
 20
-13.0335
 30
0.0
 10
69.458700000000007
 20
-13.0335
 30
0.0
 10
69.006700000000009
 20
-13.819600000000001
 30
0.0
 10
69.006700000000009
 20
-13.819600000000001
 30
0.0
 10
69.006700000000009
 20
-13.819600000000001
 30
0.0
 10
69.006700000000009
 20
-13.819600000000001
 30
0.0
 10
68.869100000000003
 20
-14.7432
 30
0.0
 10
68.869100000000003
 20
-14.7432
 30
0.0
 10
68.869100000000003
 20
-14.7432
 30
0.0
 10
68.869100000000003
 20
-14.7432
 30
0.0
 10
69.065700000000007
 20
-15.647200000000002
 30
0.0
 10
69.065700000000007
 20
-15.647200000000002
 30
0.0
 10
69.065700000000007
 20
-15.647200000000002
 30
0.0
 10
69.065700000000007
 20
-15.647200000000002
 30
0.0
 10
69.517700000000005
 20
-16.433299999999999
 30
0.0
 10
69.517700000000005
 20
-16.433299999999999
 30
0.0
 10
69.517700000000005
 20
-16.433299999999999
 30
0.0
 10
69.517700000000005
 20
-16.433299999999999
 30
0.0
 10
70.244799999999998
 20
-17.0229
 30
0.0
 10
70.244799999999998
 20
-17.0229
 30
0.0
 10
70.244799999999998
 20
-17.0229
 30
0.0
 10
70.244799999999998
 20
-17.0229
 30
0.0
 10
71.089799999999997
 20
-17.298000000000002
 30
0.0
 10
71.089799999999997
 20
-17.298000000000002
 30
0.0
 10
71.089799999999997
 20
-17.298000000000002
 30
0.0
 10
71.089799999999997
 20
-17.298000000000002
 30
0.0
 10
71.620400000000004
 20
-17.3569
 30
0.0
 10
71.620400000000004
 20
-17.3569
 30
0.0
  0
SPLINE
  5
44
100
AcDbEntity
  8
Ebene 1
370
    40
 62
     0
100
AcDbSpline
210
0.0
220
0.0
230
1.0
 70
     0
 71
     3
 72
    12
 73
     8
 74
     0
 42
0.0000000001
 43
0.0000000001
 40
0.0
 40
0.0
 40
0.0
 40
0.0
 40
0.5
 40
0.5
 40
0.5
 40
0.5
 40
1.0
 40
1.0
 40
1.0
 40
1.0
 10
-51.853000000000002
 20
5.8324000000000007
 30
0.0
 10
-51.853000000000002
 20
5.8324000000000007
 30
0.0
 10
-52.128100000000003
 20
5.6947999999999999
 30
0.0
 10
-52.128100000000003
 20
5.6947999999999999
 30
0.0
 10
-52.128100000000003
 20
5.6947999999999999
 30
0.0
 10
-52.128100000000003
 20
5.6947999999999999
 30
0.0
 10
-52.246000000000002
 20
5.4393000000000002
 30
0.0
 10
-52.246000000000002
 20
5.4393000000000002
 30
0.0
  0
SPLINE
  5
45
100
AcDbEntity
  8
Ebene 1
370
    40
 62
     0
100
AcDbSpline
210
0.0
220
0.0
230
1.0
 70
     0
 71
     3
 72
    12
 73
     8
 74
     0
 42
0.0000000001
 43
0.0000000001
 40
0.0
 40
0.0
 40
0.0
 40
0.0
 40
0.5
 40
0.5
 40
0.5
 40
0.5
 40
1.0
 40
1.0
 40
1.0
 40
1.0
 10
-52.639000000000003
 20
5.0463000000000005
 30
0.0
 10
-52.639000000000003
 20
5.0463000000000005
 30
0.0
 10
-52.383600000000001
 20
5.1839000000000004
 30
0.0
 10
-52.383600000000001
 20
5.1839000000000004
 30
0.0
 10
-52.383600000000001
 20
5.1839000000000004
 30
0.0
 10
-52.383600000000001
 20
5.1839000000000004
 30
0.0
 10
-52.246000000000002
 20
5.4393000000000002
 30
0.0
 10
-52.246000000000002
 20
5.4393000000000002
 30
0.0
  0
SPLINE
  5
46
100
AcDbEntity
  8
Ebene 1
370
    40
 62
     0
100
AcDbSpline
210
0.0
220
0.0
230
1.0
 70
     0
 71
     3
 72
    12
 73
     8
 74
     0
 42
0.0000000001
 43
0.0000000001
 40
0.0
 40
0.0
 40
0.0
 40
0.0
 40
0.5
 40
0.5
 40
0.5
 40
0.5
 40
1.0
 40
1.0
 40
1.0
 40
1.0
 10
-60.440900000000006
 20
5.4393000000000002
 30
0.0
 10
-60.440900000000006
 20
5.4393000000000002
 30
0.0
 10
-60.381900000000002
 20
5.1839000000000004
 30
0.0
 10
-60.381900000000002
 20
5.1839000000000004
 30
0.0
 10
-60.381900000000002
 20
5.1839000000000004
 30
0.0
 10
-60.381900000000002
 20
5.1839000000000004
 30
0.0
 10
-60.1068
 20
5.0463000000000005
 30
0.0
 10
-60.1068
 20
5.0463000000000005
 30
0.0
  0
SPLINE
  5
47
100
AcDbEntity
  8
Ebene 1
370
    40
 62
     0
100
AcDbSpline
210
0.0
220
0.0
230
1.0
 70
     0
 71
     3
 72
    12
 73
     8
 74
     0
 42
0.0000000001
 43
0.0000000001
 40
0.0
 40
0.0
 40
0.0
 40
0.0
 40
0.5
 40
0.5
 40
0.5
 40
0.5
 40
1.0
 40
1.0
 40
1.0
 40
1.0
 10
-60.440900000000006
 20
5.4393000000000002
 30
0.0
 10
-60.440900000000006
 20
5.4393000000000002
 30
0.0
 10
-60.578400000000002
 20
5.6947999999999999
 30
0.0
 10
-60.578400000000002
 20
5.6947999999999999
 30
0.0
 10
-60.578400000000002
 20
5.6947999999999999
 30
0.0
 10
-60.578400000000002
 20
5.6947999999999999
 30
0.0
 10
-60.8339
 20
5.8324000000000007
 30
0.0
 10
-60.8339
 20
5.8324000000000007
 30
0.0
  0
SPLINE
  5
48
100
AcDbEntity
  8
Ebene 1
370
    40
 62
     0
100
AcDbSpline
210
0.0
220
0.0
230
1.0
 70
     0
 71
     3
 72
     8
 73
     4
 74
     0
 42
0.0000000001
 43
0.0000000001
 40
0.0
 40
0.0
 40
0.0
 40
0.0
 40
1.0
 40
1.0
 40
1.0
 40
1.0
 10
-64.6267
 20
5.8324000000000007
 30
0.0
 10
-64.6267
 20
5.8324000000000007
 30
0.0
 10
-11.173400000000001
 20
5.8324000000000007
 30
0.0
 10
-11.173400000000001
 20
5.8324000000000007
 30
0.0
  0
SPLINE
  5
49
100
AcDbEntity
  8
Ebene 1
370
    40
 62
     0
100
AcDbSpline
210
0.0
220
0.0
230
1.0
 70
     0
 71
     3
 72
     8
 73
     4
 74
     0
 42
0.0000000001
 43
0.0000000001
 40
0.0
 40
0.0
 40
0.0
 40
0.0
 40
1.0
 40
1.0
 40
1.0
 40
1.0
 10
-15.3003
 20
5.4393000000000002
 30
0.0
 10
-15.3003
 20
5.4393000000000002
 30
0.0
 10
-15.3003
 20
5.4393000000000002
 30
0.0
 10
-15.3003
 20
5.4393000000000002
 30
0.0
  0
SPLINE
  5
4A
100
AcDbEntity
  8
Ebene 1
370
    40
 62
     0
100
AcDbSpline
210
0.0
220
0.0
230
1.0
 70
     0
 71
     3
 72
     8
 73
     4
 74
     0
 42
0.0000000001
 43
0.0000000001
 40
0.0
 40
0.0
 40
0.0
 40
0.0
 40
1.0
 40
1.0
 40
1.0
 40
1.0
 10
-23.1021
 20
5.0463000000000005
 30
0.0
 10
-23.1021
 20
5.0463000000000005
 30
0.0
 10
-15.634400000000001
 20
5.0463000000000005
 30
0.0
 10
-15.634400000000001
 20
5.0463000000000005
 30
0.0
  0
SPLINE
  5
4B
100
AcDbEntity
  8
Ebene 1
370
    40
 62
     0
100
AcDbSpline
210
0.0
220
0.0
230
1.0
 70
     0
 71
     3
 72
     8
 73
     4
 74
     0
 42
0.0000000001
 43
0.0000000001
 40
0.0
 40
0.0
 40
0.0
 40
0.0
 40
1.0
 40
1.0
 40
1.0
 40
1.0
 10
-23.495100000000001
 20
5.4393000000000002
 30
0.0
 10
-23.495100000000001
 20
5.4393000000000002
 30
0.0
 10
-23.495100000000001
 20
5.4393000000000002
 30
0.0
 10
-23.495100000000001
 20
5.4393000000000002
 30
0.0
  0
SPLINE
  5
4C
100
AcDbEntity
  8
Ebene 1
370
    40
 62
     0
100
AcDbSpline
210
0.0
220
0.0
230
1.0
 70
     0
 71
     3
 72
    12
 73
     8
 74
     0
 42
0.0000000001
 43
0.0000000001
 40
0.0
 40
0.0
 40
0.0
 40
0.0
 40
0.5
 40
0.5
 40
0.5
 40
0.5
 40
1.0
 40
1.0
 40
1.0
 40
1.0
 10
-23.495100000000001
 20
5.4393000000000002
 30
0.0
 10
-23.495100000000001
 20
5.4393000000000002
 30
0.0
 10
-23.6327
 20
5.6947999999999999
 30
0.0
 10
-23.6327
 20
5.6947999999999999
 30
0.0
 10
-23.6327
 20
5.6947999999999999
 30
0.0
 10
-23.6327
 20
5.6947999999999999
 30
0.0
 10
-23.888200000000001
 20
5.8324000000000007
 30
0.0
 10
-23.888200000000001
 20
5.8324000000000007
 30
0.0
  0
SPLINE
  5
4D
100
AcDbEntity
  8
Ebene 1
370
    40
 62
     0
100
AcDbSpline
210
0.0
220
0.0
230
1.0
 70
     0
 71
     3
 72
    12
 73
     8
 74
     0
 42
0.0000000001
 43
0.0000000001
 40
0.0
 40
0.0
 40
0.0
 40
0.0
 40
0.5
 40
0.5
 40
0.5
 40
0.5
 40
1.0
 40
1.0
 40
1.0
 40
1.0
 10
-23.495100000000001
 20
5.4393000000000002
 30
0.0
 10
-23.495100000000001
 20
5.4393000000000002
 30
0.0
 10
-23.357600000000001
 20
5.1839000000000004
 30
0.0
 10
-23.357600000000001
 20
5.1839000000000004
 30
0.0
 10
-23.357600000000001
 20
5.1839000000000004
 30
0.0
 10
-23.357600000000001
 20
5.1839000000000004
 30
0.0
 10
-23.1021
 20
5.0463000000000005
 30
0.0
 10
-23.1021
 20
5.0463000000000005
 30
0.0
  0
SPLINE
  5
4E
100
AcDbEntity
  8
Ebene 1
370
    40
 62
     0
100
AcDbSpline
210
0.0
220
0.0
230
1.0
 70
     0
 71
     3
 72
    12
 73
     8
 74
     0
 42
0.0000000001
 43
0.0000000001
 40
0.0
 40
0.0
 40
0.0
 40
0.0
 40
0.5
 40
0.5
 40
0.5
 40
0.5
 40
1.0
 40
1.0
 40
1.0
 40
1.0
 10
-15.634400000000001
 20
5.0463000000000005
 30
0.0
 10
-15.634400000000001
 20
5.0463000000000005
 30
0.0
 10
-15.378900000000002
 20
5.1839000000000004
 30
0.0
 10
-15.378900000000002
 20
5.1839000000000004
 30
0.0
 10
-15.378900000000002
 20
5.1839000000000004
 30
0.0
 10
-15.378900000000002
 20
5.1839000000000004
 30
0.0
 10
-15.3003
 20
5.4393000000000002
 30
0.0
 10
-15.3003
 20
5.4393000000000002
 30
0.0
  0
SPLINE
  5
4F
100
AcDbEntity
  8
Ebene 1
370
    40
 62
     0
100
AcDbSpline
210
0.0
220
0.0
230
1.0
 70
     0
 71
     3
 72
    12
 73
     8
 74
     0
 42
0.0000000001
 43
0.0000000001
 40
0.0
 40
0.0
 40
0.0
 40
0.0
 40
0.5
 40
0.5
 40
0.5
 40
0.5
 40
1.0
 40
1.0
 40
1.0
 40
1.0
 10
-14.907200000000001
 20
5.8324000000000007
 30
0.0
 10
-14.907200000000001
 20
5.8324000000000007
 30
0.0
 10
-15.182400000000001
 20
5.6947999999999999
 30
0.0
 10
-15.182400000000001
 20
5.6947999999999999
 30
0.0
 10
-15.182400000000001
 20
5.6947999999999999
 30
0.0
 10
-15.182400000000001
 20
5.6947999999999999
 30
0.0
 10
-15.3003
 20
5.4393000000000002
 30
0.0
 10
-15.3003
 20
5.4393000000000002
 30
0.0
  0
SPLINE
  5
50
100
AcDbEntity
  8
Ebene 1
370
    40
 62
     0
100
AcDbSpline
210
0.0
220
0.0
230
1.0
 70
     0
 71
     3
 72
    16
 73
    12
 74
     0
 42
0.0000000001
 43
0.0000000001
 40
0.0
 40
0.0
 40
0.0
 40
0.0
 40
0.3333333333333333
 40
0.3333333333333333
 40
0.3333333333333333
 40
0.3333333333333333
 40
0.6666666666666666
 40
0.6666666666666666
 40
0.6666666666666666
 40
0.6666666666666666
 40
1.0
 40
1.0
 40
1.0
 40
1.0
 10
63.622100000000003
 20
-14.8611
 30
0.0
 10
63.622100000000003
 20
-14.8611
 30
0.0
 10
64.093699999999998
 20
-15.1363
 30
0.0
 10
64.093699999999998
 20
-15.1363
 30
0.0
 10
64.093699999999998
 20
-15.1363
 30
0.0
 10
64.093699999999998
 20
-15.1363
 30
0.0
 10
64.545699999999997
 20
-15.057700000000001
 30
0.0
 10
64.545699999999997
 20
-15.057700000000001
 30
0.0
 10
64.545699999999997
 20
-15.057700000000001
 30
0.0
 10
64.545699999999997
 20
-15.057700000000001
 30
0.0
 10
64.604700000000008
 20
-14.998700000000001
 30
0.0
 10
64.604700000000008
 20
-14.998700000000001
 30
0.0
  0
SPLINE
  5
51
100
AcDbEntity
  8
Ebene 1
370
    40
 62
     0
100
AcDbSpline
210
0.0
220
0.0
230
1.0
 70
     0
 71
     3
 72
    20
 73
    16
 74
     0
 42
0.0000000001
 43
0.0000000001
 40
0.0
 40
0.0
 40
0.0
 40
0.0
 40
0.25
 40
0.25
 40
0.25
 40
0.25
 40
0.5
 40
0.5
 40
0.5
 40
0.5
 40
0.75
 40
0.75
 40
0.75
 40
0.75
 40
1.0
 40
1.0
 40
1.0
 40
1.0
 10
25.634800000000002
 20
-7.6685000000000008
 30
0.0
 10
25.634800000000002
 20
-7.6685000000000008
 30
0.0
 10
27.403500000000001
 20
-10.0268
 30
0.0
 10
27.403500000000001
 20
-10.0268
 30
0.0
 10
27.403500000000001
 20
-10.0268
 30
0.0
 10
27.403500000000001
 20
-10.0268
 30
0.0
 10
29.427600000000002
 20
-12.188500000000001
 30
0.0
 10
29.427600000000002
 20
-12.188500000000001
 30
0.0
 10
29.427600000000002
 20
-12.188500000000001
 30
0.0
 10
29.427600000000002
 20
-12.188500000000001
 30
0.0
 10
31.668000000000003
 20
-14.075100000000001
 30
0.0
 10
31.668000000000003
 20
-14.075100000000001
 30
0.0
 10
31.668000000000003
 20
-14.075100000000001
 30
0.0
 10
31.668000000000003
 20
-14.075100000000001
 30
0.0
 10
32.965000000000003
 20
-14.998700000000001
 30
0.0
 10
32.965000000000003
 20
-14.998700000000001
 30
0.0
  0
SPLINE
  5
52
100
AcDbEntity
  8
Ebene 1
370
    40
 62
     0
100
AcDbSpline
210
0.0
220
0.0
230
1.0
 70
     0
 71
     3
 72
    16
 73
    12
 74
     0
 42
0.0000000001
 43
0.0000000001
 40
0.0
 40
0.0
 40
0.0
 40
0.0
 40
0.3333333333333333
 40
0.3333333333333333
 40
0.3333333333333333
 40
0.3333333333333333
 40
0.6666666666666666
 40
0.6666666666666666
 40
0.6666666666666666
 40
0.6666666666666666
 40
1.0
 40
1.0
 40
1.0
 40
1.0
 10
32.965000000000003
 20
-14.998700000000001
 30
0.0
 10
32.965000000000003
 20
-14.998700000000001
 30
0.0
 10
33.436599999999999
 20
-15.1363
 30
0.0
 10
33.436599999999999
 20
-15.1363
 30
0.0
 10
33.436599999999999
 20
-15.1363
 30
0.0
 10
33.436599999999999
 20
-15.1363
 30
0.0
 10
33.888600000000004
 20
-14.9398
 30
0.0
 10
33.888600000000004
 20
-14.9398
 30
0.0
 10
33.888600000000004
 20
-14.9398
 30
0.0
 10
33.888600000000004
 20
-14.9398
 30
0.0
 10
33.947600000000001
 20
-14.8611
 30
0.0
 10
33.947600000000001
 20
-14.8611
 30
0.0
  0
SPLINE
  5
53
100
AcDbEntity
  8
Ebene 1
370
    40
 62
     0
100
AcDbSpline
210
0.0
220
0.0
230
1.0
 70
     0
 71
     3
 72
     8
 73
     4
 74
     0
 42
0.0000000001
 43
0.0000000001
 40
0.0
 40
0.0
 40
0.0
 40
0.0
 40
1.0
 40
1.0
 40
1.0
 40
1.0
 10
33.947600000000001
 20
-14.8611
 30
0.0
 10
33.947600000000001
 20
-14.8611
 30
0.0
 10
34.419200000000004
 20
-14.4092
 30
0.0
 10
34.419200000000004
 20
-14.4092
 30
0.0
  0
SPLINE
  5
54
100
AcDbEntity
  8
Ebene 1
370
    40
 62
     0
100
AcDbSpline
210
0.0
220
0.0
230
1.0
 70
     0
 71
     3
 72
     8
 73
     4
 74
     0
 42
0.0000000001
 43
0.0000000001
 40
0.0
 40
0.0
 40
0.0
 40
0.0
 40
1.0
 40
1.0
 40
1.0
 40
1.0
 10
25.6938
 20
-6.6859000000000002
 30
0.0
 10
25.6938
 20
-6.6859000000000002
 30
0.0
 10
26.165400000000002
 20
-6.2143000000000006
 30
0.0
 10
26.165400000000002
 20
-6.2143000000000006
 30
0.0
  0
SPLINE
  5
55
100
AcDbEntity
  8
Ebene 1
370
    40
 62
     0
100
AcDbSpline
210
0.0
220
0.0
230
1.0
 70
     0
 71
     3
 72
    16
 73
    12
 74
     0
 42
0.0000000001
 43
0.0000000001
 40
0.0
 40
0.0
 40
0.0
 40
0.0
 40
0.3333333333333333
 40
0.3333333333333333
 40
0.3333333333333333
 40
0.3333333333333333
 40
0.6666666666666666
 40
0.6666666666666666
 40
0.6666666666666666
 40
0.6666666666666666
 40
1.0
 40
1.0
 40
1.0
 40
1.0
 10
25.6938
 20
-6.6859000000000002
 30
0.0
 10
25.6938
 20
-6.6859000000000002
 30
0.0
 10
25.497200000000003
 20
-7.1379000000000001
 30
0.0
 10
25.497200000000003
 20
-7.1379000000000001
 30
0.0
 10
25.497200000000003
 20
-7.1379000000000001
 30
0.0
 10
25.497200000000003
 20
-7.1379000000000001
 30
0.0
 10
25.575800000000001
 20
-7.5899000000000001
 30
0.0
 10
25.575800000000001
 20
-7.5899000000000001
 30
0.0
 10
25.575800000000001
 20
-7.5899000000000001
 30
0.0
 10
25.575800000000001
 20
-7.5899000000000001
 30
0.0
 10
25.634800000000002
 20
-7.6685000000000008
 30
0.0
 10
25.634800000000002
 20
-7.6685000000000008
 30
0.0
  0
SPLINE
  5
56
100
AcDbEntity
  8
Ebene 1
370
    40
 62
     0
100
AcDbSpline
210
0.0
220
0.0
230
1.0
 70
     0
 71
     3
 72
    20
 73
    16
 74
     0
 42
0.0000000001
 43
0.0000000001
 40
0.0
 40
0.0
 40
0.0
 40
0.0
 40
0.25
 40
0.25
 40
0.25
 40
0.25
 40
0.5
 40
0.5
 40
0.5
 40
0.5
 40
0.75
 40
0.75
 40
0.75
 40
0.75
 40
1.0
 40
1.0
 40
1.0
 40
1.0
 10
32.965000000000003
 20
31.321000000000002
 30
0.0
 10
32.965000000000003
 20
31.321000000000002
 30
0.0
 10
30.6067
 20
29.552300000000002
 30
0.0
 10
30.6067
 20
29.552300000000002
 30
0.0
 10
30.6067
 20
29.552300000000002
 30
0.0
 10
30.6067
 20
29.552300000000002
 30
0.0
 10
28.445
 20
27.508500000000002
 30
0.0
 10
28.445
 20
27.508500000000002
 30
0.0
 10
28.445
 20
27.508500000000002
 30
0.0
 10
28.445
 20
27.508500000000002
 30
0.0
 10
26.558400000000002
 20
25.287800000000001
 30
0.0
 10
26.558400000000002
 20
25.287800000000001
 30
0.0
 10
26.558400000000002
 20
25.287800000000001
 30
0.0
 10
26.558400000000002
 20
25.287800000000001
 30
0.0
 10
25.634800000000002
 20
23.9711
 30
0.0
 10
25.634800000000002
 20
23.9711
 30
0.0
  0
SPLINE
  5
57
100
AcDbEntity
  8
Ebene 1
370
    40
 62
     0
100
AcDbSpline
210
0.0
220
0.0
230
1.0
 70
     0
 71
     3
 72
    16
 73
    12
 74
     0
 42
0.0000000001
 43
0.0000000001
 40
0.0
 40
0.0
 40
0.0
 40
0.0
 40
0.3333333333333333
 40
0.3333333333333333
 40
0.3333333333333333
 40
0.3333333333333333
 40
0.6666666666666666
 40
0.6666666666666666
 40
0.6666666666666666
 40
0.6666666666666666
 40
1.0
 40
1.0
 40
1.0
 40
1.0
 10
25.634800000000002
 20
23.9711
 30
0.0
 10
25.634800000000002
 20
23.9711
 30
0.0
 10
25.497200000000003
 20
23.519100000000002
 30
0.0
 10
25.497200000000003
 20
23.519100000000002
 30
0.0
 10
25.497200000000003
 20
23.519100000000002
 30
0.0
 10
25.497200000000003
 20
23.519100000000002
 30
0.0
 10
25.634800000000002
 20
23.0671
 30
0.0
 10
25.634800000000002
 20
23.0671
 30
0.0
 10
25.634800000000002
 20
23.0671
 30
0.0
 10
25.634800000000002
 20
23.0671
 30
0.0
 10
25.6938
 20
22.988500000000002
 30
0.0
 10
25.6938
 20
22.988500000000002
 30
0.0
  0
SPLINE
  5
58
100
AcDbEntity
  8
Ebene 1
370
    40
 62
     0
100
AcDbSpline
210
0.0
220
0.0
230
1.0
 70
     0
 71
     3
 72
     8
 73
     4
 74
     0
 42
0.0000000001
 43
0.0000000001
 40
0.0
 40
0.0
 40
0.0
 40
0.0
 40
1.0
 40
1.0
 40
1.0
 40
1.0
 10
25.6938
 20
22.988500000000002
 30
0.0
 10
25.6938
 20
22.988500000000002
 30
0.0
 10
26.165400000000002
 20
22.5365
 30
0.0
 10
26.165400000000002
 20
22.5365
 30
0.0
  0
SPLINE
  5
59
100
AcDbEntity
  8
Ebene 1
370
    40
 62
     0
100
AcDbSpline
210
0.0
220
0.0
230
1.0
 70
     0
 71
     3
 72
     8
 73
     4
 74
     0
 42
0.0000000001
 43
0.0000000001
 40
0.0
 40
0.0
 40
0.0
 40
0.0
 40
1.0
 40
1.0
 40
1.0
 40
1.0
 10
33.947600000000001
 20
31.2424
 30
0.0
 10
33.947600000000001
 20
31.2424
 30
0.0
 10
34.419200000000004
 20
30.731400000000001
 30
0.0
 10
34.419200000000004
 20
30.731400000000001
 30
0.0
  0
SPLINE
  5
5A
100
AcDbEntity
  8
Ebene 1
370
    40
 62
     0
100
AcDbSpline
210
0.0
220
0.0
230
1.0
 70
     0
 71
     3
 72
    16
 73
    12
 74
     0
 42
0.0000000001
 43
0.0000000001
 40
0.0
 40
0.0
 40
0.0
 40
0.0
 40
0.3333333333333333
 40
0.3333333333333333
 40
0.3333333333333333
 40
0.3333333333333333
 40
0.6666666666666666
 40
0.6666666666666666
 40
0.6666666666666666
 40
0.6666666666666666
 40
1.0
 40
1.0
 40
1.0
 40
1.0
 10
33.947600000000001
 20
31.2424
 30
0.0
 10
33.947600000000001
 20
31.2424
 30
0.0
 10
33.495600000000003
 20
31.4389
 30
0.0
 10
33.495600000000003
 20
31.4389
 30
0.0
 10
33.495600000000003
 20
31.4389
 30
0.0
 10
33.495600000000003
 20
31.4389
 30
0.0
 10
33.043600000000005
 20
31.379900000000003
 30
0.0
 10
33.043600000000005
 20
31.379900000000003
 30
0.0
 10
33.043600000000005
 20
31.379900000000003
 30
0.0
 10
33.043600000000005
 20
31.379900000000003
 30
0.0
 10
32.965000000000003
 20
31.321000000000002
 30
0.0
 10
32.965000000000003
 20
31.321000000000002
 30
0.0
  0
SPLINE
  5
5B
100
AcDbEntity
  8
Ebene 1
370
    40
 62
     0
100
AcDbSpline
210
0.0
220
0.0
230
1.0
 70
     0
 71
     3
 72
   240
 73
   236
 74
     0
 42
0.0000000001
 43
0.0000000001
 40
0.0
 40
0.0
 40
0.0
 40
0.0
 40
0.0169491525423729
 40
0.0169491525423729
 40
0.0169491525423729
 40
0.0169491525423729
 40
0.0338983050847458
 40
0.0338983050847458
 40
0.0338983050847458
 40
0.0338983050847458
 40
0.0508474576271186
 40
0.0508474576271186
 40
0.0508474576271186
 40
0.0508474576271186
 40
0.0677966101694915
 40
0.0677966101694915
 40
0.0677966101694915
 40
0.0677966101694915
 40
0.0847457627118644
 40
0.0847457627118644
 40
0.0847457627118644
 40
0.0847457627118644
 40
0.1016949152542373
 40
0.1016949152542373
 40
0.1016949152542373
 40
0.1016949152542373
 40
0.1186440677966102
 40
0.1186440677966102
 40
0.1186440677966102
 40
0.1186440677966102
 40
0.1355932203389831
 40
0.1355932203389831
 40
0.1355932203389831
 40
0.1355932203389831
 40
0.1525423728813559
 40
0.1525423728813559
 40
0.1525423728813559
 40
0.1525423728813559
 40
0.1694915254237288
 40
0.1694915254237288
 40
0.1694915254237288
 40
0.1694915254237288
 40
0.1864406779661017
 40
0.1864406779661017
 40
0.1864406779661017
 40
0.1864406779661017
 40
0.2033898305084746
 40
0.2033898305084746
 40
0.2033898305084746
 40
0.2033898305084746
 40
0.2203389830508475
 40
0.2203389830508475
 40
0.2203389830508475
 40
0.2203389830508475
 40
0.2372881355932204
 40
0.2372881355932204
 40
0.2372881355932204
 40
0.2372881355932204
 40
0.2542372881355933
 40
0.2542372881355933
 40
0.2542372881355933
 40
0.2542372881355933
 40
0.2711864406779662
 40
0.2711864406779662
 40
0.2711864406779662
 40
0.2711864406779662
 40
0.2881355932203391
 40
0.2881355932203391
 40
0.2881355932203391
 40
0.2881355932203391
 40
0.3050847457627119
 40
0.3050847457627119
 40
0.3050847457627119
 40
0.3050847457627119
 40
0.3220338983050848
 40
0.3220338983050848
 40
0.3220338983050848
 40
0.3220338983050848
 40
0.3389830508474577
 40
0.3389830508474577
 40
0.3389830508474577
 40
0.3389830508474577
 40
0.3559322033898306
 40
0.3559322033898306
 40
0.3559322033898306
 40
0.3559322033898306
 40
0.3728813559322035
 40
0.3728813559322035
 40
0.3728813559322035
 40
0.3728813559322035
 40
0.3898305084745764
 40
0.3898305084745764
 40
0.3898305084745764
 40
0.3898305084745764
 40
0.4067796610169493
 40
0.4067796610169493
 40
0.4067796610169493
 40
0.4067796610169493
 40
0.4237288135593222
 40
0.4237288135593222
 40
0.4237288135593222
 40
0.4237288135593222
 40
0.4406779661016951
 40
0.4406779661016951
 40
0.4406779661016951
 40
0.4406779661016951
 40
0.457627118644068
 40
0.457627118644068
 40
0.457627118644068
 40
0.457627118644068
 40
0.4745762711864409
 40
0.4745762711864409
 40
0.4745762711864409
 40
0.4745762711864409
 40
0.4915254237288138
 40
0.4915254237288138
 40
0.4915254237288138
 40
0.4915254237288138
 40
0.5084745762711866
 40
0.5084745762711866
 40
0.5084745762711866
 40
0.5084745762711866
 40
0.5254237288135595
 40
0.5254237288135595
 40
0.5254237288135595
 40
0.5254237288135595
 40
0.5423728813559323
 40
0.5423728813559323
 40
0.5423728813559323
 40
0.5423728813559323
 40
0.5593220338983052
 40
0.5593220338983052
 40
0.5593220338983052
 40
0.5593220338983052
 40
0.576271186440678
 40
0.576271186440678
 40
0.576271186440678
 40
0.576271186440678
 40
0.5932203389830508
 40
0.5932203389830508
 40
0.5932203389830508
 40
0.5932203389830508
 40
0.6101694915254237
 40
0.6101694915254237
 40
0.6101694915254237
 40
0.6101694915254237
 40
0.6271186440677965
 40
0.6271186440677965
 40
0.6271186440677965
 40
0.6271186440677965
 40
0.6440677966101693
 40
0.6440677966101693
 40
0.6440677966101693
 40
0.6440677966101693
 40
0.6610169491525422
 40
0.6610169491525422
 40
0.6610169491525422
 40
0.6610169491525422
 40
0.677966101694915
 40
0.677966101694915
 40
0.677966101694915
 40
0.677966101694915
 40
0.6949152542372878
 40
0.6949152542372878
 40
0.6949152542372878
 40
0.6949152542372878
 40
0.7118644067796607
 40
0.7118644067796607
 40
0.7118644067796607
 40
0.7118644067796607
 40
0.7288135593220335
 40
0.7288135593220335
 40
0.7288135593220335
 40
0.7288135593220335
 40
0.7457627118644064
 40
0.7457627118644064
 40
0.7457627118644064
 40
0.7457627118644064
 40
0.7627118644067792
 40
0.7627118644067792
 40
0.7627118644067792
 40
0.7627118644067792
 40
0.779661016949152
 40
0.779661016949152
 40
0.779661016949152
 40
0.779661016949152
 40
0.7966101694915249
 40
0.7966101694915249
 40
0.7966101694915249
 40
0.7966101694915249
 40
0.8135593220338977
 40
0.8135593220338977
 40
0.8135593220338977
 40
0.8135593220338977
 40
0.8305084745762705
 40
0.8305084745762705
 40
0.8305084745762705
 40
0.8305084745762705
 40
0.8474576271186434
 40
0.8474576271186434
 40
0.8474576271186434
 40
0.8474576271186434
 40
0.8644067796610162
 40
0.8644067796610162
 40
0.8644067796610162
 40
0.8644067796610162
 40
0.881355932203389
 40
0.881355932203389
 40
0.881355932203389
 40
0.881355932203389
 40
0.8983050847457619
 40
0.8983050847457619
 40
0.8983050847457619
 40
0.8983050847457619
 40
0.9152542372881347
 40
0.9152542372881347
 40
0.9152542372881347
 40
0.9152542372881347
 40
0.9322033898305075
 40
0.9322033898305075
 40
0.9322033898305075
 40
0.9322033898305075
 40
0.9491525423728804
 40
0.9491525423728804
 40
0.9491525423728804
 40
0.9491525423728804
 40
0.9661016949152532
 40
0.9661016949152532
 40
0.9661016949152532
 40
0.9661016949152532
 40
0.9830508474576261
 40
0.9830508474576261
 40
0.9830508474576261
 40
0.9830508474576261
 40
1.0
 40
1.0
 40
1.0
 40
1.0
 10
75.55080000000001
 20
8.1905999999999999
 30
0.0
 10
75.55080000000001
 20
8.1905999999999999
 30
0.0
 10
75.413300000000007
 20
11.0008
 30
0.0
 10
75.413300000000007
 20
11.0008
 30
0.0
 10
75.413300000000007
 20
11.0008
 30
0.0
 10
75.413300000000007
 20
11.0008
 30
0.0
 10
74.961300000000008
 20
13.889700000000001
 30
0.0
 10
74.961300000000008
 20
13.889700000000001
 30
0.0
 10
74.961300000000008
 20
13.889700000000001
 30
0.0
 10
74.961300000000008
 20
13.889700000000001
 30
0.0
 10
74.175200000000004
 20
16.640900000000002
 30
0.0
 10
74.175200000000004
 20
16.640900000000002
 30
0.0
 10
74.175200000000004
 20
16.640900000000002
 30
0.0
 10
74.175200000000004
 20
16.640900000000002
 30
0.0
 10
73.133600000000001
 20
19.333300000000001
 30
0.0
 10
73.133600000000001
 20
19.333300000000001
 30
0.0
 10
73.133600000000001
 20
19.333300000000001
 30
0.0
 10
73.133600000000001
 20
19.333300000000001
 30
0.0
 10
71.816900000000004
 20
21.888000000000002
 30
0.0
 10
71.816900000000004
 20
21.888000000000002
 30
0.0
 10
71.816900000000004
 20
21.888000000000002
 30
0.0
 10
71.816900000000004
 20
21.888000000000002
 30
0.0
 10
70.1858
 20
24.246300000000002
 30
0.0
 10
70.1858
 20
24.246300000000002
 30
0.0
 10
70.1858
 20
24.246300000000002
 30
0.0
 10
70.1858
 20
24.246300000000002
 30
0.0
 10
68.338499999999996
 20
26.466900000000003
 30
0.0
 10
68.338499999999996
 20
26.466900000000003
 30
0.0
 10
68.338499999999996
 20
26.466900000000003
 30
0.0
 10
68.338499999999996
 20
26.466900000000003
 30
0.0
 10
66.255400000000009
 20
28.432100000000002
 30
0.0
 10
66.255400000000009
 20
28.432100000000002
 30
0.0
 10
66.255400000000009
 20
28.432100000000002
 30
0.0
 10
66.255400000000009
 20
28.432100000000002
 30
0.0
 10
63.956200000000003
 20
30.200800000000001
 30
0.0
 10
63.956200000000003
 20
30.200800000000001
 30
0.0
 10
63.956200000000003
 20
30.200800000000001
 30
0.0
 10
63.956200000000003
 20
30.200800000000001
 30
0.0
 10
61.539000000000001
 20
31.714000000000002
 30
0.0
 10
61.539000000000001
 20
31.714000000000002
 30
0.0
 10
61.539000000000001
 20
31.714000000000002
 30
0.0
 10
61.539000000000001
 20
31.714000000000002
 30
0.0
 10
58.9056
 20
32.952100000000002
 30
0.0
 10
58.9056
 20
32.952100000000002
 30
0.0
 10
58.9056
 20
32.952100000000002
 30
0.0
 10
58.9056
 20
32.952100000000002
 30
0.0
 10
56.232900000000001
 20
33.875700000000002
 30
0.0
 10
56.232900000000001
 20
33.875700000000002
 30
0.0
 10
56.232900000000001
 20
33.875700000000002
 30
0.0
 10
56.232900000000001
 20
33.875700000000002
 30
0.0
 10
53.403000000000006
 20
34.5242
 30
0.0
 10
53.403000000000006
 20
34.5242
 30
0.0
 10
53.403000000000006
 20
34.5242
 30
0.0
 10
53.403000000000006
 20
34.5242
 30
0.0
 10
50.533900000000003
 20
34.917300000000004
 30
0.0
 10
50.533900000000003
 20
34.917300000000004
 30
0.0
 10
50.533900000000003
 20
34.917300000000004
 30
0.0
 10
50.533900000000003
 20
34.917300000000004
 30
0.0
 10
47.645000000000003
 20
34.917300000000004
 30
0.0
 10
47.645000000000003
 20
34.917300000000004
 30
0.0
 10
47.645000000000003
 20
34.917300000000004
 30
0.0
 10
47.645000000000003
 20
34.917300000000004
 30
0.0
 10
44.834800000000001
 20
34.661799999999999
 30
0.0
 10
44.834800000000001
 20
34.661799999999999
 30
0.0
 10
44.834800000000001
 20
34.661799999999999
 30
0.0
 10
44.834800000000001
 20
34.661799999999999
 30
0.0
 10
42.004899999999999
 20
34.072200000000002
 30
0.0
 10
42.004899999999999
 20
34.072200000000002
 30
0.0
 10
42.004899999999999
 20
34.072200000000002
 30
0.0
 10
42.004899999999999
 20
34.072200000000002
 30
0.0
 10
39.253599999999999
 20
33.207599999999999
 30
0.0
 10
39.253599999999999
 20
33.207599999999999
 30
0.0
 10
39.253599999999999
 20
33.207599999999999
 30
0.0
 10
39.253599999999999
 20
33.207599999999999
 30
0.0
 10
36.639900000000004
 20
32.028400000000005
 30
0.0
 10
36.639900000000004
 20
32.028400000000005
 30
0.0
 10
36.639900000000004
 20
32.028400000000005
 30
0.0
 10
36.639900000000004
 20
32.028400000000005
 30
0.0
 10
34.144100000000002
 20
30.593800000000002
 30
0.0
 10
34.144100000000002
 20
30.593800000000002
 30
0.0
 10
34.144100000000002
 20
30.593800000000002
 30
0.0
 10
34.144100000000002
 20
30.593800000000002
 30
0.0
 10
31.785900000000002
 20
28.8841
 30
0.0
 10
31.785900000000002
 20
28.8841
 30
0.0
 10
31.785900000000002
 20
28.8841
 30
0.0
 10
31.785900000000002
 20
28.8841
 30
0.0
 10
29.7028
 20
26.918900000000001
 30
0.0
 10
29.7028
 20
26.918900000000001
 30
0.0
 10
29.7028
 20
26.918900000000001
 30
0.0
 10
29.7028
 20
26.918900000000001
 30
0.0
 10
27.796500000000002
 20
24.757200000000001
 30
0.0
 10
27.796500000000002
 20
24.757200000000001
 30
0.0
 10
27.796500000000002
 20
24.757200000000001
 30
0.0
 10
27.796500000000002
 20
24.757200000000001
 30
0.0
 10
26.0868
 20
22.399000000000001
 30
0.0
 10
26.0868
 20
22.399000000000001
 30
0.0
 10
26.0868
 20
22.399000000000001
 30
0.0
 10
26.0868
 20
22.399000000000001
 30
0.0
 10
24.711200000000002
 20
19.922800000000002
 30
0.0
 10
24.711200000000002
 20
19.922800000000002
 30
0.0
 10
24.711200000000002
 20
19.922800000000002
 30
0.0
 10
24.711200000000002
 20
19.922800000000002
 30
0.0
 10
23.610600000000002
 20
17.230499999999999
 30
0.0
 10
23.610600000000002
 20
17.230499999999999
 30
0.0
 10
23.610600000000002
 20
17.230499999999999
 30
0.0
 10
23.610600000000002
 20
17.230499999999999
 30
0.0
 10
22.746000000000002
 20
14.479200000000001
 30
0.0
 10
22.746000000000002
 20
14.479200000000001
 30
0.0
 10
22.746000000000002
 20
14.479200000000001
 30
0.0
 10
22.746000000000002
 20
14.479200000000001
 30
0.0
 10
22.234999999999999
 20
11.669
 30
0.0
 10
22.234999999999999
 20
11.669
 30
0.0
 10
22.234999999999999
 20
11.669
 30
0.0
 10
22.234999999999999
 20
11.669
 30
0.0
 10
21.959900000000001
 20
8.7802000000000007
 30
0.0
 10
21.959900000000001
 20
8.7802000000000007
 30
0.0
 10
21.959900000000001
 20
8.7802000000000007
 30
0.0
 10
21.959900000000001
 20
8.7802000000000007
 30
0.0
 10
22.0974
 20
5.9699
 30
0.0
 10
22.0974
 20
5.9699
 30
0.0
 10
22.0974
 20
5.9699
 30
0.0
 10
22.0974
 20
5.9699
 30
0.0
 10
22.490500000000001
 20
3.0811000000000002
 30
0.0
 10
22.490500000000001
 20
3.0811000000000002
 30
0.0
 10
22.490500000000001
 20
3.0811000000000002
 30
0.0
 10
22.490500000000001
 20
3.0811000000000002
 30
0.0
 10
23.138999999999999
 20
0.2709
 30
0.0
 10
23.138999999999999
 20
0.2709
 30
0.0
 10
23.138999999999999
 20
0.2709
 30
0.0
 10
23.138999999999999
 20
0.2709
 30
0.0
 10
24.200200000000002
 20
-2.4215
 30
0.0
 10
24.200200000000002
 20
-2.4215
 30
0.0
 10
24.200200000000002
 20
-2.4215
 30
0.0
 10
24.200200000000002
 20
-2.4215
 30
0.0
 10
25.438300000000002
 20
-4.9762000000000004
 30
0.0
 10
25.438300000000002
 20
-4.9762000000000004
 30
0.0
 10
25.438300000000002
 20
-4.9762000000000004
 30
0.0
 10
25.438300000000002
 20
-4.9762000000000004
 30
0.0
 10
27.010400000000001
 20
-7.3934000000000006
 30
0.0
 10
27.010400000000001
 20
-7.3934000000000006
 30
0.0
 10
27.010400000000001
 20
-7.3934000000000006
 30
0.0
 10
27.010400000000001
 20
-7.3934000000000006
 30
0.0
 10
28.7791
 20
-9.6927000000000003
 30
0.0
 10
28.7791
 20
-9.6927000000000003
 30
0.0
 10
28.7791
 20
-9.6927000000000003
 30
0.0
 10
28.7791
 20
-9.6927000000000003
 30
0.0
 10
30.8033
 20
-11.716800000000001
 30
0.0
 10
30.8033
 20
-11.716800000000001
 30
0.0
 10
30.8033
 20
-11.716800000000001
 30
0.0
 10
30.8033
 20
-11.716800000000001
 30
0.0
 10
33.043600000000005
 20
-13.5641
 30
0.0
 10
33.043600000000005
 20
-13.5641
 30
0.0
 10
33.043600000000005
 20
-13.5641
 30
0.0
 10
33.043600000000005
 20
-13.5641
 30
0.0
 10
35.460799999999999
 20
-15.057700000000001
 30
0.0
 10
35.460799999999999
 20
-15.057700000000001
 30
0.0
 10
35.460799999999999
 20
-15.057700000000001
 30
0.0
 10
35.460799999999999
 20
-15.057700000000001
 30
0.0
 10
38.015500000000003
 20
-16.374400000000001
 30
0.0
 10
38.015500000000003
 20
-16.374400000000001
 30
0.0
 10
38.015500000000003
 20
-16.374400000000001
 30
0.0
 10
38.015500000000003
 20
-16.374400000000001
 30
0.0
 10
40.707900000000002
 20
-17.415900000000001
 30
0.0
 10
40.707900000000002
 20
-17.415900000000001
 30
0.0
 10
40.707900000000002
 20
-17.415900000000001
 30
0.0
 10
40.707900000000002
 20
-17.415900000000001
 30
0.0
 10
43.518100000000004
 20
-18.084099999999999
 30
0.0
 10
43.518100000000004
 20
-18.084099999999999
 30
0.0
 10
43.518100000000004
 20
-18.084099999999999
 30
0.0
 10
43.518100000000004
 20
-18.084099999999999
 30
0.0
 10
46.4069
 20
-18.536100000000001
 30
0.0
 10
46.4069
 20
-18.536100000000001
 30
0.0
 10
46.4069
 20
-18.536100000000001
 30
0.0
 10
46.4069
 20
-18.536100000000001
 30
0.0
 10
49.217200000000005
 20
-18.595000000000002
 30
0.0
 10
49.217200000000005
 20
-18.595000000000002
 30
0.0
 10
49.217200000000005
 20
-18.595000000000002
 30
0.0
 10
49.217200000000005
 20
-18.595000000000002
 30
0.0
 10
52.106000000000002
 20
-18.398500000000002
 30
0.0
 10
52.106000000000002
 20
-18.398500000000002
 30
0.0
 10
52.106000000000002
 20
-18.398500000000002
 30
0.0
 10
52.106000000000002
 20
-18.398500000000002
 30
0.0
 10
54.916200000000003
 20
-17.887600000000003
 30
0.0
 10
54.916200000000003
 20
-17.887600000000003
 30
0.0
 10
54.916200000000003
 20
-17.887600000000003
 30
0.0
 10
54.916200000000003
 20
-17.887600000000003
 30
0.0
 10
57.726500000000001
 20
-17.101500000000001
 30
0.0
 10
57.726500000000001
 20
-17.101500000000001
 30
0.0
 10
57.726500000000001
 20
-17.101500000000001
 30
0.0
 10
57.726500000000001
 20
-17.101500000000001
 30
0.0
 10
60.3598
 20
-15.981300000000001
 30
0.0
 10
60.3598
 20
-15.981300000000001
 30
0.0
 10
60.3598
 20
-15.981300000000001
 30
0.0
 10
60.3598
 20
-15.981300000000001
 30
0.0
 10
62.9146
 20
-14.605700000000001
 30
0.0
 10
62.9146
 20
-14.605700000000001
 30
0.0
 10
62.9146
 20
-14.605700000000001
 30
0.0
 10
62.9146
 20
-14.605700000000001
 30
0.0
 10
65.272800000000004
 20
-12.974600000000001
 30
0.0
 10
65.272800000000004
 20
-12.974600000000001
 30
0.0
 10
65.272800000000004
 20
-12.974600000000001
 30
0.0
 10
65.272800000000004
 20
-12.974600000000001
 30
0.0
 10
67.434600000000003
 20
-11.068300000000001
 30
0.0
 10
67.434600000000003
 20
-11.068300000000001
 30
0.0
 10
67.434600000000003
 20
-11.068300000000001
 30
0.0
 10
67.434600000000003
 20
-11.068300000000001
 30
0.0
 10
69.399799999999999
 20
-8.9656000000000002
 30
0.0
 10
69.399799999999999
 20
-8.9656000000000002
 30
0.0
 10
69.399799999999999
 20
-8.9656000000000002
 30
0.0
 10
69.399799999999999
 20
-8.9656000000000002
 30
0.0
 10
71.089799999999997
 20
-6.6859000000000002
 30
0.0
 10
71.089799999999997
 20
-6.6859000000000002
 30
0.0
 10
71.089799999999997
 20
-6.6859000000000002
 30
0.0
 10
71.089799999999997
 20
-6.6859000000000002
 30
0.0
 10
72.5441
 20
-4.1901000000000002
 30
0.0
 10
72.5441
 20
-4.1901000000000002
 30
0.0
 10
72.5441
 20
-4.1901000000000002
 30
0.0
 10
72.5441
 20
-4.1901000000000002
 30
0.0
 10
73.723200000000006
 20
-1.5764
 30
0.0
 10
73.723200000000006
 20
-1.5764
 30
0.0
 10
73.723200000000006
 20
-1.5764
 30
0.0
 10
73.723200000000006
 20
-1.5764
 30
0.0
 10
74.627200000000002
 20
1.1749000000000001
 30
0.0
 10
74.627200000000002
 20
1.1749000000000001
 30
0.0
 10
74.627200000000002
 20
1.1749000000000001
 30
0.0
 10
74.627200000000002
 20
1.1749000000000001
 30
0.0
 10
75.216700000000003
 20
4.0047000000000006
 30
0.0
 10
75.216700000000003
 20
4.0047000000000006
 30
0.0
 10
75.216700000000003
 20
4.0047000000000006
 30
0.0
 10
75.216700000000003
 20
4.0047000000000006
 30
0.0
 10
75.55080000000001
 20
6.8738999999999999
 30
0.0
 10
75.55080000000001
 20
6.8738999999999999
 30
0.0
 10
75.55080000000001
 20
6.8738999999999999
 30
0.0
 10
75.55080000000001
 20
6.8738999999999999
 30
0.0
 10
75.55080000000001
 20
8.1905999999999999
 30
0.0
 10
75.55080000000001
 20
8.1905999999999999
 30
0.0
  0
SPLINE
  5
5C
100
AcDbEntity
  8
Ebene 1
370
    40
 62
     0
100
AcDbSpline
210
0.0
220
0.0
230
1.0
 70
     0
 71
     3
 72
     8
 73
     4
 74
     0
 42
0.0000000001
 43
0.0000000001
 40
0.0
 40
0.0
 40
0.0
 40
0.0
 40
1.0
 40
1.0
 40
1.0
 40
1.0
 10
-60.440900000000006
 20
5.4393000000000002
 30
0.0
 10
-60.440900000000006
 20
5.4393000000000002
 30
0.0
 10
-60.440900000000006
 20
5.4393000000000002
 30
0.0
 10
-60.440900000000006
 20
5.4393000000000002
 30
0.0
  0
SPLINE
  5
5D
100
AcDbEntity
  8
Ebene 1
370
    40
 62
     0
100
AcDbSpline
210
0.0
220
0.0
230
1.0
 70
     0
 71
     3
 72
     8
 73
     4
 74
     0
 42
0.0000000001
 43
0.0000000001
 40
0.0
 40
0.0
 40
0.0
 40
0.0
 40
1.0
 40
1.0
 40
1.0
 40
1.0
 10
-60.1068
 20
5.0463000000000005
 30
0.0
 10
-60.1068
 20
5.0463000000000005
 30
0.0
 10
-52.639000000000003
 20
5.0463000000000005
 30
0.0
 10
-52.639000000000003
 20
5.0463000000000005
 30
0.0
  0
SPLINE
  5
5E
100
AcDbEntity
  8
Ebene 1
370
    40
 62
     0
100
AcDbSpline
210
0.0
220
0.0
230
1.0
 70
     0
 71
     3
 72
     8
 73
     4
 74
     0
 42
0.0000000001
 43
0.0000000001
 40
0.0
 40
0.0
 40
0.0
 40
0.0
 40
1.0
 40
1.0
 40
1.0
 40
1.0
 10
-52.246000000000002
 20
5.4393000000000002
 30
0.0
 10
-52.246000000000002
 20
5.4393000000000002
 30
0.0
 10
-52.246000000000002
 20
5.4393000000000002
 30
0.0
 10
-52.246000000000002
 20
5.4393000000000002
 30
0.0
  0
SPLINE
  5
5F
100
AcDbEntity
  8
Ebene 1
370
    40
 62
     0
100
AcDbSpline
210
0.0
220
0.0
230
1.0
 70
     0
 71
     3
 72
    20
 73
    16
 74
     0
 42
0.0000000001
 43
0.0000000001
 40
0.0
 40
0.0
 40
0.0
 40
0.0
 40
0.25
 40
0.25
 40
0.25
 40
0.25
 40
0.5
 40
0.5
 40
0.5
 40
0.5
 40
0.75
 40
0.75
 40
0.75
 40
0.75
 40
1.0
 40
1.0
 40
1.0
 40
1.0
 10
71.95450000000001
 20
23.9711
 30
0.0
 10
71.95450000000001
 20
23.9711
 30
0.0
 10
70.107200000000006
 20
26.3294
 30
0.0
 10
70.107200000000006
 20
26.3294
 30
0.0
 10
70.107200000000006
 20
26.3294
 30
0.0
 10
70.107200000000006
 20
26.3294
 30
0.0
 10
68.14200000000001
 20
28.491100000000003
 30
0.0
 10
68.14200000000001
 20
28.491100000000003
 30
0.0
 10
68.14200000000001
 20
28.491100000000003
 30
0.0
 10
68.14200000000001
 20
28.491100000000003
 30
0.0
 10
65.862400000000008
 20
30.397300000000001
 30
0.0
 10
65.862400000000008
 20
30.397300000000001
 30
0.0
 10
65.862400000000008
 20
30.397300000000001
 30
0.0
 10
65.862400000000008
 20
30.397300000000001
 30
0.0
 10
64.604700000000008
 20
31.321000000000002
 30
0.0
 10
64.604700000000008
 20
31.321000000000002
 30
0.0
  0
SPLINE
  5
60
100
AcDbEntity
  8
Ebene 1
370
    40
 62
     0
100
AcDbSpline
210
0.0
220
0.0
230
1.0
 70
     0
 71
     3
 72
    16
 73
    12
 74
     0
 42
0.0000000001
 43
0.0000000001
 40
0.0
 40
0.0
 40
0.0
 40
0.0
 40
0.3333333333333333
 40
0.3333333333333333
 40
0.3333333333333333
 40
0.3333333333333333
 40
0.6666666666666666
 40
0.6666666666666666
 40
0.6666666666666666
 40
0.6666666666666666
 40
1.0
 40
1.0
 40
1.0
 40
1.0
 10
64.604700000000008
 20
31.321000000000002
 30
0.0
 10
64.604700000000008
 20
31.321000000000002
 30
0.0
 10
64.15270000000001
 20
31.4389
 30
0.0
 10
64.15270000000001
 20
31.4389
 30
0.0
 10
64.15270000000001
 20
31.4389
 30
0.0
 10
64.15270000000001
 20
31.4389
 30
0.0
 10
63.700700000000005
 20
31.2424
 30
0.0
 10
63.700700000000005
 20
31.2424
 30
0.0
 10
63.700700000000005
 20
31.2424
 30
0.0
 10
63.700700000000005
 20
31.2424
 30
0.0
 10
63.622100000000003
 20
31.2424
 30
0.0
 10
63.622100000000003
 20
31.2424
 30
0.0
  0
SPLINE
  5
61
100
AcDbEntity
  8
Ebene 1
370
    40
 62
     0
100
AcDbSpline
210
0.0
220
0.0
230
1.0
 70
     0
 71
     3
 72
     8
 73
     4
 74
     0
 42
0.0000000001
 43
0.0000000001
 40
0.0
 40
0.0
 40
0.0
 40
0.0
 40
1.0
 40
1.0
 40
1.0
 40
1.0
 10
63.170100000000005
 20
30.731400000000001
 30
0.0
 10
63.170100000000005
 20
30.731400000000001
 30
0.0
 10
63.622100000000003
 20
31.2424
 30
0.0
 10
63.622100000000003
 20
31.2424
 30
0.0
  0
SPLINE
  5
62
100
AcDbEntity
  8
Ebene 1
370
    40
 62
     0
100
AcDbSpline
210
0.0
220
0.0
230
1.0
 70
     0
 71
     3
 72
     8
 73
     4
 74
     0
 42
0.0000000001
 43
0.0000000001
 40
0.0
 40
0.0
 40
0.0
 40
0.0
 40
1.0
 40
1.0
 40
1.0
 40
1.0
 10
71.365000000000009
 20
22.5365
 30
0.0
 10
71.365000000000009
 20
22.5365
 30
0.0
 10
71.816900000000004
 20
22.988500000000002
 30
0.0
 10
71.816900000000004
 20
22.988500000000002
 30
0.0
  0
SPLINE
  5
63
100
AcDbEntity
  8
Ebene 1
370
    40
 62
     0
100
AcDbSpline
210
0.0
220
0.0
230
1.0
 70
     0
 71
     3
 72
    16
 73
    12
 74
     0
 42
0.0000000001
 43
0.0000000001
 40
0.0
 40
0.0
 40
0.0
 40
0.0
 40
0.3333333333333333
 40
0.3333333333333333
 40
0.3333333333333333
 40
0.3333333333333333
 40
0.6666666666666666
 40
0.6666666666666666
 40
0.6666666666666666
 40
0.6666666666666666
 40
1.0
 40
1.0
 40
1.0
 40
1.0
 10
71.816900000000004
 20
22.988500000000002
 30
0.0
 10
71.816900000000004
 20
22.988500000000002
 30
0.0
 10
72.072400000000002
 20
23.4602
 30
0.0
 10
72.072400000000002
 20
23.4602
 30
0.0
 10
72.072400000000002
 20
23.4602
 30
0.0
 10
72.072400000000002
 20
23.4602
 30
0.0
 10
71.95450000000001
 20
23.912200000000002
 30
0.0
 10
71.95450000000001
 20
23.912200000000002
 30
0.0
 10
71.95450000000001
 20
23.912200000000002
 30
0.0
 10
71.95450000000001
 20
23.912200000000002
 30
0.0
 10
71.95450000000001
 20
23.9711
 30
0.0
 10
71.95450000000001
 20
23.9711
 30
0.0
  0
SPLINE
  5
64
100
AcDbEntity
  8
Ebene 1
370
    40
 62
     0
100
AcDbSpline
210
0.0
220
0.0
230
1.0
 70
     0
 71
     3
 72
    20
 73
    16
 74
     0
 42
0.0000000001
 43
0.0000000001
 40
0.0
 40
0.0
 40
0.0
 40
0.0
 40
0.25
 40
0.25
 40
0.25
 40
0.25
 40
0.5
 40
0.5
 40
0.5
 40
0.5
 40
0.75
 40
0.75
 40
0.75
 40
0.75
 40
1.0
 40
1.0
 40
1.0
 40
1.0
 10
64.604700000000008
 20
-14.998700000000001
 30
0.0
 10
64.604700000000008
 20
-14.998700000000001
 30
0.0
 10
66.962900000000005
 20
-13.23
 30
0.0
 10
66.962900000000005
 20
-13.23
 30
0.0
 10
66.962900000000005
 20
-13.23
 30
0.0
 10
66.962900000000005
 20
-13.23
 30
0.0
 10
69.065700000000007
 20
-11.2059
 30
0.0
 10
69.065700000000007
 20
-11.2059
 30
0.0
 10
69.065700000000007
 20
-11.2059
 30
0.0
 10
69.065700000000007
 20
-11.2059
 30
0.0
 10
71.030900000000003
 20
-8.9656000000000002
 30
0.0
 10
71.030900000000003
 20
-8.9656000000000002
 30
0.0
 10
71.030900000000003
 20
-8.9656000000000002
 30
0.0
 10
71.030900000000003
 20
-8.9656000000000002
 30
0.0
 10
71.95450000000001
 20
-7.6685000000000008
 30
0.0
 10
71.95450000000001
 20
-7.6685000000000008
 30
0.0
  0
SPLINE
  5
65
100
AcDbEntity
  8
Ebene 1
370
    40
 62
     0
100
AcDbSpline
210
0.0
220
0.0
230
1.0
 70
     0
 71
     3
 72
    16
 73
    12
 74
     0
 42
0.0000000001
 43
0.0000000001
 40
0.0
 40
0.0
 40
0.0
 40
0.0
 40
0.3333333333333333
 40
0.3333333333333333
 40
0.3333333333333333
 40
0.3333333333333333
 40
0.6666666666666666
 40
0.6666666666666666
 40
0.6666666666666666
 40
0.6666666666666666
 40
1.0
 40
1.0
 40
1.0
 40
1.0
 10
71.95450000000001
 20
-7.6685000000000008
 30
0.0
 10
71.95450000000001
 20
-7.6685000000000008
 30
0.0
 10
72.072400000000002
 20
-7.1969000000000003
 30
0.0
 10
72.072400000000002
 20
-7.1969000000000003
 30
0.0
 10
72.072400000000002
 20
-7.1969000000000003
 30
0.0
 10
72.072400000000002
 20
-7.1969000000000003
 30
0.0
 10
71.875900000000001
 20
-6.7449000000000003
 30
0.0
 10
71.875900000000001
 20
-6.7449000000000003
 30
0.0
 10
71.875900000000001
 20
-6.7449000000000003
 30
0.0
 10
71.875900000000001
 20
-6.7449000000000003
 30
0.0
 10
71.816900000000004
 20
-6.6859000000000002
 30
0.0
 10
71.816900000000004
 20
-6.6859000000000002
 30
0.0
  0
SPLINE
  5
66
100
AcDbEntity
  8
Ebene 1
370
    40
 62
     0
100
AcDbSpline
210
0.0
220
0.0
230
1.0
 70
     0
 71
     3
 72
     8
 73
     4
 74
     0
 42
0.0000000001
 43
0.0000000001
 40
0.0
 40
0.0
 40
0.0
 40
0.0
 40
1.0
 40
1.0
 40
1.0
 40
1.0
 10
71.365000000000009
 20
-6.2143000000000006
 30
0.0
 10
71.365000000000009
 20
-6.2143000000000006
 30
0.0
 10
71.816900000000004
 20
-6.6859000000000002
 30
0.0
 10
71.816900000000004
 20
-6.6859000000000002
 30
0.0
  0
SPLINE
  5
67
100
AcDbEntity
  8
Ebene 1
370
    40
 62
     0
100
AcDbSpline
210
0.0
220
0.0
230
1.0
 70
     0
 71
     3
 72
     8
 73
     4
 74
     0
 42
0.0000000001
 43
0.0000000001
 40
0.0
 40
0.0
 40
0.0
 40
0.0
 40
1.0
 40
1.0
 40
1.0
 40
1.0
 10
63.170100000000005
 20
-14.4092
 30
0.0
 10
63.170100000000005
 20
-14.4092
 30
0.0
 10
63.622100000000003
 20
-14.8611
 30
0.0
 10
63.622100000000003
 20
-14.8611
 30
0.0
  0
SPLINE
  5
68
100
AcDbEntity
  8
Ebene 1
370
    40
 62
     0
100
AcDbSpline
210
0.0
220
0.0
230
1.0
 70
     0
 71
     3
 72
     8
 73
     4
 74
     0
 42
0.0000000001
 43
0.0000000001
 40
0.0
 40
0.0
 40
0.0
 40
0.0
 40
1.0
 40
1.0
 40
1.0
 40
1.0
 10
-10.976800000000001
 20
7.0704000000000002
 30
0.0
 10
-10.976800000000001
 20
7.0704000000000002
 30
0.0
 10
-10.976800000000001
 20
6.0289000000000001
 30
0.0
 10
-10.976800000000001
 20
6.0289000000000001
 30
0.0
  0
SPLINE
  5
69
100
AcDbEntity
  8
Ebene 1
370
    40
 62
     0
100
AcDbSpline
210
0.0
220
0.0
230
1.0
 70
     0
 71
     3
 72
     8
 73
     4
 74
     0
 42
0.0000000001
 43
0.0000000001
 40
0.0
 40
0.0
 40
0.0
 40
0.0
 40
1.0
 40
1.0
 40
1.0
 40
1.0
 10
-10.5838
 20
7.0115000000000007
 30
0.0
 10
-10.5838
 20
7.0115000000000007
 30
0.0
 10
-10.5838
 20
6.0289000000000001
 30
0.0
 10
-10.5838
 20
6.0289000000000001
 30
0.0
  0
SPLINE
  5
6A
100
AcDbEntity
  8
Ebene 1
370
    40
 62
     0
100
AcDbSpline
210
0.0
220
0.0
230
1.0
 70
     0
 71
     3
 72
     8
 73
     4
 74
     0
 42
0.0000000001
 43
0.0000000001
 40
0.0
 40
0.0
 40
0.0
 40
0.0
 40
1.0
 40
1.0
 40
1.0
 40
1.0
 10
-10.721400000000001
 20
3.1400000000000001
 30
0.0
 10
-10.721400000000001
 20
3.1400000000000001
 30
0.0
 10
-10.721400000000001
 20
2.7470000000000003
 30
0.0
 10
-10.721400000000001
 20
2.7470000000000003
 30
0.0
  0
SPLINE
  5
6B
100
AcDbEntity
  8
Ebene 1
370
    40
 62
     0
100
AcDbSpline
210
0.0
220
0.0
230
1.0
 70
     0
 71
     3
 72
     8
 73
     4
 74
     0
 42
0.0000000001
 43
0.0000000001
 40
0.0
 40
0.0
 40
0.0
 40
0.0
 40
1.0
 40
1.0
 40
1.0
 40
1.0
 10
-11.1144
 20
3.2187000000000001
 30
0.0
 10
-11.1144
 20
3.2187000000000001
 30
0.0
 10
-11.1144
 20
2.7470000000000003
 30
0.0
 10
-11.1144
 20
2.7470000000000003
 30
0.0
  0
SPLINE
  5
6C
100
AcDbEntity
  8
Ebene 1
370
    40
 62
     0
100
AcDbSpline
210
0.0
220
0.0
230
1.0
 70
     0
 71
     3
 72
     8
 73
     4
 74
     0
 42
0.0000000001
 43
0.0000000001
 40
0.0
 40
0.0
 40
0.0
 40
0.0
 40
1.0
 40
1.0
 40
1.0
 40
1.0
 10
-65.019800000000004
 20
3.8082000000000003
 30
0.0
 10
-65.019800000000004
 20
3.8082000000000003
 30
0.0
 10
-65.019800000000004
 20
5.6947999999999999
 30
0.0
 10
-65.019800000000004
 20
5.6947999999999999
 30
0.0
  0
SPLINE
  5
6D
100
AcDbEntity
  8
Ebene 1
370
    40
 62
     0
100
AcDbSpline
210
0.0
220
0.0
230
1.0
 70
     0
 71
     3
 72
     8
 73
     4
 74
     0
 42
0.0000000001
 43
0.0000000001
 40
0.0
 40
0.0
 40
0.0
 40
0.0
 40
1.0
 40
1.0
 40
1.0
 40
1.0
 10
-64.6267
 20
3.7296
 30
0.0
 10
-64.6267
 20
3.7296
 30
0.0
 10
-64.6267
 20
5.7734000000000005
 30
0.0
 10
-64.6267
 20
5.7734000000000005
 30
0.0
  0
SPLINE
  5
6E
100
AcDbEntity
  8
Ebene 1
370
    40
 62
     0
100
AcDbSpline
210
0.0
220
0.0
230
1.0
 70
     0
 71
     3
 72
     8
 73
     4
 74
     0
 42
0.0000000001
 43
0.0000000001
 40
0.0
 40
0.0
 40
0.0
 40
0.0
 40
1.0
 40
1.0
 40
1.0
 40
1.0
 10
-10.5838
 20
7.0704000000000002
 30
0.0
 10
-10.5838
 20
7.0704000000000002
 30
0.0
 10
-10.5838
 20
6.0289000000000001
 30
0.0
 10
-10.5838
 20
6.0289000000000001
 30
0.0
  0
SPLINE
  5
6F
100
AcDbEntity
  8
Ebene 1
370
    40
 62
     0
100
AcDbSpline
210
0.0
220
0.0
230
1.0
 70
     0
 71
     3
 72
     8
 73
     4
 74
     0
 42
0.0000000001
 43
0.0000000001
 40
0.0
 40
0.0
 40
0.0
 40
0.0
 40
1.0
 40
1.0
 40
1.0
 40
1.0
 10
-10.5838
 20
6.2844000000000007
 30
0.0
 10
-10.5838
 20
6.2844000000000007
 30
0.0
 10
-9.2868000000000013
 20
6.2844000000000007
 30
0.0
 10
-9.2868000000000013
 20
6.2844000000000007
 30
0.0
  0
SPLINE
  5
70
100
AcDbEntity
  8
Ebene 1
370
    40
 62
     0
100
AcDbSpline
210
0.0
220
0.0
230
1.0
 70
     0
 71
     3
 72
     8
 73
     4
 74
     0
 42
0.0000000001
 43
0.0000000001
 40
0.0
 40
0.0
 40
0.0
 40
0.0
 40
1.0
 40
1.0
 40
1.0
 40
1.0
 10
-9.2868000000000013
 20
7.0704000000000002
 30
0.0
 10
-9.2868000000000013
 20
7.0704000000000002
 30
0.0
 10
-9.2868000000000013
 20
6.2844000000000007
 30
0.0
 10
-9.2868000000000013
 20
6.2844000000000007
 30
0.0
  0
SPLINE
  5
71
100
AcDbEntity
  8
Ebene 1
370
    40
 62
     0
100
AcDbSpline
210
0.0
220
0.0
230
1.0
 70
     0
 71
     3
 72
     8
 73
     4
 74
     0
 42
0.0000000001
 43
0.0000000001
 40
0.0
 40
0.0
 40
0.0
 40
0.0
 40
1.0
 40
1.0
 40
1.0
 40
1.0
 10
-9.6012000000000004
 20
6.2844000000000007
 30
0.0
 10
-9.6012000000000004
 20
6.2844000000000007
 30
0.0
 10
-9.6012000000000004
 20
7.0704000000000002
 30
0.0
 10
-9.6012000000000004
 20
7.0704000000000002
 30
0.0
  0
SPLINE
  5
72
100
AcDbEntity
  8
Ebene 1
370
    40
 62
     0
100
AcDbSpline
210
0.0
220
0.0
230
1.0
 70
     0
 71
     3
 72
     8
 73
     4
 74
     0
 42
0.0000000001
 43
0.0000000001
 40
0.0
 40
0.0
 40
0.0
 40
0.0
 40
1.0
 40
1.0
 40
1.0
 40
1.0
 10
-9.0902000000000012
 20
5.6947999999999999
 30
0.0
 10
-9.0902000000000012
 20
5.6947999999999999
 30
0.0
 10
-8.8937000000000008
 20
5.6947999999999999
 30
0.0
 10
-8.8937000000000008
 20
5.6947999999999999
 30
0.0
  0
SPLINE
  5
73
100
AcDbEntity
  8
Ebene 1
370
    40
 62
     0
100
AcDbSpline
210
0.0
220
0.0
230
1.0
 70
     0
 71
     3
 72
     8
 73
     4
 74
     0
 42
0.0000000001
 43
0.0000000001
 40
0.0
 40
0.0
 40
0.0
 40
0.0
 40
1.0
 40
1.0
 40
1.0
 40
1.0
 10
-9.0902000000000012
 20
6.0878000000000005
 30
0.0
 10
-9.0902000000000012
 20
6.0878000000000005
 30
0.0
 10
-8.8937000000000008
 20
6.0878000000000005
 30
0.0
 10
-8.8937000000000008
 20
6.0878000000000005
 30
0.0
  0
SPLINE
  5
74
100
AcDbEntity
  8
Ebene 1
370
    40
 62
     0
100
AcDbSpline
210
0.0
220
0.0
230
1.0
 70
     0
 71
     3
 72
    12
 73
     8
 74
     0
 42
0.0000000001
 43
0.0000000001
 40
0.0
 40
0.0
 40
0.0
 40
0.0
 40
0.5
 40
0.5
 40
0.5
 40
0.5
 40
1.0
 40
1.0
 40
1.0
 40
1.0
 10
-9.6012000000000004
 20
6.2844000000000007
 30
0.0
 10
-9.6012000000000004
 20
6.2844000000000007
 30
0.0
 10
-9.4832999999999998
 20
5.8913000000000002
 30
0.0
 10
-9.4832999999999998
 20
5.8913000000000002
 30
0.0
 10
-9.4832999999999998
 20
5.8913000000000002
 30
0.0
 10
-9.4832999999999998
 20
5.8913000000000002
 30
0.0
 10
-9.0902000000000012
 20
5.6947999999999999
 30
0.0
 10
-9.0902000000000012
 20
5.6947999999999999
 30
0.0
  0
SPLINE
  5
75
100
AcDbEntity
  8
Ebene 1
370
    40
 62
     0
100
AcDbSpline
210
0.0
220
0.0
230
1.0
 70
     0
 71
     3
 72
    12
 73
     8
 74
     0
 42
0.0000000001
 43
0.0000000001
 40
0.0
 40
0.0
 40
0.0
 40
0.0
 40
0.5
 40
0.5
 40
0.5
 40
0.5
 40
1.0
 40
1.0
 40
1.0
 40
1.0
 10
-9.2868000000000013
 20
6.2844000000000007
 30
0.0
 10
-9.2868000000000013
 20
6.2844000000000007
 30
0.0
 10
-9.2081999999999997
 20
6.0878000000000005
 30
0.0
 10
-9.2081999999999997
 20
6.0878000000000005
 30
0.0
 10
-9.2081999999999997
 20
6.0878000000000005
 30
0.0
 10
-9.2081999999999997
 20
6.0878000000000005
 30
0.0
 10
-9.0902000000000012
 20
6.0878000000000005
 30
0.0
 10
-9.0902000000000012
 20
6.0878000000000005
 30
0.0
  0
SPLINE
  5
76
100
AcDbEntity
  8
Ebene 1
370
    40
 62
     0
100
AcDbSpline
210
0.0
220
0.0
230
1.0
 70
     0
 71
     3
 72
     8
 73
     4
 74
     0
 42
0.0000000001
 43
0.0000000001
 40
0.0
 40
0.0
 40
0.0
 40
0.0
 40
1.0
 40
1.0
 40
1.0
 40
1.0
 10
-8.8937000000000008
 20
5.6947999999999999
 30
0.0
 10
-8.8937000000000008
 20
5.6947999999999999
 30
0.0
 10
-8.8937000000000008
 20
6.0878000000000005
 30
0.0
 10
-8.8937000000000008
 20
6.0878000000000005
 30
0.0
  0
SPLINE
  5
77
100
AcDbEntity
  8
Ebene 1
370
    40
 62
     0
100
AcDbSpline
210
0.0
220
0.0
230
1.0
 70
     0
 71
     3
 72
    20
 73
    16
 74
     0
 42
0.0000000001
 43
0.0000000001
 40
0.0
 40
0.0
 40
0.0
 40
0.0
 40
0.25
 40
0.25
 40
0.25
 40
0.25
 40
0.5
 40
0.5
 40
0.5
 40
0.5
 40
0.75
 40
0.75
 40
0.75
 40
0.75
 40
1.0
 40
1.0
 40
1.0
 40
1.0
 10
-9.6012000000000004
 20
7.0704000000000002
 30
0.0
 10
-9.6012000000000004
 20
7.0704000000000002
 30
0.0
 10
-9.7977000000000007
 20
7.4045000000000005
 30
0.0
 10
-9.7977000000000007
 20
7.4045000000000005
 30
0.0
 10
-9.7977000000000007
 20
7.4045000000000005
 30
0.0
 10
-9.7977000000000007
 20
7.4045000000000005
 30
0.0
 10
-10.1318
 20
7.601
 30
0.0
 10
-10.1318
 20
7.601
 30
0.0
 10
-10.1318
 20
7.601
 30
0.0
 10
-10.1318
 20
7.601
 30
0.0
 10
-10.465900000000001
 20
7.4045000000000005
 30
0.0
 10
-10.465900000000001
 20
7.4045000000000005
 30
0.0
 10
-10.465900000000001
 20
7.4045000000000005
 30
0.0
 10
-10.465900000000001
 20
7.4045000000000005
 30
0.0
 10
-10.5838
 20
7.0704000000000002
 30
0.0
 10
-10.5838
 20
7.0704000000000002
 30
0.0
  0
SPLINE
  5
78
100
AcDbEntity
  8
Ebene 1
370
    40
 62
     0
100
AcDbSpline
210
0.0
220
0.0
230
1.0
 70
     0
 71
     3
 72
    28
 73
    24
 74
     0
 42
0.0000000001
 43
0.0000000001
 40
0.0
 40
0.0
 40
0.0
 40
0.0
 40
0.1666666666666667
 40
0.1666666666666667
 40
0.1666666666666667
 40
0.1666666666666667
 40
0.3333333333333333
 40
0.3333333333333333
 40
0.3333333333333333
 40
0.3333333333333333
 40
0.5
 40
0.5
 40
0.5
 40
0.5
 40
0.6666666666666666
 40
0.6666666666666666
 40
0.6666666666666666
 40
0.6666666666666666
 40
0.8333333333333333
 40
0.8333333333333333
 40
0.8333333333333333
 40
0.8333333333333333
 40
1.0
 40
1.0
 40
1.0
 40
1.0
 10
-9.2868000000000013
 20
7.0704000000000002
 30
0.0
 10
-9.2868000000000013
 20
7.0704000000000002
 30
0.0
 10
-9.4047000000000001
 20
7.601
 30
0.0
 10
-9.4047000000000001
 20
7.601
 30
0.0
 10
-9.4047000000000001
 20
7.601
 30
0.0
 10
-9.4047000000000001
 20
7.601
 30
0.0
 10
-9.7977000000000007
 20
7.9351000000000003
 30
0.0
 10
-9.7977000000000007
 20
7.9351000000000003
 30
0.0
 10
-9.7977000000000007
 20
7.9351000000000003
 30
0.0
 10
-9.7977000000000007
 20
7.9351000000000003
 30
0.0
 10
-10.3283
 20
7.9351000000000003
 30
0.0
 10
-10.3283
 20
7.9351000000000003
 30
0.0
 10
-10.3283
 20
7.9351000000000003
 30
0.0
 10
-10.3283
 20
7.9351000000000003
 30
0.0
 10
-10.7803
 20
7.6600000000000001
 30
0.0
 10
-10.7803
 20
7.6600000000000001
 30
0.0
 10
-10.7803
 20
7.6600000000000001
 30
0.0
 10
-10.7803
 20
7.6600000000000001
 30
0.0
 10
-10.976800000000001
 20
7.2080000000000002
 30
0.0
 10
-10.976800000000001
 20
7.2080000000000002
 30
0.0
 10
-10.976800000000001
 20
7.2080000000000002
 30
0.0
 10
-10.976800000000001
 20
7.2080000000000002
 30
0.0
 10
-10.976800000000001
 20
7.0704000000000002
 30
0.0
 10
-10.976800000000001
 20
7.0704000000000002
 30
0.0
  0
SPLINE
  5
79
100
AcDbEntity
  8
Ebene 1
370
    40
 62
     0
100
AcDbSpline
210
0.0
220
0.0
230
1.0
 70
     0
 71
     3
 72
     8
 73
     4
 74
     0
 42
0.0000000001
 43
0.0000000001
 40
0.0
 40
0.0
 40
0.0
 40
0.0
 40
1.0
 40
1.0
 40
1.0
 40
1.0
 10
-10.721400000000001
 20
5.6947999999999999
 30
0.0
 10
-10.721400000000001
 20
5.6947999999999999
 30
0.0
 10
-10.5838
 20
6.0289000000000001
 30
0.0
 10
-10.5838
 20
6.0289000000000001
 30
0.0
  0
SPLINE
  5
7A
100
AcDbEntity
  8
Ebene 1
370
    40
 62
     0
100
AcDbSpline
210
0.0
220
0.0
230
1.0
 70
     0
 71
     3
 72
     8
 73
     4
 74
     0
 42
0.0000000001
 43
0.0000000001
 40
0.0
 40
0.0
 40
0.0
 40
0.0
 40
1.0
 40
1.0
 40
1.0
 40
1.0
 10
-66.533000000000001
 20
6.2844000000000007
 30
0.0
 10
-66.533000000000001
 20
6.2844000000000007
 30
0.0
 10
-66.533000000000001
 20
7.0704000000000002
 30
0.0
 10
-66.533000000000001
 20
7.0704000000000002
 30
0.0
  0
SPLINE
  5
7B
100
AcDbEntity
  8
Ebene 1
370
    40
 62
     0
100
AcDbSpline
210
0.0
220
0.0
230
1.0
 70
     0
 71
     3
 72
     8
 73
     4
 74
     0
 42
0.0000000001
 43
0.0000000001
 40
0.0
 40
0.0
 40
0.0
 40
0.0
 40
1.0
 40
1.0
 40
1.0
 40
1.0
 10
-66.139899999999997
 20
7.0704000000000002
 30
0.0
 10
-66.139899999999997
 20
7.0704000000000002
 30
0.0
 10
-66.139899999999997
 20
6.2844000000000007
 30
0.0
 10
-66.139899999999997
 20
6.2844000000000007
 30
0.0
  0
SPLINE
  5
7C
100
AcDbEntity
  8
Ebene 1
370
    40
 62
     0
100
AcDbSpline
210
0.0
220
0.0
230
1.0
 70
     0
 71
     3
 72
     8
 73
     4
 74
     0
 42
0.0000000001
 43
0.0000000001
 40
0.0
 40
0.0
 40
0.0
 40
0.0
 40
1.0
 40
1.0
 40
1.0
 40
1.0
 10
-66.867100000000008
 20
5.6947999999999999
 30
0.0
 10
-66.867100000000008
 20
5.6947999999999999
 30
0.0
 10
-66.670500000000004
 20
5.6947999999999999
 30
0.0
 10
-66.670500000000004
 20
5.6947999999999999
 30
0.0
  0
SPLINE
  5
7D
100
AcDbEntity
  8
Ebene 1
370
    40
 62
     0
100
AcDbSpline
210
0.0
220
0.0
230
1.0
 70
     0
 71
     3
 72
     8
 73
     4
 74
     0
 42
0.0000000001
 43
0.0000000001
 40
0.0
 40
0.0
 40
0.0
 40
0.0
 40
1.0
 40
1.0
 40
1.0
 40
1.0
 10
-66.867100000000008
 20
6.0878000000000005
 30
0.0
 10
-66.867100000000008
 20
6.0878000000000005
 30
0.0
 10
-66.670500000000004
 20
6.0878000000000005
 30
0.0
 10
-66.670500000000004
 20
6.0878000000000005
 30
0.0
  0
SPLINE
  5
7E
100
AcDbEntity
  8
Ebene 1
370
    40
 62
     0
100
AcDbSpline
210
0.0
220
0.0
230
1.0
 70
     0
 71
     3
 72
    16
 73
    12
 74
     0
 42
0.0000000001
 43
0.0000000001
 40
0.0
 40
0.0
 40
0.0
 40
0.0
 40
0.3333333333333333
 40
0.3333333333333333
 40
0.3333333333333333
 40
0.3333333333333333
 40
0.6666666666666666
 40
0.6666666666666666
 40
0.6666666666666666
 40
0.6666666666666666
 40
1.0
 40
1.0
 40
1.0
 40
1.0
 10
-66.670500000000004
 20
5.6947999999999999
 30
0.0
 10
-66.670500000000004
 20
5.6947999999999999
 30
0.0
 10
-66.336500000000001
 20
5.8324000000000007
 30
0.0
 10
-66.336500000000001
 20
5.8324000000000007
 30
0.0
 10
-66.336500000000001
 20
5.8324000000000007
 30
0.0
 10
-66.336500000000001
 20
5.8324000000000007
 30
0.0
 10
-66.139899999999997
 20
6.2254000000000005
 30
0.0
 10
-66.139899999999997
 20
6.2254000000000005
 30
0.0
 10
-66.139899999999997
 20
6.2254000000000005
 30
0.0
 10
-66.139899999999997
 20
6.2254000000000005
 30
0.0
 10
-66.139899999999997
 20
6.2844000000000007
 30
0.0
 10
-66.139899999999997
 20
6.2844000000000007
 30
0.0
  0
SPLINE
  5
7F
100
AcDbEntity
  8
Ebene 1
370
    40
 62
     0
100
AcDbSpline
210
0.0
220
0.0
230
1.0
 70
     0
 71
     3
 72
    12
 73
     8
 74
     0
 42
0.0000000001
 43
0.0000000001
 40
0.0
 40
0.0
 40
0.0
 40
0.0
 40
0.5
 40
0.5
 40
0.5
 40
0.5
 40
1.0
 40
1.0
 40
1.0
 40
1.0
 10
-66.670500000000004
 20
6.0878000000000005
 30
0.0
 10
-66.670500000000004
 20
6.0878000000000005
 30
0.0
 10
-66.533000000000001
 20
6.0878000000000005
 30
0.0
 10
-66.533000000000001
 20
6.0878000000000005
 30
0.0
 10
-66.533000000000001
 20
6.0878000000000005
 30
0.0
 10
-66.533000000000001
 20
6.0878000000000005
 30
0.0
 10
-66.533000000000001
 20
6.2844000000000007
 30
0.0
 10
-66.533000000000001
 20
6.2844000000000007
 30
0.0
  0
SPLINE
  5
80
100
AcDbEntity
  8
Ebene 1
370
    40
 62
     0
100
AcDbSpline
210
0.0
220
0.0
230
1.0
 70
     0
 71
     3
 72
     8
 73
     4
 74
     0
 42
0.0000000001
 43
0.0000000001
 40
0.0
 40
0.0
 40
0.0
 40
0.0
 40
1.0
 40
1.0
 40
1.0
 40
1.0
 10
-66.867100000000008
 20
5.6947999999999999
 30
0.0
 10
-66.867100000000008
 20
5.6947999999999999
 30
0.0
 10
-66.867100000000008
 20
6.0878000000000005
 30
0.0
 10
-66.867100000000008
 20
6.0878000000000005
 30
0.0
  0
SPLINE
  5
81
100
AcDbEntity
  8
Ebene 1
370
    40
 62
     0
100
AcDbSpline
210
0.0
220
0.0
230
1.0
 70
     0
 71
     3
 72
    20
 73
    16
 74
     0
 42
0.0000000001
 43
0.0000000001
 40
0.0
 40
0.0
 40
0.0
 40
0.0
 40
0.25
 40
0.25
 40
0.25
 40
0.25
 40
0.5
 40
0.5
 40
0.5
 40
0.5
 40
0.75
 40
0.75
 40
0.75
 40
0.75
 40
1.0
 40
1.0
 40
1.0
 40
1.0
 10
-65.157300000000006
 20
7.0704000000000002
 30
0.0
 10
-65.157300000000006
 20
7.0704000000000002
 30
0.0
 10
-65.294899999999998
 20
7.4045000000000005
 30
0.0
 10
-65.294899999999998
 20
7.4045000000000005
 30
0.0
 10
-65.294899999999998
 20
7.4045000000000005
 30
0.0
 10
-65.294899999999998
 20
7.4045000000000005
 30
0.0
 10
-65.609300000000005
 20
7.601
 30
0.0
 10
-65.609300000000005
 20
7.601
 30
0.0
 10
-65.609300000000005
 20
7.601
 30
0.0
 10
-65.609300000000005
 20
7.601
 30
0.0
 10
-65.943399999999997
 20
7.4045000000000005
 30
0.0
 10
-65.943399999999997
 20
7.4045000000000005
 30
0.0
 10
-65.943399999999997
 20
7.4045000000000005
 30
0.0
 10
-65.943399999999997
 20
7.4045000000000005
 30
0.0
 10
-66.139899999999997
 20
7.0704000000000002
 30
0.0
 10
-66.139899999999997
 20
7.0704000000000002
 30
0.0
  0
SPLINE
  5
82
100
AcDbEntity
  8
Ebene 1
370
    40
 62
     0
100
AcDbSpline
210
0.0
220
0.0
230
1.0
 70
     0
 71
     3
 72
    28
 73
    24
 74
     0
 42
0.0000000001
 43
0.0000000001
 40
0.0
 40
0.0
 40
0.0
 40
0.0
 40
0.1666666666666667
 40
0.1666666666666667
 40
0.1666666666666667
 40
0.1666666666666667
 40
0.3333333333333333
 40
0.3333333333333333
 40
0.3333333333333333
 40
0.3333333333333333
 40
0.5
 40
0.5
 40
0.5
 40
0.5
 40
0.6666666666666666
 40
0.6666666666666666
 40
0.6666666666666666
 40
0.6666666666666666
 40
0.8333333333333333
 40
0.8333333333333333
 40
0.8333333333333333
 40
0.8333333333333333
 40
1.0
 40
1.0
 40
1.0
 40
1.0
 10
-64.764300000000006
 20
7.0704000000000002
 30
0.0
 10
-64.764300000000006
 20
7.0704000000000002
 30
0.0
 10
-64.901899999999998
 20
7.601
 30
0.0
 10
-64.901899999999998
 20
7.601
 30
0.0
 10
-64.901899999999998
 20
7.601
 30
0.0
 10
-64.901899999999998
 20
7.601
 30
0.0
 10
-65.294899999999998
 20
7.9351000000000003
 30
0.0
 10
-65.294899999999998
 20
7.9351000000000003
 30
0.0
 10
-65.294899999999998
 20
7.9351000000000003
 30
0.0
 10
-65.294899999999998
 20
7.9351000000000003
 30
0.0
 10
-65.805900000000008
 20
7.9351000000000003
 30
0.0
 10
-65.805900000000008
 20
7.9351000000000003
 30
0.0
 10
-65.805900000000008
 20
7.9351000000000003
 30
0.0
 10
-65.805900000000008
 20
7.9351000000000003
 30
0.0
 10
-66.277500000000003
 20
7.6600000000000001
 30
0.0
 10
-66.277500000000003
 20
7.6600000000000001
 30
0.0
 10
-66.277500000000003
 20
7.6600000000000001
 30
0.0
 10
-66.277500000000003
 20
7.6600000000000001
 30
0.0
 10
-66.474000000000004
 20
7.2080000000000002
 30
0.0
 10
-66.474000000000004
 20
7.2080000000000002
 30
0.0
 10
-66.474000000000004
 20
7.2080000000000002
 30
0.0
 10
-66.474000000000004
 20
7.2080000000000002
 30
0.0
 10
-66.533000000000001
 20
7.0704000000000002
 30
0.0
 10
-66.533000000000001
 20
7.0704000000000002
 30
0.0
  0
SPLINE
  5
83
100
AcDbEntity
  8
Ebene 1
370
    40
 62
     0
100
AcDbSpline
210
0.0
220
0.0
230
1.0
 70
     0
 71
     3
 72
     8
 73
     4
 74
     0
 42
0.0000000001
 43
0.0000000001
 40
0.0
 40
0.0
 40
0.0
 40
0.0
 40
1.0
 40
1.0
 40
1.0
 40
1.0
 10
-65.157300000000006
 20
6.0289000000000001
 30
0.0
 10
-65.157300000000006
 20
6.0289000000000001
 30
0.0
 10
-65.019800000000004
 20
5.6947999999999999
 30
0.0
 10
-65.019800000000004
 20
5.6947999999999999
 30
0.0
  0
SPLINE
  5
84
100
AcDbEntity
  8
Ebene 1
370
    40
 62
     0
100
AcDbSpline
210
0.0
220
0.0
230
1.0
 70
     0
 71
     3
 72
     8
 73
     4
 74
     0
 42
0.0000000001
 43
0.0000000001
 40
0.0
 40
0.0
 40
0.0
 40
0.0
 40
1.0
 40
1.0
 40
1.0
 40
1.0
 10
-64.764300000000006
 20
6.0289000000000001
 30
0.0
 10
-64.764300000000006
 20
6.0289000000000001
 30
0.0
 10
-64.764300000000006
 20
6.9525000000000006
 30
0.0
 10
-64.764300000000006
 20
6.9525000000000006
 30
0.0
  0
SPLINE
  5
85
100
AcDbEntity
  8
Ebene 1
370
    40
 62
     0
100
AcDbSpline
210
0.0
220
0.0
230
1.0
 70
     0
 71
     3
 72
     8
 73
     4
 74
     0
 42
0.0000000001
 43
0.0000000001
 40
0.0
 40
0.0
 40
0.0
 40
0.0
 40
1.0
 40
1.0
 40
1.0
 40
1.0
 10
-65.157300000000006
 20
6.0289000000000001
 30
0.0
 10
-65.157300000000006
 20
6.0289000000000001
 30
0.0
 10
-65.157300000000006
 20
7.0115000000000007
 30
0.0
 10
-65.157300000000006
 20
7.0115000000000007
 30
0.0
  0
SPLINE
  5
86
100
AcDbEntity
  8
Ebene 1
370
    40
 62
     0
100
AcDbSpline
210
0.0
220
0.0
230
1.0
 70
     0
 71
     3
 72
     8
 73
     4
 74
     0
 42
0.0000000001
 43
0.0000000001
 40
0.0
 40
0.0
 40
0.0
 40
0.0
 40
1.0
 40
1.0
 40
1.0
 40
1.0
 10
-64.6267
 20
5.7734000000000005
 30
0.0
 10
-64.6267
 20
5.7734000000000005
 30
0.0
 10
-64.705300000000008
 20
5.8913000000000002
 30
0.0
 10
-64.705300000000008
 20
5.8913000000000002
 30
0.0
  0
SPLINE
  5
87
100
AcDbEntity
  8
Ebene 1
370
    40
 62
     0
100
AcDbSpline
210
0.0
220
0.0
230
1.0
 70
     0
 71
     3
 72
     8
 73
     4
 74
     0
 42
0.0000000001
 43
0.0000000001
 40
0.0
 40
0.0
 40
0.0
 40
0.0
 40
1.0
 40
1.0
 40
1.0
 40
1.0
 10
-64.764300000000006
 20
5.9699
 30
0.0
 10
-64.764300000000006
 20
5.9699
 30
0.0
 10
-64.764300000000006
 20
5.8913000000000002
 30
0.0
 10
-64.764300000000006
 20
5.8913000000000002
 30
0.0
  0
SPLINE
  5
88
100
AcDbEntity
  8
Ebene 1
370
    40
 62
     0
100
AcDbSpline
210
0.0
220
0.0
230
1.0
 70
     0
 71
     3
 72
     8
 73
     4
 74
     0
 42
0.0000000001
 43
0.0000000001
 40
0.0
 40
0.0
 40
0.0
 40
0.0
 40
1.0
 40
1.0
 40
1.0
 40
1.0
 10
-64.764300000000006
 20
5.8913000000000002
 30
0.0
 10
-64.764300000000006
 20
5.8913000000000002
 30
0.0
 10
-64.705300000000008
 20
5.8913000000000002
 30
0.0
 10
-64.705300000000008
 20
5.8913000000000002
 30
0.0
  0
SPLINE
  5
89
100
AcDbEntity
  8
Ebene 1
370
    40
 62
     0
100
AcDbSpline
210
0.0
220
0.0
230
1.0
 70
     0
 71
     3
 72
     8
 73
     4
 74
     0
 42
0.0000000001
 43
0.0000000001
 40
0.0
 40
0.0
 40
0.0
 40
0.0
 40
1.0
 40
1.0
 40
1.0
 40
1.0
 10
23.080000000000002
 20
-20.442299999999999
 30
0.0
 10
23.080000000000002
 20
-20.442299999999999
 30
0.0
 10
74.50930000000001
 20
-20.442299999999999
 30
0.0
 10
74.50930000000001
 20
-20.442299999999999
 30
0.0
  0
SPLINE
  5
8A
100
AcDbEntity
  8
Ebene 1
370
    40
 62
     0
100
AcDbSpline
210
0.0
220
0.0
230
1.0
 70
     0
 71
     3
 72
    12
 73
     8
 74
     0
 42
0.0000000001
 43
0.0000000001
 40
0.0
 40
0.0
 40
0.0
 40
0.0
 40
0.5
 40
0.5
 40
0.5
 40
0.5
 40
1.0
 40
1.0
 40
1.0
 40
1.0
 10
35.794899999999998
 20
-20.8353
 30
0.0
 10
35.794899999999998
 20
-20.8353
 30
0.0
 10
36.109300000000005
 20
-20.756700000000002
 30
0.0
 10
36.109300000000005
 20
-20.756700000000002
 30
0.0
 10
36.109300000000005
 20
-20.756700000000002
 30
0.0
 10
36.109300000000005
 20
-20.756700000000002
 30
0.0
 10
36.187899999999999
 20
-20.442299999999999
 30
0.0
 10
36.187899999999999
 20
-20.442299999999999
 30
0.0
  0
SPLINE
  5
8B
100
AcDbEntity
  8
Ebene 1
370
    40
 62
     0
100
AcDbSpline
210
0.0
220
0.0
230
1.0
 70
     0
 71
     3
 72
     8
 73
     4
 74
     0
 42
0.0000000001
 43
0.0000000001
 40
0.0
 40
0.0
 40
0.0
 40
0.0
 40
1.0
 40
1.0
 40
1.0
 40
1.0
 10
61.735500000000002
 20
-20.8353
 30
0.0
 10
61.735500000000002
 20
-20.8353
 30
0.0
 10
66.766400000000004
 20
-20.8353
 30
0.0
 10
66.766400000000004
 20
-20.8353
 30
0.0
  0
SPLINE
  5
8C
100
AcDbEntity
  8
Ebene 1
370
    40
 62
     0
100
AcDbSpline
210
0.0
220
0.0
230
1.0
 70
     0
 71
     3
 72
    12
 73
     8
 74
     0
 42
0.0000000001
 43
0.0000000001
 40
0.0
 40
0.0
 40
0.0
 40
0.0
 40
0.5
 40
0.5
 40
0.5
 40
0.5
 40
1.0
 40
1.0
 40
1.0
 40
1.0
 10
66.766400000000004
 20
-20.8353
 30
0.0
 10
66.766400000000004
 20
-20.8353
 30
0.0
 10
67.041499999999999
 20
-20.756700000000002
 30
0.0
 10
67.041499999999999
 20
-20.756700000000002
 30
0.0
 10
67.041499999999999
 20
-20.756700000000002
 30
0.0
 10
67.041499999999999
 20
-20.756700000000002
 30
0.0
 10
67.159400000000005
 20
-20.442299999999999
 30
0.0
 10
67.159400000000005
 20
-20.442299999999999
 30
0.0
  0
SPLINE
  5
8D
100
AcDbEntity
  8
Ebene 1
370
    40
 62
     0
100
AcDbSpline
210
0.0
220
0.0
230
1.0
 70
     0
 71
     3
 72
    24
 73
    20
 74
     0
 42
0.0000000001
 43
0.0000000001
 40
0.0
 40
0.0
 40
0.0
 40
0.0
 40
0.2
 40
0.2
 40
0.2
 40
0.2
 40
0.4
 40
0.4
 40
0.4
 40
0.4
 40
0.6000000000000001
 40
0.6000000000000001
 40
0.6000000000000001
 40
0.6000000000000001
 40
0.8
 40
0.8
 40
0.8
 40
0.8
 40
1.0
 40
1.0
 40
1.0
 40
1.0
 10
74.50930000000001
 20
-20.442299999999999
 30
0.0
 10
74.50930000000001
 20
-20.442299999999999
 30
0.0
 10
75.413300000000007
 20
-20.3047
 30
0.0
 10
75.413300000000007
 20
-20.3047
 30
0.0
 10
75.413300000000007
 20
-20.3047
 30
0.0
 10
75.413300000000007
 20
-20.3047
 30
0.0
 10
76.277900000000002
 20
-19.852700000000002
 30
0.0
 10
76.277900000000002
 20
-19.852700000000002
 30
0.0
 10
76.277900000000002
 20
-19.852700000000002
 30
0.0
 10
76.277900000000002
 20
-19.852700000000002
 30
0.0
 10
76.926500000000004
 20
-19.1846
 30
0.0
 10
76.926500000000004
 20
-19.1846
 30
0.0
 10
76.926500000000004
 20
-19.1846
 30
0.0
 10
76.926500000000004
 20
-19.1846
 30
0.0
 10
77.319500000000005
 20
-18.339500000000001
 30
0.0
 10
77.319500000000005
 20
-18.339500000000001
 30
0.0
 10
77.319500000000005
 20
-18.339500000000001
 30
0.0
 10
77.319500000000005
 20
-18.339500000000001
 30
0.0
 10
77.378500000000003
 20
-17.5535
 30
0.0
 10
77.378500000000003
 20
-17.5535
 30
0.0
  0
SPLINE
  5
8E
100
AcDbEntity
  8
Ebene 1
370
    40
 62
     0
100
AcDbSpline
210
0.0
220
0.0
230
1.0
 70
     0
 71
     3
 72
    24
 73
    20
 74
     0
 42
0.0000000001
 43
0.0000000001
 40
0.0
 40
0.0
 40
0.0
 40
0.0
 40
0.2
 40
0.2
 40
0.2
 40
0.2
 40
0.4
 40
0.4
 40
0.4
 40
0.4
 40
0.6000000000000001
 40
0.6000000000000001
 40
0.6000000000000001
 40
0.6000000000000001
 40
0.8
 40
0.8
 40
0.8
 40
0.8
 40
1.0
 40
1.0
 40
1.0
 40
1.0
 10
20.132200000000001
 20
-17.5535
 30
0.0
 10
20.132200000000001
 20
-17.5535
 30
0.0
 10
20.328800000000001
 20
-18.4771
 30
0.0
 10
20.328800000000001
 20
-18.4771
 30
0.0
 10
20.328800000000001
 20
-18.4771
 30
0.0
 10
20.328800000000001
 20
-18.4771
 30
0.0
 10
20.721800000000002
 20
-19.322100000000002
 30
0.0
 10
20.721800000000002
 20
-19.322100000000002
 30
0.0
 10
20.721800000000002
 20
-19.322100000000002
 30
0.0
 10
20.721800000000002
 20
-19.322100000000002
 30
0.0
 10
21.448900000000002
 20
-19.970700000000001
 30
0.0
 10
21.448900000000002
 20
-19.970700000000001
 30
0.0
 10
21.448900000000002
 20
-19.970700000000001
 30
0.0
 10
21.448900000000002
 20
-19.970700000000001
 30
0.0
 10
22.294
 20
-20.363700000000001
 30
0.0
 10
22.294
 20
-20.363700000000001
 30
0.0
 10
22.294
 20
-20.363700000000001
 30
0.0
 10
22.294
 20
-20.363700000000001
 30
0.0
 10
23.080000000000002
 20
-20.442299999999999
 30
0.0
 10
23.080000000000002
 20
-20.442299999999999
 30
0.0
  0
SPLINE
  5
8F
100
AcDbEntity
  8
Ebene 1
370
    40
 62
     0
100
AcDbSpline
210
0.0
220
0.0
230
1.0
 70
     0
 71
     3
 72
     8
 73
     4
 74
     0
 42
0.0000000001
 43
0.0000000001
 40
0.0
 40
0.0
 40
0.0
 40
0.0
 40
1.0
 40
1.0
 40
1.0
 40
1.0
 10
77.378500000000003
 20
-17.5535
 30
0.0
 10
77.378500000000003
 20
-17.5535
 30
0.0
 10
77.378500000000003
 20
33.875700000000002
 30
0.0
 10
77.378500000000003
 20
33.875700000000002
 30
0.0
  0
SPLINE
  5
90
100
AcDbEntity
  8
Ebene 1
370
    40
 62
     0
100
AcDbSpline
210
0.0
220
0.0
230
1.0
 70
     0
 71
     3
 72
    24
 73
    20
 74
     0
 42
0.0000000001
 43
0.0000000001
 40
0.0
 40
0.0
 40
0.0
 40
0.0
 40
0.2
 40
0.2
 40
0.2
 40
0.2
 40
0.4
 40
0.4
 40
0.4
 40
0.4
 40
0.6000000000000001
 40
0.6000000000000001
 40
0.6000000000000001
 40
0.6000000000000001
 40
0.8
 40
0.8
 40
0.8
 40
0.8
 40
1.0
 40
1.0
 40
1.0
 40
1.0
 10
77.378500000000003
 20
33.875700000000002
 30
0.0
 10
77.378500000000003
 20
33.875700000000002
 30
0.0
 10
77.260500000000008
 20
34.779699999999998
 30
0.0
 10
77.260500000000008
 20
34.779699999999998
 30
0.0
 10
77.260500000000008
 20
34.779699999999998
 30
0.0
 10
77.260500000000008
 20
34.779699999999998
 30
0.0
 10
76.788899999999998
 20
35.644400000000005
 30
0.0
 10
76.788899999999998
 20
35.644400000000005
 30
0.0
 10
76.788899999999998
 20
35.644400000000005
 30
0.0
 10
76.788899999999998
 20
35.644400000000005
 30
0.0
 10
76.1404
 20
36.292900000000003
 30
0.0
 10
76.1404
 20
36.292900000000003
 30
0.0
 10
76.1404
 20
36.292900000000003
 30
0.0
 10
76.1404
 20
36.292900000000003
 30
0.0
 10
75.295299999999997
 20
36.686
 30
0.0
 10
75.295299999999997
 20
36.686
 30
0.0
 10
75.295299999999997
 20
36.686
 30
0.0
 10
75.295299999999997
 20
36.686
 30
0.0
 10
74.50930000000001
 20
36.823500000000003
 30
0.0
 10
74.50930000000001
 20
36.823500000000003
 30
0.0
  0
SPLINE
  5
91
100
AcDbEntity
  8
Ebene 1
370
    40
 62
     0
100
AcDbSpline
210
0.0
220
0.0
230
1.0
 70
     0
 71
     3
 72
    24
 73
    20
 74
     0
 42
0.0000000001
 43
0.0000000001
 40
0.0
 40
0.0
 40
0.0
 40
0.0
 40
0.2
 40
0.2
 40
0.2
 40
0.2
 40
0.4
 40
0.4
 40
0.4
 40
0.4
 40
0.6000000000000001
 40
0.6000000000000001
 40
0.6000000000000001
 40
0.6000000000000001
 40
0.8
 40
0.8
 40
0.8
 40
0.8
 40
1.0
 40
1.0
 40
1.0
 40
1.0
 10
23.080000000000002
 20
36.823500000000003
 30
0.0
 10
23.080000000000002
 20
36.823500000000003
 30
0.0
 10
22.0974
 20
36.627000000000002
 30
0.0
 10
22.0974
 20
36.627000000000002
 30
0.0
 10
22.0974
 20
36.627000000000002
 30
0.0
 10
22.0974
 20
36.627000000000002
 30
0.0
 10
21.311400000000003
 20
36.155300000000004
 30
0.0
 10
21.311400000000003
 20
36.155300000000004
 30
0.0
 10
21.311400000000003
 20
36.155300000000004
 30
0.0
 10
21.311400000000003
 20
36.155300000000004
 30
0.0
 10
20.662800000000001
 20
35.506799999999998
 30
0.0
 10
20.662800000000001
 20
35.506799999999998
 30
0.0
 10
20.662800000000001
 20
35.506799999999998
 30
0.0
 10
20.662800000000001
 20
35.506799999999998
 30
0.0
 10
20.2698
 20
34.661799999999999
 30
0.0
 10
20.2698
 20
34.661799999999999
 30
0.0
 10
20.2698
 20
34.661799999999999
 30
0.0
 10
20.2698
 20
34.661799999999999
 30
0.0
 10
20.132200000000001
 20
33.875700000000002
 30
0.0
 10
20.132200000000001
 20
33.875700000000002
 30
0.0
  0
SPLINE
  5
92
100
AcDbEntity
  8
Ebene 1
370
    40
 62
     0
100
AcDbSpline
210
0.0
220
0.0
230
1.0
 70
     0
 71
     3
 72
     8
 73
     4
 74
     0
 42
0.0000000001
 43
0.0000000001
 40
0.0
 40
0.0
 40
0.0
 40
0.0
 40
1.0
 40
1.0
 40
1.0
 40
1.0
 10
20.132200000000001
 20
33.875700000000002
 30
0.0
 10
20.132200000000001
 20
33.875700000000002
 30
0.0
 10
20.132200000000001
 20
-17.5535
 30
0.0
 10
20.132200000000001
 20
-17.5535
 30
0.0
  0
SPLINE
  5
93
100
AcDbEntity
  8
Ebene 1
370
    40
 62
     0
100
AcDbSpline
210
0.0
220
0.0
230
1.0
 70
     0
 71
     3
 72
     8
 73
     4
 74
     0
 42
0.0000000001
 43
0.0000000001
 40
0.0
 40
0.0
 40
0.0
 40
0.0
 40
1.0
 40
1.0
 40
1.0
 40
1.0
 10
23.080000000000002
 20
36.823500000000003
 30
0.0
 10
23.080000000000002
 20
36.823500000000003
 30
0.0
 10
74.50930000000001
 20
36.823500000000003
 30
0.0
 10
74.50930000000001
 20
36.823500000000003
 30
0.0
  0
SPLINE
  5
94
100
AcDbEntity
  8
Ebene 1
370
    40
 62
     0
100
AcDbSpline
210
0.0
220
0.0
230
1.0
 70
     0
 71
     3
 72
     8
 73
     4
 74
     0
 42
0.0000000001
 43
0.0000000001
 40
0.0
 40
0.0
 40
0.0
 40
0.0
 40
1.0
 40
1.0
 40
1.0
 40
1.0
 10
-64.764300000000006
 20
5.9699
 30
0.0
 10
-64.764300000000006
 20
5.9699
 30
0.0
 10
-64.764300000000006
 20
7.149
 30
0.0
 10
-64.764300000000006
 20
7.149
 30
0.0
  0
SPLINE
  5
95
100
AcDbEntity
  8
Ebene 1
370
    40
 62
     0
100
AcDbSpline
210
0.0
220
0.0
230
1.0
 70
     0
 71
     3
 72
     8
 73
     4
 74
     0
 42
0.0000000001
 43
0.0000000001
 40
0.0
 40
0.0
 40
0.0
 40
0.0
 40
1.0
 40
1.0
 40
1.0
 40
1.0
 10
-65.157300000000006
 20
6.0289000000000001
 30
0.0
 10
-65.157300000000006
 20
6.0289000000000001
 30
0.0
 10
-65.157300000000006
 20
7.0704000000000002
 30
0.0
 10
-65.157300000000006
 20
7.0704000000000002
 30
0.0
  0
SPLINE
  5
96
100
AcDbEntity
  8
Ebene 1
370
    40
 62
     0
100
AcDbSpline
210
0.0
220
0.0
230
1.0
 70
     0
 71
     3
 72
     8
 73
     4
 74
     0
 42
0.0000000001
 43
0.0000000001
 40
0.0
 40
0.0
 40
0.0
 40
0.0
 40
1.0
 40
1.0
 40
1.0
 40
1.0
 10
-66.533000000000001
 20
6.2844000000000007
 30
0.0
 10
-66.533000000000001
 20
6.2844000000000007
 30
0.0
 10
-65.157300000000006
 20
6.2844000000000007
 30
0.0
 10
-65.157300000000006
 20
6.2844000000000007
 30
0.0
  0
SPLINE
  5
97
100
AcDbEntity
  8
Ebene 1
370
    40
 62
     0
100
AcDbSpline
210
0.0
220
0.0
230
1.0
 70
     0
 71
     3
 72
    12
 73
     8
 74
     0
 42
0.0000000001
 43
0.0000000001
 40
0.0
 40
0.0
 40
0.0
 40
0.0
 40
0.5
 40
0.5
 40
0.5
 40
0.5
 40
1.0
 40
1.0
 40
1.0
 40
1.0
 10
77.771500000000003
 20
26.1328
 30
0.0
 10
77.771500000000003
 20
26.1328
 30
0.0
 10
77.712500000000006
 20
26.408000000000001
 30
0.0
 10
77.712500000000006
 20
26.408000000000001
 30
0.0
 10
77.712500000000006
 20
26.408000000000001
 30
0.0
 10
77.712500000000006
 20
26.408000000000001
 30
0.0
 10
77.378500000000003
 20
26.5259
 30
0.0
 10
77.378500000000003
 20
26.5259
 30
0.0
  0
SPLINE
  5
98
100
AcDbEntity
  8
Ebene 1
370
    40
 62
     0
100
AcDbSpline
210
0.0
220
0.0
230
1.0
 70
     0
 71
     3
 72
     8
 73
     4
 74
     0
 42
0.0000000001
 43
0.0000000001
 40
0.0
 40
0.0
 40
0.0
 40
0.0
 40
1.0
 40
1.0
 40
1.0
 40
1.0
 10
19.7392
 20
21.101900000000001
 30
0.0
 10
19.7392
 20
21.101900000000001
 30
0.0
 10
19.7392
 20
26.1328
 30
0.0
 10
19.7392
 20
26.1328
 30
0.0
  0
SPLINE
  5
99
100
AcDbEntity
  8
Ebene 1
370
    40
 62
     0
100
AcDbSpline
210
0.0
220
0.0
230
1.0
 70
     0
 71
     3
 72
    12
 73
     8
 74
     0
 42
0.0000000001
 43
0.0000000001
 40
0.0
 40
0.0
 40
0.0
 40
0.0
 40
0.5
 40
0.5
 40
0.5
 40
0.5
 40
1.0
 40
1.0
 40
1.0
 40
1.0
 10
20.132200000000001
 20
-4.3867000000000003
 30
0.0
 10
20.132200000000001
 20
-4.3867000000000003
 30
0.0
 10
19.876799999999999
 20
-4.5242000000000004
 30
0.0
 10
19.876799999999999
 20
-4.5242000000000004
 30
0.0
 10
19.876799999999999
 20
-4.5242000000000004
 30
0.0
 10
19.876799999999999
 20
-4.5242000000000004
 30
0.0
 10
19.7392
 20
-4.7797000000000001
 30
0.0
 10
19.7392
 20
-4.7797000000000001
 30
0.0
  0
SPLINE
  5
9A
100
AcDbEntity
  8
Ebene 1
370
    40
 62
     0
100
AcDbSpline
210
0.0
220
0.0
230
1.0
 70
     0
 71
     3
 72
    12
 73
     8
 74
     0
 42
0.0000000001
 43
0.0000000001
 40
0.0
 40
0.0
 40
0.0
 40
0.0
 40
0.5
 40
0.5
 40
0.5
 40
0.5
 40
1.0
 40
1.0
 40
1.0
 40
1.0
 10
20.132200000000001
 20
26.5259
 30
0.0
 10
20.132200000000001
 20
26.5259
 30
0.0
 10
19.876799999999999
 20
26.408000000000001
 30
0.0
 10
19.876799999999999
 20
26.408000000000001
 30
0.0
 10
19.876799999999999
 20
26.408000000000001
 30
0.0
 10
19.876799999999999
 20
26.408000000000001
 30
0.0
 10
19.7392
 20
26.1328
 30
0.0
 10
19.7392
 20
26.1328
 30
0.0
  0
SPLINE
  5
9B
100
AcDbEntity
  8
Ebene 1
370
    40
 62
     0
100
AcDbSpline
210
0.0
220
0.0
230
1.0
 70
     0
 71
     3
 72
    12
 73
     8
 74
     0
 42
0.0000000001
 43
0.0000000001
 40
0.0
 40
0.0
 40
0.0
 40
0.0
 40
0.5
 40
0.5
 40
0.5
 40
0.5
 40
1.0
 40
1.0
 40
1.0
 40
1.0
 10
19.7392
 20
21.101900000000001
 30
0.0
 10
19.7392
 20
21.101900000000001
 30
0.0
 10
19.876799999999999
 20
20.826800000000002
 30
0.0
 10
19.876799999999999
 20
20.826800000000002
 30
0.0
 10
19.876799999999999
 20
20.826800000000002
 30
0.0
 10
19.876799999999999
 20
20.826800000000002
 30
0.0
 10
20.132200000000001
 20
20.7089
 30
0.0
 10
20.132200000000001
 20
20.7089
 30
0.0
  0
SPLINE
  5
9C
100
AcDbEntity
  8
Ebene 1
370
    40
 62
     0
100
AcDbSpline
210
0.0
220
0.0
230
1.0
 70
     0
 71
     3
 72
     8
 73
     4
 74
     0
 42
0.0000000001
 43
0.0000000001
 40
0.0
 40
0.0
 40
0.0
 40
0.0
 40
1.0
 40
1.0
 40
1.0
 40
1.0
 10
19.7392
 20
-4.7797000000000001
 30
0.0
 10
19.7392
 20
-4.7797000000000001
 30
0.0
 10
19.7392
 20
-9.8301999999999996
 30
0.0
 10
19.7392
 20
-9.8301999999999996
 30
0.0
  0
SPLINE
  5
9D
100
AcDbEntity
  8
Ebene 1
370
    40
 62
     0
100
AcDbSpline
210
0.0
220
0.0
230
1.0
 70
     0
 71
     3
 72
    12
 73
     8
 74
     0
 42
0.0000000001
 43
0.0000000001
 40
0.0
 40
0.0
 40
0.0
 40
0.0
 40
0.5
 40
0.5
 40
0.5
 40
0.5
 40
1.0
 40
1.0
 40
1.0
 40
1.0
 10
19.7392
 20
-9.8301999999999996
 30
0.0
 10
19.7392
 20
-9.8301999999999996
 30
0.0
 10
19.876799999999999
 20
-10.085700000000001
 30
0.0
 10
19.876799999999999
 20
-10.085700000000001
 30
0.0
 10
19.876799999999999
 20
-10.085700000000001
 30
0.0
 10
19.876799999999999
 20
-10.085700000000001
 30
0.0
 10
20.132200000000001
 20
-10.2233
 30
0.0
 10
20.132200000000001
 20
-10.2233
 30
0.0
  0
SPLINE
  5
9E
100
AcDbEntity
  8
Ebene 1
370
    40
 62
     0
100
AcDbSpline
210
0.0
220
0.0
230
1.0
 70
     0
 71
     3
 72
     8
 73
     4
 74
     0
 42
0.0000000001
 43
0.0000000001
 40
0.0
 40
0.0
 40
0.0
 40
0.0
 40
1.0
 40
1.0
 40
1.0
 40
1.0
 10
61.735500000000002
 20
37.137900000000002
 30
0.0
 10
61.735500000000002
 20
37.137900000000002
 30
0.0
 10
66.766400000000004
 20
37.137900000000002
 30
0.0
 10
66.766400000000004
 20
37.137900000000002
 30
0.0
  0
SPLINE
  5
9F
100
AcDbEntity
  8
Ebene 1
370
    40
 62
     0
100
AcDbSpline
210
0.0
220
0.0
230
1.0
 70
     0
 71
     3
 72
    12
 73
     8
 74
     0
 42
0.0000000001
 43
0.0000000001
 40
0.0
 40
0.0
 40
0.0
 40
0.0
 40
0.5
 40
0.5
 40
0.5
 40
0.5
 40
1.0
 40
1.0
 40
1.0
 40
1.0
 10
36.187899999999999
 20
36.823500000000003
 30
0.0
 10
36.187899999999999
 20
36.823500000000003
 30
0.0
 10
36.109300000000005
 20
37.079000000000001
 30
0.0
 10
36.109300000000005
 20
37.079000000000001
 30
0.0
 10
36.109300000000005
 20
37.079000000000001
 30
0.0
 10
36.109300000000005
 20
37.079000000000001
 30
0.0
 10
35.794899999999998
 20
37.137900000000002
 30
0.0
 10
35.794899999999998
 20
37.137900000000002
 30
0.0
  0
SPLINE
  5
A0
100
AcDbEntity
  8
Ebene 1
370
    40
 62
     0
100
AcDbSpline
210
0.0
220
0.0
230
1.0
 70
     0
 71
     3
 72
    12
 73
     8
 74
     0
 42
0.0000000001
 43
0.0000000001
 40
0.0
 40
0.0
 40
0.0
 40
0.0
 40
0.5
 40
0.5
 40
0.5
 40
0.5
 40
1.0
 40
1.0
 40
1.0
 40
1.0
 10
67.159400000000005
 20
36.823500000000003
 30
0.0
 10
67.159400000000005
 20
36.823500000000003
 30
0.0
 10
67.041499999999999
 20
37.079000000000001
 30
0.0
 10
67.041499999999999
 20
37.079000000000001
 30
0.0
 10
67.041499999999999
 20
37.079000000000001
 30
0.0
 10
67.041499999999999
 20
37.079000000000001
 30
0.0
 10
66.766400000000004
 20
37.137900000000002
 30
0.0
 10
66.766400000000004
 20
37.137900000000002
 30
0.0
  0
SPLINE
  5
A1
100
AcDbEntity
  8
Ebene 1
370
    40
 62
     0
100
AcDbSpline
210
0.0
220
0.0
230
1.0
 70
     0
 71
     3
 72
    12
 73
     8
 74
     0
 42
0.0000000001
 43
0.0000000001
 40
0.0
 40
0.0
 40
0.0
 40
0.0
 40
0.5
 40
0.5
 40
0.5
 40
0.5
 40
1.0
 40
1.0
 40
1.0
 40
1.0
 10
61.735500000000002
 20
37.137900000000002
 30
0.0
 10
61.735500000000002
 20
37.137900000000002
 30
0.0
 10
61.4604
 20
37.079000000000001
 30
0.0
 10
61.4604
 20
37.079000000000001
 30
0.0
 10
61.4604
 20
37.079000000000001
 30
0.0
 10
61.4604
 20
37.079000000000001
 30
0.0
 10
61.342400000000005
 20
36.823500000000003
 30
0.0
 10
61.342400000000005
 20
36.823500000000003
 30
0.0
  0
SPLINE
  5
A2
100
AcDbEntity
  8
Ebene 1
370
    40
 62
     0
100
AcDbSpline
210
0.0
220
0.0
230
1.0
 70
     0
 71
     3
 72
     8
 73
     4
 74
     0
 42
0.0000000001
 43
0.0000000001
 40
0.0
 40
0.0
 40
0.0
 40
0.0
 40
1.0
 40
1.0
 40
1.0
 40
1.0
 10
30.8033
 20
37.137900000000002
 30
0.0
 10
30.8033
 20
37.137900000000002
 30
0.0
 10
35.794899999999998
 20
37.137900000000002
 30
0.0
 10
35.794899999999998
 20
37.137900000000002
 30
0.0
  0
SPLINE
  5
A3
100
AcDbEntity
  8
Ebene 1
370
    40
 62
     0
100
AcDbSpline
210
0.0
220
0.0
230
1.0
 70
     0
 71
     3
 72
    12
 73
     8
 74
     0
 42
0.0000000001
 43
0.0000000001
 40
0.0
 40
0.0
 40
0.0
 40
0.0
 40
0.5
 40
0.5
 40
0.5
 40
0.5
 40
1.0
 40
1.0
 40
1.0
 40
1.0
 10
30.8033
 20
37.137900000000002
 30
0.0
 10
30.8033
 20
37.137900000000002
 30
0.0
 10
30.547800000000002
 20
37.079000000000001
 30
0.0
 10
30.547800000000002
 20
37.079000000000001
 30
0.0
 10
30.547800000000002
 20
37.079000000000001
 30
0.0
 10
30.547800000000002
 20
37.079000000000001
 30
0.0
 10
30.410200000000003
 20
36.823500000000003
 30
0.0
 10
30.410200000000003
 20
36.823500000000003
 30
0.0
  0
SPLINE
  5
A4
100
AcDbEntity
  8
Ebene 1
370
    40
 62
     0
100
AcDbSpline
210
0.0
220
0.0
230
1.0
 70
     0
 71
     3
 72
     8
 73
     4
 74
     0
 42
0.0000000001
 43
0.0000000001
 40
0.0
 40
0.0
 40
0.0
 40
0.0
 40
1.0
 40
1.0
 40
1.0
 40
1.0
 10
30.8033
 20
-20.8353
 30
0.0
 10
30.8033
 20
-20.8353
 30
0.0
 10
35.794899999999998
 20
-20.8353
 30
0.0
 10
35.794899999999998
 20
-20.8353
 30
0.0
  0
SPLINE
  5
A5
100
AcDbEntity
  8
Ebene 1
370
    40
 62
     0
100
AcDbSpline
210
0.0
220
0.0
230
1.0
 70
     0
 71
     3
 72
    12
 73
     8
 74
     0
 42
0.0000000001
 43
0.0000000001
 40
0.0
 40
0.0
 40
0.0
 40
0.0
 40
0.5
 40
0.5
 40
0.5
 40
0.5
 40
1.0
 40
1.0
 40
1.0
 40
1.0
 10
61.342400000000005
 20
-20.442299999999999
 30
0.0
 10
61.342400000000005
 20
-20.442299999999999
 30
0.0
 10
61.4604
 20
-20.756700000000002
 30
0.0
 10
61.4604
 20
-20.756700000000002
 30
0.0
 10
61.4604
 20
-20.756700000000002
 30
0.0
 10
61.4604
 20
-20.756700000000002
 30
0.0
 10
61.735500000000002
 20
-20.8353
 30
0.0
 10
61.735500000000002
 20
-20.8353
 30
0.0
  0
SPLINE
  5
A6
100
AcDbEntity
  8
Ebene 1
370
    40
 62
     0
100
AcDbSpline
210
0.0
220
0.0
230
1.0
 70
     0
 71
     3
 72
    12
 73
     8
 74
     0
 42
0.0000000001
 43
0.0000000001
 40
0.0
 40
0.0
 40
0.0
 40
0.0
 40
0.5
 40
0.5
 40
0.5
 40
0.5
 40
1.0
 40
1.0
 40
1.0
 40
1.0
 10
30.410200000000003
 20
-20.442299999999999
 30
0.0
 10
30.410200000000003
 20
-20.442299999999999
 30
0.0
 10
30.547800000000002
 20
-20.756700000000002
 30
0.0
 10
30.547800000000002
 20
-20.756700000000002
 30
0.0
 10
30.547800000000002
 20
-20.756700000000002
 30
0.0
 10
30.547800000000002
 20
-20.756700000000002
 30
0.0
 10
30.8033
 20
-20.8353
 30
0.0
 10
30.8033
 20
-20.8353
 30
0.0
  0
SPLINE
  5
A7
100
AcDbEntity
  8
Ebene 1
370
    40
 62
     0
100
AcDbSpline
210
0.0
220
0.0
230
1.0
 70
     0
 71
     3
 72
     8
 73
     4
 74
     0
 42
0.0000000001
 43
0.0000000001
 40
0.0
 40
0.0
 40
0.0
 40
0.0
 40
1.0
 40
1.0
 40
1.0
 40
1.0
 10
77.771500000000003
 20
-4.7797000000000001
 30
0.0
 10
77.771500000000003
 20
-4.7797000000000001
 30
0.0
 10
77.771500000000003
 20
-9.8301999999999996
 30
0.0
 10
77.771500000000003
 20
-9.8301999999999996
 30
0.0
  0
SPLINE
  5
A8
100
AcDbEntity
  8
Ebene 1
370
    40
 62
     0
100
AcDbSpline
210
0.0
220
0.0
230
1.0
 70
     0
 71
     3
 72
    12
 73
     8
 74
     0
 42
0.0000000001
 43
0.0000000001
 40
0.0
 40
0.0
 40
0.0
 40
0.0
 40
0.5
 40
0.5
 40
0.5
 40
0.5
 40
1.0
 40
1.0
 40
1.0
 40
1.0
 10
77.378500000000003
 20
20.7089
 30
0.0
 10
77.378500000000003
 20
20.7089
 30
0.0
 10
77.712500000000006
 20
20.826800000000002
 30
0.0
 10
77.712500000000006
 20
20.826800000000002
 30
0.0
 10
77.712500000000006
 20
20.826800000000002
 30
0.0
 10
77.712500000000006
 20
20.826800000000002
 30
0.0
 10
77.771500000000003
 20
21.101900000000001
 30
0.0
 10
77.771500000000003
 20
21.101900000000001
 30
0.0
  0
SPLINE
  5
A9
100
AcDbEntity
  8
Ebene 1
370
    40
 62
     0
100
AcDbSpline
210
0.0
220
0.0
230
1.0
 70
     0
 71
     3
 72
    12
 73
     8
 74
     0
 42
0.0000000001
 43
0.0000000001
 40
0.0
 40
0.0
 40
0.0
 40
0.0
 40
0.5
 40
0.5
 40
0.5
 40
0.5
 40
1.0
 40
1.0
 40
1.0
 40
1.0
 10
77.378500000000003
 20
-10.2233
 30
0.0
 10
77.378500000000003
 20
-10.2233
 30
0.0
 10
77.712500000000006
 20
-10.085700000000001
 30
0.0
 10
77.712500000000006
 20
-10.085700000000001
 30
0.0
 10
77.712500000000006
 20
-10.085700000000001
 30
0.0
 10
77.712500000000006
 20
-10.085700000000001
 30
0.0
 10
77.771500000000003
 20
-9.8301999999999996
 30
0.0
 10
77.771500000000003
 20
-9.8301999999999996
 30
0.0
  0
SPLINE
  5
AA
100
AcDbEntity
  8
Ebene 1
370
    40
 62
     0
100
AcDbSpline
210
0.0
220
0.0
230
1.0
 70
     0
 71
     3
 72
    12
 73
     8
 74
     0
 42
0.0000000001
 43
0.0000000001
 40
0.0
 40
0.0
 40
0.0
 40
0.0
 40
0.5
 40
0.5
 40
0.5
 40
0.5
 40
1.0
 40
1.0
 40
1.0
 40
1.0
 10
77.771500000000003
 20
-4.7797000000000001
 30
0.0
 10
77.771500000000003
 20
-4.7797000000000001
 30
0.0
 10
77.712500000000006
 20
-4.5242000000000004
 30
0.0
 10
77.712500000000006
 20
-4.5242000000000004
 30
0.0
 10
77.712500000000006
 20
-4.5242000000000004
 30
0.0
 10
77.712500000000006
 20
-4.5242000000000004
 30
0.0
 10
77.378500000000003
 20
-4.3867000000000003
 30
0.0
 10
77.378500000000003
 20
-4.3867000000000003
 30
0.0
  0
SPLINE
  5
AB
100
AcDbEntity
  8
Ebene 1
370
    40
 62
     0
100
AcDbSpline
210
0.0
220
0.0
230
1.0
 70
     0
 71
     3
 72
     8
 73
     4
 74
     0
 42
0.0000000001
 43
0.0000000001
 40
0.0
 40
0.0
 40
0.0
 40
0.0
 40
1.0
 40
1.0
 40
1.0
 40
1.0
 10
77.771500000000003
 20
21.101900000000001
 30
0.0
 10
77.771500000000003
 20
21.101900000000001
 30
0.0
 10
77.771500000000003
 20
26.1328
 30
0.0
 10
77.771500000000003
 20
26.1328
 30
0.0
  0
SPLINE
  5
AC
100
AcDbEntity
  8
Ebene 1
370
    40
 62
     0
100
AcDbSpline
210
0.0
220
0.0
230
1.0
 70
     0
 71
     3
 72
     8
 73
     4
 74
     0
 42
0.0000000001
 43
0.0000000001
 40
0.0
 40
0.0
 40
0.0
 40
0.0
 40
1.0
 40
1.0
 40
1.0
 40
1.0
 10
-10.721400000000001
 20
3.1400000000000001
 30
0.0
 10
-10.721400000000001
 20
3.1400000000000001
 30
0.0
 10
-10.721400000000001
 20
2.7470000000000003
 30
0.0
 10
-10.721400000000001
 20
2.7470000000000003
 30
0.0
  0
SPLINE
  5
AD
100
AcDbEntity
  8
Ebene 1
370
    40
 62
     0
100
AcDbSpline
210
0.0
220
0.0
230
1.0
 70
     0
 71
     3
 72
     8
 73
     4
 74
     0
 42
0.0000000001
 43
0.0000000001
 40
0.0
 40
0.0
 40
0.0
 40
0.0
 40
1.0
 40
1.0
 40
1.0
 40
1.0
 10
-10.721400000000001
 20
3.1400000000000001
 30
0.0
 10
-10.721400000000001
 20
3.1400000000000001
 30
0.0
 10
-10.524800000000001
 20
3.5331000000000001
 30
0.0
 10
-10.524800000000001
 20
3.5331000000000001
 30
0.0
  0
SPLINE
  5
AE
100
AcDbEntity
  8
Ebene 1
370
    40
 62
     0
100
AcDbSpline
210
0.0
220
0.0
230
1.0
 70
     0
 71
     3
 72
    16
 73
    12
 74
     0
 42
0.0000000001
 43
0.0000000001
 40
0.0
 40
0.0
 40
0.0
 40
0.0
 40
0.3333333333333333
 40
0.3333333333333333
 40
0.3333333333333333
 40
0.3333333333333333
 40
0.6666666666666666
 40
0.6666666666666666
 40
0.6666666666666666
 40
0.6666666666666666
 40
1.0
 40
1.0
 40
1.0
 40
1.0
 10
-10.524800000000001
 20
3.5331000000000001
 30
0.0
 10
-10.524800000000001
 20
3.5331000000000001
 30
0.0
 10
-10.524800000000001
 20
3.6707000000000001
 30
0.0
 10
-10.524800000000001
 20
3.6707000000000001
 30
0.0
 10
-10.524800000000001
 20
3.6707000000000001
 30
0.0
 10
-10.524800000000001
 20
3.6707000000000001
 30
0.0
 10
-10.5838
 20
3.8082000000000003
 30
0.0
 10
-10.5838
 20
3.8082000000000003
 30
0.0
 10
-10.5838
 20
3.8082000000000003
 30
0.0
 10
-10.5838
 20
3.8082000000000003
 30
0.0
 10
-10.721400000000001
 20
3.8082000000000003
 30
0.0
 10
-10.721400000000001
 20
3.8082000000000003
 30
0.0
  0
SPLINE
  5
AF
100
AcDbEntity
  8
Ebene 1
370
    40
 62
     0
100
AcDbSpline
210
0.0
220
0.0
230
1.0
 70
     0
 71
     3
 72
     8
 73
     4
 74
     0
 42
0.0000000001
 43
0.0000000001
 40
0.0
 40
0.0
 40
0.0
 40
0.0
 40
1.0
 40
1.0
 40
1.0
 40
1.0
 10
-10.721400000000001
 20
2.9435000000000002
 30
0.0
 10
-10.721400000000001
 20
2.9435000000000002
 30
0.0
 10
-10.721400000000001
 20
2.7470000000000003
 30
0.0
 10
-10.721400000000001
 20
2.7470000000000003
 30
0.0
  0
SPLINE
  5
B0
100
AcDbEntity
  8
Ebene 1
370
    40
 62
     0
100
AcDbSpline
210
0.0
220
0.0
230
1.0
 70
     0
 71
     3
 72
     8
 73
     4
 74
     0
 42
0.0000000001
 43
0.0000000001
 40
0.0
 40
0.0
 40
0.0
 40
0.0
 40
1.0
 40
1.0
 40
1.0
 40
1.0
 10
-10.976800000000001
 20
2.7470000000000003
 30
0.0
 10
-10.976800000000001
 20
2.7470000000000003
 30
0.0
 10
-10.721400000000001
 20
2.7470000000000003
 30
0.0
 10
-10.721400000000001
 20
2.7470000000000003
 30
0.0
  0
SPLINE
  5
B1
100
AcDbEntity
  8
Ebene 1
370
    40
 62
     0
100
AcDbSpline
210
0.0
220
0.0
230
1.0
 70
     0
 71
     3
 72
    16
 73
    12
 74
     0
 42
0.0000000001
 43
0.0000000001
 40
0.0
 40
0.0
 40
0.0
 40
0.0
 40
0.3333333333333333
 40
0.3333333333333333
 40
0.3333333333333333
 40
0.3333333333333333
 40
0.6666666666666666
 40
0.6666666666666666
 40
0.6666666666666666
 40
0.6666666666666666
 40
1.0
 40
1.0
 40
1.0
 40
1.0
 10
-27.877500000000001
 20
3.5331000000000001
 30
0.0
 10
-27.877500000000001
 20
3.5331000000000001
 30
0.0
 10
-27.877500000000001
 20
3.6707000000000001
 30
0.0
 10
-27.877500000000001
 20
3.6707000000000001
 30
0.0
 10
-27.877500000000001
 20
3.6707000000000001
 30
0.0
 10
-27.877500000000001
 20
3.6707000000000001
 30
0.0
 10
-27.956100000000003
 20
3.8082000000000003
 30
0.0
 10
-27.956100000000003
 20
3.8082000000000003
 30
0.0
 10
-27.956100000000003
 20
3.8082000000000003
 30
0.0
 10
-27.956100000000003
 20
3.8082000000000003
 30
0.0
 10
-28.074100000000001
 20
3.8082000000000003
 30
0.0
 10
-28.074100000000001
 20
3.8082000000000003
 30
0.0
  0
SPLINE
  5
B2
100
AcDbEntity
  8
Ebene 1
370
    40
 62
     0
100
AcDbSpline
210
0.0
220
0.0
230
1.0
 70
     0
 71
     3
 72
     8
 73
     4
 74
     0
 42
0.0000000001
 43
0.0000000001
 40
0.0
 40
0.0
 40
0.0
 40
0.0
 40
1.0
 40
1.0
 40
1.0
 40
1.0
 10
-47.667100000000005
 20
3.8082000000000003
 30
0.0
 10
-47.667100000000005
 20
3.8082000000000003
 30
0.0
 10
-28.074100000000001
 20
3.8082000000000003
 30
0.0
 10
-28.074100000000001
 20
3.8082000000000003
 30
0.0
  0
SPLINE
  5
B3
100
AcDbEntity
  8
Ebene 1
370
    40
 62
     0
100
AcDbSpline
210
0.0
220
0.0
230
1.0
 70
     0
 71
     3
 72
     8
 73
     4
 74
     0
 42
0.0000000001
 43
0.0000000001
 40
0.0
 40
0.0
 40
0.0
 40
0.0
 40
1.0
 40
1.0
 40
1.0
 40
1.0
 10
-47.667100000000005
 20
3.1400000000000001
 30
0.0
 10
-47.667100000000005
 20
3.1400000000000001
 30
0.0
 10
-28.074100000000001
 20
3.1400000000000001
 30
0.0
 10
-28.074100000000001
 20
3.1400000000000001
 30
0.0
  0
SPLINE
  5
B4
100
AcDbEntity
  8
Ebene 1
370
    40
 62
     0
100
AcDbSpline
210
0.0
220
0.0
230
1.0
 70
     0
 71
     3
 72
    12
 73
     8
 74
     0
 42
0.0000000001
 43
0.0000000001
 40
0.0
 40
0.0
 40
0.0
 40
0.0
 40
0.5
 40
0.5
 40
0.5
 40
0.5
 40
1.0
 40
1.0
 40
1.0
 40
1.0
 10
-11.1144
 20
3.7296
 30
0.0
 10
-11.1144
 20
3.7296
 30
0.0
 10
-11.055400000000001
 20
3.6117000000000004
 30
0.0
 10
-11.055400000000001
 20
3.6117000000000004
 30
0.0
 10
-11.055400000000001
 20
3.6117000000000004
 30
0.0
 10
-11.055400000000001
 20
3.6117000000000004
 30
0.0
 10
-10.976800000000001
 20
3.5331000000000001
 30
0.0
 10
-10.976800000000001
 20
3.5331000000000001
 30
0.0
  0
SPLINE
  5
B5
100
AcDbEntity
  8
Ebene 1
370
    40
 62
     0
100
AcDbSpline
210
0.0
220
0.0
230
1.0
 70
     0
 71
     3
 72
     8
 73
     4
 74
     0
 42
0.0000000001
 43
0.0000000001
 40
0.0
 40
0.0
 40
0.0
 40
0.0
 40
1.0
 40
1.0
 40
1.0
 40
1.0
 10
-11.1144
 20
3.2187000000000001
 30
0.0
 10
-11.1144
 20
3.2187000000000001
 30
0.0
 10
-10.976800000000001
 20
3.5331000000000001
 30
0.0
 10
-10.976800000000001
 20
3.5331000000000001
 30
0.0
  0
SPLINE
  5
B6
100
AcDbEntity
  8
Ebene 1
370
    40
 62
     0
100
AcDbSpline
210
0.0
220
0.0
230
1.0
 70
     0
 71
     3
 72
     8
 73
     4
 74
     0
 42
0.0000000001
 43
0.0000000001
 40
0.0
 40
0.0
 40
0.0
 40
0.0
 40
1.0
 40
1.0
 40
1.0
 40
1.0
 10
-47.863600000000005
 20
3.5331000000000001
 30
0.0
 10
-47.863600000000005
 20
3.5331000000000001
 30
0.0
 10
-47.667100000000005
 20
3.1400000000000001
 30
0.0
 10
-47.667100000000005
 20
3.1400000000000001
 30
0.0
  0
SPLINE
  5
B7
100
AcDbEntity
  8
Ebene 1
370
    40
 62
     0
100
AcDbSpline
210
0.0
220
0.0
230
1.0
 70
     0
 71
     3
 72
    16
 73
    12
 74
     0
 42
0.0000000001
 43
0.0000000001
 40
0.0
 40
0.0
 40
0.0
 40
0.0
 40
0.3333333333333333
 40
0.3333333333333333
 40
0.3333333333333333
 40
0.3333333333333333
 40
0.6666666666666666
 40
0.6666666666666666
 40
0.6666666666666666
 40
0.6666666666666666
 40
1.0
 40
1.0
 40
1.0
 40
1.0
 10
-47.667100000000005
 20
3.8082000000000003
 30
0.0
 10
-47.667100000000005
 20
3.8082000000000003
 30
0.0
 10
-47.863600000000005
 20
3.7296
 30
0.0
 10
-47.863600000000005
 20
3.7296
 30
0.0
 10
-47.863600000000005
 20
3.7296
 30
0.0
 10
-47.863600000000005
 20
3.7296
 30
0.0
 10
-47.863600000000005
 20
3.6117000000000004
 30
0.0
 10
-47.863600000000005
 20
3.6117000000000004
 30
0.0
 10
-47.863600000000005
 20
3.6117000000000004
 30
0.0
 10
-47.863600000000005
 20
3.6117000000000004
 30
0.0
 10
-47.863600000000005
 20
3.5331000000000001
 30
0.0
 10
-47.863600000000005
 20
3.5331000000000001
 30
0.0
  0
SPLINE
  5
B8
100
AcDbEntity
  8
Ebene 1
370
    40
 62
     0
100
AcDbSpline
210
0.0
220
0.0
230
1.0
 70
     0
 71
     3
 72
     8
 73
     4
 74
     0
 42
0.0000000001
 43
0.0000000001
 40
0.0
 40
0.0
 40
0.0
 40
0.0
 40
1.0
 40
1.0
 40
1.0
 40
1.0
 10
-28.074100000000001
 20
3.1400000000000001
 30
0.0
 10
-28.074100000000001
 20
3.1400000000000001
 30
0.0
 10
-27.877500000000001
 20
3.5331000000000001
 30
0.0
 10
-27.877500000000001
 20
3.5331000000000001
 30
0.0
  0
SPLINE
  5
B9
100
AcDbEntity
  8
Ebene 1
370
    40
 62
     0
100
AcDbSpline
210
0.0
220
0.0
230
1.0
 70
     0
 71
     3
 72
     8
 73
     4
 74
     0
 42
0.0000000001
 43
0.0000000001
 40
0.0
 40
0.0
 40
0.0
 40
0.0
 40
1.0
 40
1.0
 40
1.0
 40
1.0
 10
-64.764300000000006
 20
3.5331000000000001
 30
0.0
 10
-64.764300000000006
 20
3.5331000000000001
 30
0.0
 10
-64.6267
 20
3.2187000000000001
 30
0.0
 10
-64.6267
 20
3.2187000000000001
 30
0.0
  0
SPLINE
  5
BA
100
AcDbEntity
  8
Ebene 1
370
    40
 62
     0
100
AcDbSpline
210
0.0
220
0.0
230
1.0
 70
     0
 71
     3
 72
     8
 73
     4
 74
     0
 42
0.0000000001
 43
0.0000000001
 40
0.0
 40
0.0
 40
0.0
 40
0.0
 40
1.0
 40
1.0
 40
1.0
 40
1.0
 10
-65.019800000000004
 20
2.7470000000000003
 30
0.0
 10
-65.019800000000004
 20
2.7470000000000003
 30
0.0
 10
-65.019800000000004
 20
3.1400000000000001
 30
0.0
 10
-65.019800000000004
 20
3.1400000000000001
 30
0.0
  0
SPLINE
  5
BB
100
AcDbEntity
  8
Ebene 1
370
    40
 62
     0
100
AcDbSpline
210
0.0
220
0.0
230
1.0
 70
     0
 71
     3
 72
     8
 73
     4
 74
     0
 42
0.0000000001
 43
0.0000000001
 40
0.0
 40
0.0
 40
0.0
 40
0.0
 40
1.0
 40
1.0
 40
1.0
 40
1.0
 10
-65.216300000000004
 20
3.5331000000000001
 30
0.0
 10
-65.216300000000004
 20
3.5331000000000001
 30
0.0
 10
-65.019800000000004
 20
3.1400000000000001
 30
0.0
 10
-65.019800000000004
 20
3.1400000000000001
 30
0.0
  0
SPLINE
  5
BC
100
AcDbEntity
  8
Ebene 1
370
    40
 62
     0
100
AcDbSpline
210
0.0
220
0.0
230
1.0
 70
     0
 71
     3
 72
    16
 73
    12
 74
     0
 42
0.0000000001
 43
0.0000000001
 40
0.0
 40
0.0
 40
0.0
 40
0.0
 40
0.3333333333333333
 40
0.3333333333333333
 40
0.3333333333333333
 40
0.3333333333333333
 40
0.6666666666666666
 40
0.6666666666666666
 40
0.6666666666666666
 40
0.6666666666666666
 40
1.0
 40
1.0
 40
1.0
 40
1.0
 10
-65.019800000000004
 20
3.8082000000000003
 30
0.0
 10
-65.019800000000004
 20
3.8082000000000003
 30
0.0
 10
-65.157300000000006
 20
3.7296
 30
0.0
 10
-65.157300000000006
 20
3.7296
 30
0.0
 10
-65.157300000000006
 20
3.7296
 30
0.0
 10
-65.157300000000006
 20
3.7296
 30
0.0
 10
-65.216300000000004
 20
3.6117000000000004
 30
0.0
 10
-65.216300000000004
 20
3.6117000000000004
 30
0.0
 10
-65.216300000000004
 20
3.6117000000000004
 30
0.0
 10
-65.216300000000004
 20
3.6117000000000004
 30
0.0
 10
-65.216300000000004
 20
3.5331000000000001
 30
0.0
 10
-65.216300000000004
 20
3.5331000000000001
 30
0.0
  0
SPLINE
  5
BD
100
AcDbEntity
  8
Ebene 1
370
    40
 62
     0
100
AcDbSpline
210
0.0
220
0.0
230
1.0
 70
     0
 71
     3
 72
     8
 73
     4
 74
     0
 42
0.0000000001
 43
0.0000000001
 40
0.0
 40
0.0
 40
0.0
 40
0.0
 40
1.0
 40
1.0
 40
1.0
 40
1.0
 10
-65.019800000000004
 20
2.7470000000000003
 30
0.0
 10
-65.019800000000004
 20
2.7470000000000003
 30
0.0
 10
-65.019800000000004
 20
2.9435000000000002
 30
0.0
 10
-65.019800000000004
 20
2.9435000000000002
 30
0.0
  0
SPLINE
  5
BE
100
AcDbEntity
  8
Ebene 1
370
    40
 62
     0
100
AcDbSpline
210
0.0
220
0.0
230
1.0
 70
     0
 71
     3
 72
     8
 73
     4
 74
     0
 42
0.0000000001
 43
0.0000000001
 40
0.0
 40
0.0
 40
0.0
 40
0.0
 40
1.0
 40
1.0
 40
1.0
 40
1.0
 10
-65.019800000000004
 20
2.7470000000000003
 30
0.0
 10
-65.019800000000004
 20
2.7470000000000003
 30
0.0
 10
-64.764300000000006
 20
2.7470000000000003
 30
0.0
 10
-64.764300000000006
 20
2.7470000000000003
 30
0.0
  0
SPLINE
  5
BF
100
AcDbEntity
  8
Ebene 1
370
    40
 62
     0
100
AcDbSpline
210
0.0
220
0.0
230
1.0
 70
     0
 71
     3
 72
     8
 73
     4
 74
     0
 42
0.0000000001
 43
0.0000000001
 40
0.0
 40
0.0
 40
0.0
 40
0.0
 40
1.0
 40
1.0
 40
1.0
 40
1.0
 10
-65.019800000000004
 20
3.1400000000000001
 30
0.0
 10
-65.019800000000004
 20
3.1400000000000001
 30
0.0
 10
-65.019800000000004
 20
2.7470000000000003
 30
0.0
 10
-65.019800000000004
 20
2.7470000000000003
 30
0.0
  0
SPLINE
  5
C0
100
AcDbEntity
  8
Ebene 1
370
    40
 62
     0
100
AcDbSpline
210
0.0
220
0.0
230
1.0
 70
     0
 71
     3
 72
     8
 73
     4
 74
     0
 42
0.0000000001
 43
0.0000000001
 40
0.0
 40
0.0
 40
0.0
 40
0.0
 40
1.0
 40
1.0
 40
1.0
 40
1.0
 10
-64.6267
 20
3.2187000000000001
 30
0.0
 10
-64.6267
 20
3.2187000000000001
 30
0.0
 10
-64.6267
 20
2.7470000000000003
 30
0.0
 10
-64.6267
 20
2.7470000000000003
 30
0.0
  0
SPLINE
  5
C1
100
AcDbEntity
  8
Ebene 1
370
    40
 62
     0
100
AcDbSpline
210
0.0
220
0.0
230
1.0
 70
     0
 71
     3
 72
     8
 73
     4
 74
     0
 42
0.0000000001
 43
0.0000000001
 40
0.0
 40
0.0
 40
0.0
 40
0.0
 40
1.0
 40
1.0
 40
1.0
 40
1.0
 10
-65.019800000000004
 20
2.7470000000000003
 30
0.0
 10
-65.019800000000004
 20
2.7470000000000003
 30
0.0
 10
-64.6267
 20
2.7470000000000003
 30
0.0
 10
-64.6267
 20
2.7470000000000003
 30
0.0
  0
SPLINE
  5
C2
100
AcDbEntity
  8
Ebene 1
370
    40
 62
     0
100
AcDbSpline
210
0.0
220
0.0
230
1.0
 70
     0
 71
     3
 72
     8
 73
     4
 74
     0
 42
0.0000000001
 43
0.0000000001
 40
0.0
 40
0.0
 40
0.0
 40
0.0
 40
1.0
 40
1.0
 40
1.0
 40
1.0
 10
-11.1144
 20
5.8324000000000007
 30
0.0
 10
-11.1144
 20
5.8324000000000007
 30
0.0
 10
-11.1144
 20
3.7296
 30
0.0
 10
-11.1144
 20
3.7296
 30
0.0
  0
SPLINE
  5
C3
100
AcDbEntity
  8
Ebene 1
370
    40
 62
     0
100
AcDbSpline
210
0.0
220
0.0
230
1.0
 70
     0
 71
     3
 72
     8
 73
     4
 74
     0
 42
0.0000000001
 43
0.0000000001
 40
0.0
 40
0.0
 40
0.0
 40
0.0
 40
1.0
 40
1.0
 40
1.0
 40
1.0
 10
-10.721400000000001
 20
5.6947999999999999
 30
0.0
 10
-10.721400000000001
 20
5.6947999999999999
 30
0.0
 10
-10.721400000000001
 20
3.8082000000000003
 30
0.0
 10
-10.721400000000001
 20
3.8082000000000003
 30
0.0
  0
SPLINE
  5
C4
100
AcDbEntity
  8
Ebene 1
370
    40
 62
     0
100
AcDbSpline
210
0.0
220
0.0
230
1.0
 70
     0
 71
     3
 72
     8
 73
     4
 74
     0
 42
0.0000000001
 43
0.0000000001
 40
0.0
 40
0.0
 40
0.0
 40
0.0
 40
1.0
 40
1.0
 40
1.0
 40
1.0
 10
-12.2346
 20
3.7296
 30
0.0
 10
-12.2346
 20
3.7296
 30
0.0
 10
-11.1144
 20
3.7296
 30
0.0
 10
-11.1144
 20
3.7296
 30
0.0
  0
SPLINE
  5
C5
100
AcDbEntity
  8
Ebene 1
370
    40
 62
     0
100
AcDbSpline
210
0.0
220
0.0
230
1.0
 70
     0
 71
     3
 72
    20
 73
    16
 74
     0
 42
0.0000000001
 43
0.0000000001
 40
0.0
 40
0.0
 40
0.0
 40
0.0
 40
0.25
 40
0.25
 40
0.25
 40
0.25
 40
0.5
 40
0.5
 40
0.5
 40
0.5
 40
0.75
 40
0.75
 40
0.75
 40
0.75
 40
1.0
 40
1.0
 40
1.0
 40
1.0
 10
-12.2346
 20
3.7296
 30
0.0
 10
-12.2346
 20
3.7296
 30
0.0
 10
-12.352500000000001
 20
3.6707000000000001
 30
0.0
 10
-12.352500000000001
 20
3.6707000000000001
 30
0.0
 10
-12.352500000000001
 20
3.6707000000000001
 30
0.0
 10
-12.352500000000001
 20
3.6707000000000001
 30
0.0
 10
-12.431100000000001
 20
3.4741
 30
0.0
 10
-12.431100000000001
 20
3.4741
 30
0.0
 10
-12.431100000000001
 20
3.4741
 30
0.0
 10
-12.431100000000001
 20
3.4741
 30
0.0
 10
-12.352500000000001
 20
3.2776000000000001
 30
0.0
 10
-12.352500000000001
 20
3.2776000000000001
 30
0.0
 10
-12.352500000000001
 20
3.2776000000000001
 30
0.0
 10
-12.352500000000001
 20
3.2776000000000001
 30
0.0
 10
-12.2346
 20
3.2187000000000001
 30
0.0
 10
-12.2346
 20
3.2187000000000001
 30
0.0
  0
SPLINE
  5
C6
100
AcDbEntity
  8
Ebene 1
370
    40
 62
     0
100
AcDbSpline
210
0.0
220
0.0
230
1.0
 70
     0
 71
     3
 72
     8
 73
     4
 74
     0
 42
0.0000000001
 43
0.0000000001
 40
0.0
 40
0.0
 40
0.0
 40
0.0
 40
1.0
 40
1.0
 40
1.0
 40
1.0
 10
-12.2346
 20
3.2187000000000001
 30
0.0
 10
-12.2346
 20
3.2187000000000001
 30
0.0
 10
-11.1144
 20
3.2187000000000001
 30
0.0
 10
-11.1144
 20
3.2187000000000001
 30
0.0
  0
SPLINE
  5
C7
100
AcDbEntity
  8
Ebene 1
370
    20
 62
     0
100
AcDbSpline
210
0.0
220
0.0
230
1.0
 70
     0
 71
     3
 72
    44
 73
    40
 74
     0
 42
0.0000000001
 43
0.0000000001
 40
0.0
 40
0.0
 40
0.0
 40
0.0
 40
0.1
 40
0.1
 40
0.1
 40
0.1
 40
0.2
 40
0.2
 40
0.2
 40
0.2
 40
0.3
 40
0.3
 40
0.3
 40
0.3
 40
0.4
 40
0.4
 40
0.4
 40
0.4
 40
0.5
 40
0.5
 40
0.5
 40
0.5
 40
0.6
 40
0.6
 40
0.6
 40
0.6
 40
0.7
 40
0.7
 40
0.7
 40
0.7
 40
0.7999999999999999
 40
0.7999999999999999
 40
0.7999999999999999
 40
0.7999999999999999
 40
0.8999999999999999
 40
0.8999999999999999
 40
0.8999999999999999
 40
0.8999999999999999
 40
1.0
 40
1.0
 40
1.0
 40
1.0
 10
24.7898
 20
-14.6646
 30
0.0
 10
24.7898
 20
-14.6646
 30
0.0
 10
24.907700000000002
 20
-15.254200000000001
 30
0.0
 10
24.907700000000002
 20
-15.254200000000001
 30
0.0
 10
24.907700000000002
 20
-15.254200000000001
 30
0.0
 10
24.907700000000002
 20
-15.254200000000001
 30
0.0
 10
25.379300000000001
 20
-15.647200000000002
 30
0.0
 10
25.379300000000001
 20
-15.647200000000002
 30
0.0
 10
25.379300000000001
 20
-15.647200000000002
 30
0.0
 10
25.379300000000001
 20
-15.647200000000002
 30
0.0
 10
25.968900000000001
 20
-15.8437
 30
0.0
 10
25.968900000000001
 20
-15.8437
 30
0.0
 10
25.968900000000001
 20
-15.8437
 30
0.0
 10
25.968900000000001
 20
-15.8437
 30
0.0
 10
26.479800000000001
 20
-15.647200000000002
 30
0.0
 10
26.479800000000001
 20
-15.647200000000002
 30
0.0
 10
26.479800000000001
 20
-15.647200000000002
 30
0.0
 10
26.479800000000001
 20
-15.647200000000002
 30
0.0
 10
26.951500000000003
 20
-15.254200000000001
 30
0.0
 10
26.951500000000003
 20
-15.254200000000001
 30
0.0
 10
26.951500000000003
 20
-15.254200000000001
 30
0.0
 10
26.951500000000003
 20
-15.254200000000001
 30
0.0
 10
27.148
 20
-14.7432
 30
0.0
 10
27.148
 20
-14.7432
 30
0.0
 10
27.148
 20
-14.7432
 30
0.0
 10
27.148
 20
-14.7432
 30
0.0
 10
27.010400000000001
 20
-14.153700000000001
 30
0.0
 10
27.010400000000001
 20
-14.153700000000001
 30
0.0
 10
27.010400000000001
 20
-14.153700000000001
 30
0.0
 10
27.010400000000001
 20
-14.153700000000001
 30
0.0
 10
26.558400000000002
 20
-13.682
 30
0.0
 10
26.558400000000002
 20
-13.682
 30
0.0
 10
26.558400000000002
 20
-13.682
 30
0.0
 10
26.558400000000002
 20
-13.682
 30
0.0
 10
26.027800000000003
 20
-13.4855
 30
0.0
 10
26.027800000000003
 20
-13.4855
 30
0.0
 10
26.027800000000003
 20
-13.4855
 30
0.0
 10
26.027800000000003
 20
-13.4855
 30
0.0
 10
25.968900000000001
 20
-13.4855
 30
0.0
 10
25.968900000000001
 20
-13.4855
 30
0.0
  0
SPLINE
  5
C8
100
AcDbEntity
  8
Ebene 1
370
    40
 62
     0
100
AcDbSpline
210
0.0
220
0.0
230
1.0
 70
     0
 71
     3
 72
    52
 73
    48
 74
     0
 42
0.0000000001
 43
0.0000000001
 40
0.0
 40
0.0
 40
0.0
 40
0.0
 40
0.0833333333333333
 40
0.0833333333333333
 40
0.0833333333333333
 40
0.0833333333333333
 40
0.1666666666666667
 40
0.1666666666666667
 40
0.1666666666666667
 40
0.1666666666666667
 40
0.25
 40
0.25
 40
0.25
 40
0.25
 40
0.3333333333333333
 40
0.3333333333333333
 40
0.3333333333333333
 40
0.3333333333333333
 40
0.4166666666666666
 40
0.4166666666666666
 40
0.4166666666666666
 40
0.4166666666666666
 40
0.4999999999999999
 40
0.4999999999999999
 40
0.4999999999999999
 40
0.4999999999999999
 40
0.5833333333333333
 40
0.5833333333333333
 40
0.5833333333333333
 40
0.5833333333333333
 40
0.6666666666666666
 40
0.6666666666666666
 40
0.6666666666666666
 40
0.6666666666666666
 40
0.75
 40
0.75
 40
0.75
 40
0.75
 40
0.8333333333333334
 40
0.8333333333333334
 40
0.8333333333333334
 40
0.8333333333333334
 40
0.9166666666666667
 40
0.9166666666666667
 40
0.9166666666666667
 40
0.9166666666666667
 40
1.0
 40
1.0
 40
1.0
 40
1.0
 10
26.951500000000003
 20
-14.6646
 30
0.0
 10
26.951500000000003
 20
-14.6646
 30
0.0
 10
26.8139
 20
-14.153700000000001
 30
0.0
 10
26.8139
 20
-14.153700000000001
 30
0.0
 10
26.8139
 20
-14.153700000000001
 30
0.0
 10
26.8139
 20
-14.153700000000001
 30
0.0
 10
26.361900000000002
 20
-13.7606
 30
0.0
 10
26.361900000000002
 20
-13.7606
 30
0.0
 10
26.361900000000002
 20
-13.7606
 30
0.0
 10
26.361900000000002
 20
-13.7606
 30
0.0
 10
25.831300000000002
 20
-13.682
 30
0.0
 10
25.831300000000002
 20
-13.682
 30
0.0
 10
25.831300000000002
 20
-13.682
 30
0.0
 10
25.831300000000002
 20
-13.682
 30
0.0
 10
25.300700000000003
 20
-13.8786
 30
0.0
 10
25.300700000000003
 20
-13.8786
 30
0.0
 10
25.300700000000003
 20
-13.8786
 30
0.0
 10
25.300700000000003
 20
-13.8786
 30
0.0
 10
25.045200000000001
 20
-14.350200000000001
 30
0.0
 10
25.045200000000001
 20
-14.350200000000001
 30
0.0
 10
25.045200000000001
 20
-14.350200000000001
 30
0.0
 10
25.045200000000001
 20
-14.350200000000001
 30
0.0
 10
24.9863
 20
-14.8611
 30
0.0
 10
24.9863
 20
-14.8611
 30
0.0
 10
24.9863
 20
-14.8611
 30
0.0
 10
24.9863
 20
-14.8611
 30
0.0
 10
25.241800000000001
 20
-15.3918
 30
0.0
 10
25.241800000000001
 20
-15.3918
 30
0.0
 10
25.241800000000001
 20
-15.3918
 30
0.0
 10
25.241800000000001
 20
-15.3918
 30
0.0
 10
25.772400000000001
 20
-15.647200000000002
 30
0.0
 10
25.772400000000001
 20
-15.647200000000002
 30
0.0
 10
25.772400000000001
 20
-15.647200000000002
 30
0.0
 10
25.772400000000001
 20
-15.647200000000002
 30
0.0
 10
26.283300000000001
 20
-15.5883
 30
0.0
 10
26.283300000000001
 20
-15.5883
 30
0.0
 10
26.283300000000001
 20
-15.5883
 30
0.0
 10
26.283300000000001
 20
-15.5883
 30
0.0
 10
26.755000000000003
 20
-15.254200000000001
 30
0.0
 10
26.755000000000003
 20
-15.254200000000001
 30
0.0
 10
26.755000000000003
 20
-15.254200000000001
 30
0.0
 10
26.755000000000003
 20
-15.254200000000001
 30
0.0
 10
26.951500000000003
 20
-14.7432
 30
0.0
 10
26.951500000000003
 20
-14.7432
 30
0.0
 10
26.951500000000003
 20
-14.7432
 30
0.0
 10
26.951500000000003
 20
-14.7432
 30
0.0
 10
26.951500000000003
 20
-14.6646
 30
0.0
 10
26.951500000000003
 20
-14.6646
 30
0.0
  0
SPLINE
  5
C9
100
AcDbEntity
  8
Ebene 1
370
    20
 62
     0
100
AcDbSpline
210
0.0
220
0.0
230
1.0
 70
     0
 71
     3
 72
     8
 73
     4
 74
     0
 42
0.0000000001
 43
0.0000000001
 40
0.0
 40
0.0
 40
0.0
 40
0.0
 40
1.0
 40
1.0
 40
1.0
 40
1.0
 10
-65.35390000000001
 20
7.4635000000000007
 30
0.0
 10
-65.35390000000001
 20
7.4635000000000007
 30
0.0
 10
-65.098399999999998
 20
7.7976000000000001
 30
0.0
 10
-65.098399999999998
 20
7.7976000000000001
 30
0.0
  0
SPLINE
  5
CA
100
AcDbEntity
  8
Ebene 1
370
    20
 62
     0
100
AcDbSpline
210
0.0
220
0.0
230
1.0
 70
     0
 71
     3
 72
     8
 73
     4
 74
     0
 42
0.0000000001
 43
0.0000000001
 40
0.0
 40
0.0
 40
0.0
 40
0.0
 40
1.0
 40
1.0
 40
1.0
 40
1.0
 10
-66.533000000000001
 20
6.3630000000000004
 30
0.0
 10
-66.533000000000001
 20
6.3630000000000004
 30
0.0
 10
-66.139899999999997
 20
6.7560000000000002
 30
0.0
 10
-66.139899999999997
 20
6.7560000000000002
 30
0.0
  0
SPLINE
  5
CB
100
AcDbEntity
  8
Ebene 1
370
    20
 62
     0
100
AcDbSpline
210
0.0
220
0.0
230
1.0
 70
     0
 71
     3
 72
     8
 73
     4
 74
     0
 42
0.0000000001
 43
0.0000000001
 40
0.0
 40
0.0
 40
0.0
 40
0.0
 40
1.0
 40
1.0
 40
1.0
 40
1.0
 10
-65.157300000000006
 20
6.0878000000000005
 30
0.0
 10
-65.157300000000006
 20
6.0878000000000005
 30
0.0
 10
-64.764300000000006
 20
6.4809000000000001
 30
0.0
 10
-64.764300000000006
 20
6.4809000000000001
 30
0.0
  0
SPLINE
  5
CC
100
AcDbEntity
  8
Ebene 1
370
    20
 62
     0
100
AcDbSpline
210
0.0
220
0.0
230
1.0
 70
     0
 71
     3
 72
     8
 73
     4
 74
     0
 42
0.0000000001
 43
0.0000000001
 40
0.0
 40
0.0
 40
0.0
 40
0.0
 40
1.0
 40
1.0
 40
1.0
 40
1.0
 10
-65.019800000000004
 20
4.5156999999999998
 30
0.0
 10
-65.019800000000004
 20
4.5156999999999998
 30
0.0
 10
-64.6267
 20
4.9087000000000005
 30
0.0
 10
-64.6267
 20
4.9087000000000005
 30
0.0
  0
SPLINE
  5
CD
100
AcDbEntity
  8
Ebene 1
370
    20
 62
     0
100
AcDbSpline
210
0.0
220
0.0
230
1.0
 70
     0
 71
     3
 72
     8
 73
     4
 74
     0
 42
0.0000000001
 43
0.0000000001
 40
0.0
 40
0.0
 40
0.0
 40
0.0
 40
1.0
 40
1.0
 40
1.0
 40
1.0
 10
-65.019800000000004
 20
2.8846000000000003
 30
0.0
 10
-65.019800000000004
 20
2.8846000000000003
 30
0.0
 10
-64.705300000000008
 20
3.2776000000000001
 30
0.0
 10
-64.705300000000008
 20
3.2776000000000001
 30
0.0
  0
SPLINE
  5
CE
100
AcDbEntity
  8
Ebene 1
370
    20
 62
     0
100
AcDbSpline
210
0.0
220
0.0
230
1.0
 70
     0
 71
     3
 72
     8
 73
     4
 74
     0
 42
0.0000000001
 43
0.0000000001
 40
0.0
 40
0.0
 40
0.0
 40
0.0
 40
1.0
 40
1.0
 40
1.0
 40
1.0
 10
-9.7388000000000012
 20
7.3456000000000001
 30
0.0
 10
-9.7388000000000012
 20
7.3456000000000001
 30
0.0
 10
-9.4047000000000001
 20
7.601
 30
0.0
 10
-9.4047000000000001
 20
7.601
 30
0.0
  0
SPLINE
  5
CF
100
AcDbEntity
  8
Ebene 1
370
    20
 62
     0
100
AcDbSpline
210
0.0
220
0.0
230
1.0
 70
     0
 71
     3
 72
     8
 73
     4
 74
     0
 42
0.0000000001
 43
0.0000000001
 40
0.0
 40
0.0
 40
0.0
 40
0.0
 40
1.0
 40
1.0
 40
1.0
 40
1.0
 10
-10.976800000000001
 20
6.0878000000000005
 30
0.0
 10
-10.976800000000001
 20
6.0878000000000005
 30
0.0
 10
-10.5838
 20
6.4809000000000001
 30
0.0
 10
-10.5838
 20
6.4809000000000001
 30
0.0
  0
SPLINE
  5
D0
100
AcDbEntity
  8
Ebene 1
370
    20
 62
     0
100
AcDbSpline
210
0.0
220
0.0
230
1.0
 70
     0
 71
     3
 72
     8
 73
     4
 74
     0
 42
0.0000000001
 43
0.0000000001
 40
0.0
 40
0.0
 40
0.0
 40
0.0
 40
1.0
 40
1.0
 40
1.0
 40
1.0
 10
-11.1144
 20
4.3192000000000004
 30
0.0
 10
-11.1144
 20
4.3192000000000004
 30
0.0
 10
-10.721400000000001
 20
4.7122000000000002
 30
0.0
 10
-10.721400000000001
 20
4.7122000000000002
 30
0.0
  0
SPLINE
  5
D1
100
AcDbEntity
  8
Ebene 1
370
    20
 62
     0
100
AcDbSpline
210
0.0
220
0.0
230
1.0
 70
     0
 71
     3
 72
     8
 73
     4
 74
     0
 42
0.0000000001
 43
0.0000000001
 40
0.0
 40
0.0
 40
0.0
 40
0.0
 40
1.0
 40
1.0
 40
1.0
 40
1.0
 10
-11.055400000000001
 20
2.7470000000000003
 30
0.0
 10
-11.055400000000001
 20
2.7470000000000003
 30
0.0
 10
-10.721400000000001
 20
3.0811000000000002
 30
0.0
 10
-10.721400000000001
 20
3.0811000000000002
 30
0.0
  0
SPLINE
  5
D2
100
AcDbEntity
  8
Ebene 1
370
    40
 62
     0
100
AcDbSpline
210
0.0
220
0.0
230
1.0
 70
     0
 71
     3
 72
     8
 73
     4
 74
     0
 42
0.0000000001
 43
0.0000000001
 40
0.0
 40
0.0
 40
0.0
 40
0.0
 40
1.0
 40
1.0
 40
1.0
 40
1.0
 10
-64.6267
 20
3.7296
 30
0.0
 10
-64.6267
 20
3.7296
 30
0.0
 10
-63.526200000000003
 20
3.7296
 30
0.0
 10
-63.526200000000003
 20
3.7296
 30
0.0
  0
SPLINE
  5
D3
100
AcDbEntity
  8
Ebene 1
370
    40
 62
     0
100
AcDbSpline
210
0.0
220
0.0
230
1.0
 70
     0
 71
     3
 72
    20
 73
    16
 74
     0
 42
0.0000000001
 43
0.0000000001
 40
0.0
 40
0.0
 40
0.0
 40
0.0
 40
0.25
 40
0.25
 40
0.25
 40
0.25
 40
0.5
 40
0.5
 40
0.5
 40
0.5
 40
0.75
 40
0.75
 40
0.75
 40
0.75
 40
1.0
 40
1.0
 40
1.0
 40
1.0
 10
-63.526200000000003
 20
3.2187000000000001
 30
0.0
 10
-63.526200000000003
 20
3.2187000000000001
 30
0.0
 10
-63.3887
 20
3.2776000000000001
 30
0.0
 10
-63.3887
 20
3.2776000000000001
 30
0.0
 10
-63.3887
 20
3.2776000000000001
 30
0.0
 10
-63.3887
 20
3.2776000000000001
 30
0.0
 10
-63.329700000000003
 20
3.4741
 30
0.0
 10
-63.329700000000003
 20
3.4741
 30
0.0
 10
-63.329700000000003
 20
3.4741
 30
0.0
 10
-63.329700000000003
 20
3.4741
 30
0.0
 10
-63.3887
 20
3.6707000000000001
 30
0.0
 10
-63.3887
 20
3.6707000000000001
 30
0.0
 10
-63.3887
 20
3.6707000000000001
 30
0.0
 10
-63.3887
 20
3.6707000000000001
 30
0.0
 10
-63.526200000000003
 20
3.7296
 30
0.0
 10
-63.526200000000003
 20
3.7296
 30
0.0
  0
SPLINE
  5
D4
100
AcDbEntity
  8
Ebene 1
370
    40
 62
     0
100
AcDbSpline
210
0.0
220
0.0
230
1.0
 70
     0
 71
     3
 72
     8
 73
     4
 74
     0
 42
0.0000000001
 43
0.0000000001
 40
0.0
 40
0.0
 40
0.0
 40
0.0
 40
1.0
 40
1.0
 40
1.0
 40
1.0
 10
-64.6267
 20
3.2187000000000001
 30
0.0
 10
-64.6267
 20
3.2187000000000001
 30
0.0
 10
-63.526200000000003
 20
3.2187000000000001
 30
0.0
 10
-63.526200000000003
 20
3.2187000000000001
 30
0.0
  0
SPLINE
  5
D5
100
AcDbEntity
  8
Ebene 1
370
    40
 62
     0
100
AcDbSpline
210
0.0
220
0.0
230
1.0
 70
     0
 71
     3
 72
    12
 73
     8
 74
     0
 42
0.0000000001
 43
0.0000000001
 40
0.0
 40
0.0
 40
0.0
 40
0.0
 40
0.5
 40
0.5
 40
0.5
 40
0.5
 40
1.0
 40
1.0
 40
1.0
 40
1.0
 10
-64.764300000000006
 20
3.5331000000000001
 30
0.0
 10
-64.764300000000006
 20
3.5331000000000001
 30
0.0
 10
-64.705300000000008
 20
3.6117000000000004
 30
0.0
 10
-64.705300000000008
 20
3.6117000000000004
 30
0.0
 10
-64.705300000000008
 20
3.6117000000000004
 30
0.0
 10
-64.705300000000008
 20
3.6117000000000004
 30
0.0
 10
-64.6267
 20
3.7296
 30
0.0
 10
-64.6267
 20
3.7296
 30
0.0
  0
SPLINE
  5
D6
100
AcDbEntity
  8
Ebene 1
370
    20
 62
     0
100
AcDbSpline
210
0.0
220
0.0
230
1.0
 70
     0
 71
     3
 72
     8
 73
     4
 74
     0
 42
0.0000000001
 43
0.0000000001
 40
0.0
 40
0.0
 40
0.0
 40
0.0
 40
1.0
 40
1.0
 40
1.0
 40
1.0
 10
-74.059700000000007
 20
34.3277
 30
0.0
 10
-74.059700000000007
 20
34.3277
 30
0.0
 10
-74.059700000000007
 20
-9.4962
 30
0.0
 10
-74.059700000000007
 20
-9.4962
 30
0.0
  0
SPLINE
  5
D7
100
AcDbEntity
  8
Ebene 1
370
    20
 62
     0
100
AcDbSpline
210
0.0
220
0.0
230
1.0
 70
     0
 71
     3
 72
     8
 73
     4
 74
     0
 42
0.0000000001
 43
0.0000000001
 40
0.0
 40
0.0
 40
0.0
 40
0.0
 40
1.0
 40
1.0
 40
1.0
 40
1.0
 10
-74.059700000000007
 20
16.444400000000002
 30
0.0
 10
-74.059700000000007
 20
16.444400000000002
 30
0.0
 10
-73.804200000000009
 20
18.802700000000002
 30
0.0
 10
-73.804200000000009
 20
18.802700000000002
 30
0.0
  0
SPLINE
  5
D8
100
AcDbEntity
  8
Ebene 1
370
    20
 62
     0
100
AcDbSpline
210
0.0
220
0.0
230
1.0
 70
     0
 71
     3
 72
     8
 73
     4
 74
     0
 42
0.0000000001
 43
0.0000000001
 40
0.0
 40
0.0
 40
0.0
 40
0.0
 40
1.0
 40
1.0
 40
1.0
 40
1.0
 10
-74.393799999999999
 20
18.802700000000002
 30
0.0
 10
-74.393799999999999
 20
18.802700000000002
 30
0.0
 10
-74.059700000000007
 20
16.444400000000002
 30
0.0
 10
-74.059700000000007
 20
16.444400000000002
 30
0.0
  0
SPLINE
  5
D9
100
AcDbEntity
  8
Ebene 1
370
    20
 62
     0
100
AcDbSpline
210
0.0
220
0.0
230
1.0
 70
     0
 71
     3
 72
     8
 73
     4
 74
     0
 42
0.0000000001
 43
0.0000000001
 40
0.0
 40
0.0
 40
0.0
 40
0.0
 40
1.0
 40
1.0
 40
1.0
 40
1.0
 10
-74.059700000000007
 20
13.6342
 30
0.0
 10
-74.059700000000007
 20
13.6342
 30
0.0
 10
-73.411200000000008
 20
18.7437
 30
0.0
 10
-73.411200000000008
 20
18.7437
 30
0.0
  0
SPLINE
  5
DA
100
AcDbEntity
  8
Ebene 1
370
    20
 62
     0
100
AcDbSpline
210
0.0
220
0.0
230
1.0
 70
     0
 71
     3
 72
     8
 73
     4
 74
     0
 42
0.0000000001
 43
0.0000000001
 40
0.0
 40
0.0
 40
0.0
 40
0.0
 40
1.0
 40
1.0
 40
1.0
 40
1.0
 10
-74.786799999999999
 20
18.7437
 30
0.0
 10
-74.786799999999999
 20
18.7437
 30
0.0
 10
-74.059700000000007
 20
13.6342
 30
0.0
 10
-74.059700000000007
 20
13.6342
 30
0.0
  0
SPLINE
  5
DB
100
AcDbEntity
  8
Ebene 1
370
    20
 62
     0
100
AcDbSpline
210
0.0
220
0.0
230
1.0
 70
     0
 71
     3
 72
     8
 73
     4
 74
     0
 42
0.0000000001
 43
0.0000000001
 40
0.0
 40
0.0
 40
0.0
 40
0.0
 40
1.0
 40
1.0
 40
1.0
 40
1.0
 10
-74.059700000000007
 20
10.804300000000001
 30
0.0
 10
-74.059700000000007
 20
10.804300000000001
 30
0.0
 10
-73.018100000000004
 20
18.7437
 30
0.0
 10
-73.018100000000004
 20
18.7437
 30
0.0
  0
SPLINE
  5
DC
100
AcDbEntity
  8
Ebene 1
370
    20
 62
     0
100
AcDbSpline
210
0.0
220
0.0
230
1.0
 70
     0
 71
     3
 72
     8
 73
     4
 74
     0
 42
0.0000000001
 43
0.0000000001
 40
0.0
 40
0.0
 40
0.0
 40
0.0
 40
1.0
 40
1.0
 40
1.0
 40
1.0
 10
-75.120900000000006
 20
18.7437
 30
0.0
 10
-75.120900000000006
 20
18.7437
 30
0.0
 10
-74.059700000000007
 20
10.804300000000001
 30
0.0
 10
-74.059700000000007
 20
10.804300000000001
 30
0.0
  0
SPLINE
  5
DD
100
AcDbEntity
  8
Ebene 1
370
    20
 62
     0
100
AcDbSpline
210
0.0
220
0.0
230
1.0
 70
     0
 71
     3
 72
     8
 73
     4
 74
     0
 42
0.0000000001
 43
0.0000000001
 40
0.0
 40
0.0
 40
0.0
 40
0.0
 40
1.0
 40
1.0
 40
1.0
 40
1.0
 10
-75.513900000000007
 20
18.7437
 30
0.0
 10
-75.513900000000007
 20
18.7437
 30
0.0
 10
-72.684100000000001
 20
18.7437
 30
0.0
 10
-72.684100000000001
 20
18.7437
 30
0.0
  0
SPLINE
  5
DE
100
AcDbEntity
  8
Ebene 1
370
    20
 62
     0
100
AcDbSpline
210
0.0
220
0.0
230
1.0
 70
     0
 71
     3
 72
     8
 73
     4
 74
     0
 42
0.0000000001
 43
0.0000000001
 40
0.0
 40
0.0
 40
0.0
 40
0.0
 40
1.0
 40
1.0
 40
1.0
 40
1.0
 10
-74.059700000000007
 20
7.9941000000000004
 30
0.0
 10
-74.059700000000007
 20
7.9941000000000004
 30
0.0
 10
-72.684100000000001
 20
18.7437
 30
0.0
 10
-72.684100000000001
 20
18.7437
 30
0.0
  0
SPLINE
  5
DF
100
AcDbEntity
  8
Ebene 1
370
    20
 62
     0
100
AcDbSpline
210
0.0
220
0.0
230
1.0
 70
     0
 71
     3
 72
     8
 73
     4
 74
     0
 42
0.0000000001
 43
0.0000000001
 40
0.0
 40
0.0
 40
0.0
 40
0.0
 40
1.0
 40
1.0
 40
1.0
 40
1.0
 10
-75.513900000000007
 20
18.7437
 30
0.0
 10
-75.513900000000007
 20
18.7437
 30
0.0
 10
-74.059700000000007
 20
7.9941000000000004
 30
0.0
 10
-74.059700000000007
 20
7.9941000000000004
 30
0.0
  0
SPLINE
  5
E0
100
AcDbEntity
  8
Ebene 1
370
    20
 62
     0
100
AcDbSpline
210
0.0
220
0.0
230
1.0
 70
     0
 71
     3
 72
     8
 73
     4
 74
     0
 42
0.0000000001
 43
0.0000000001
 40
0.0
 40
0.0
 40
0.0
 40
0.0
 40
1.0
 40
1.0
 40
1.0
 40
1.0
 10
-74.393799999999999
 20
-5.1138000000000003
 30
0.0
 10
-74.393799999999999
 20
-5.1138000000000003
 30
0.0
 10
-74.059700000000007
 20
-2.7555000000000001
 30
0.0
 10
-74.059700000000007
 20
-2.7555000000000001
 30
0.0
  0
SPLINE
  5
E1
100
AcDbEntity
  8
Ebene 1
370
    20
 62
     0
100
AcDbSpline
210
0.0
220
0.0
230
1.0
 70
     0
 71
     3
 72
     8
 73
     4
 74
     0
 42
0.0000000001
 43
0.0000000001
 40
0.0
 40
0.0
 40
0.0
 40
0.0
 40
1.0
 40
1.0
 40
1.0
 40
1.0
 10
-74.059700000000007
 20
-2.7555000000000001
 30
0.0
 10
-74.059700000000007
 20
-2.7555000000000001
 30
0.0
 10
-73.804200000000009
 20
-5.1138000000000003
 30
0.0
 10
-73.804200000000009
 20
-5.1138000000000003
 30
0.0
  0
SPLINE
  5
E2
100
AcDbEntity
  8
Ebene 1
370
    20
 62
     0
100
AcDbSpline
210
0.0
220
0.0
230
1.0
 70
     0
 71
     3
 72
     8
 73
     4
 74
     0
 42
0.0000000001
 43
0.0000000001
 40
0.0
 40
0.0
 40
0.0
 40
0.0
 40
1.0
 40
1.0
 40
1.0
 40
1.0
 10
-74.786799999999999
 20
-5.1138000000000003
 30
0.0
 10
-74.786799999999999
 20
-5.1138000000000003
 30
0.0
 10
-74.059700000000007
 20
0.0743
 30
0.0
 10
-74.059700000000007
 20
0.0743
 30
0.0
  0
SPLINE
  5
E3
100
AcDbEntity
  8
Ebene 1
370
    20
 62
     0
100
AcDbSpline
210
0.0
220
0.0
230
1.0
 70
     0
 71
     3
 72
     8
 73
     4
 74
     0
 42
0.0000000001
 43
0.0000000001
 40
0.0
 40
0.0
 40
0.0
 40
0.0
 40
1.0
 40
1.0
 40
1.0
 40
1.0
 10
-74.059700000000007
 20
0.0743
 30
0.0
 10
-74.059700000000007
 20
0.0743
 30
0.0
 10
-73.411200000000008
 20
-5.1138000000000003
 30
0.0
 10
-73.411200000000008
 20
-5.1138000000000003
 30
0.0
  0
SPLINE
  5
E4
100
AcDbEntity
  8
Ebene 1
370
    20
 62
     0
100
AcDbSpline
210
0.0
220
0.0
230
1.0
 70
     0
 71
     3
 72
     8
 73
     4
 74
     0
 42
0.0000000001
 43
0.0000000001
 40
0.0
 40
0.0
 40
0.0
 40
0.0
 40
1.0
 40
1.0
 40
1.0
 40
1.0
 10
-75.120900000000006
 20
-5.1138000000000003
 30
0.0
 10
-75.120900000000006
 20
-5.1138000000000003
 30
0.0
 10
-74.059700000000007
 20
2.8846000000000003
 30
0.0
 10
-74.059700000000007
 20
2.8846000000000003
 30
0.0
  0
SPLINE
  5
E5
100
AcDbEntity
  8
Ebene 1
370
    20
 62
     0
100
AcDbSpline
210
0.0
220
0.0
230
1.0
 70
     0
 71
     3
 72
     8
 73
     4
 74
     0
 42
0.0000000001
 43
0.0000000001
 40
0.0
 40
0.0
 40
0.0
 40
0.0
 40
1.0
 40
1.0
 40
1.0
 40
1.0
 10
-74.059700000000007
 20
2.8846000000000003
 30
0.0
 10
-74.059700000000007
 20
2.8846000000000003
 30
0.0
 10
-73.018100000000004
 20
-5.1138000000000003
 30
0.0
 10
-73.018100000000004
 20
-5.1138000000000003
 30
0.0
  0
SPLINE
  5
E6
100
AcDbEntity
  8
Ebene 1
370
    20
 62
     0
100
AcDbSpline
210
0.0
220
0.0
230
1.0
 70
     0
 71
     3
 72
     8
 73
     4
 74
     0
 42
0.0000000001
 43
0.0000000001
 40
0.0
 40
0.0
 40
0.0
 40
0.0
 40
1.0
 40
1.0
 40
1.0
 40
1.0
 10
-75.513900000000007
 20
-5.0352000000000006
 30
0.0
 10
-75.513900000000007
 20
-5.0352000000000006
 30
0.0
 10
-72.684100000000001
 20
-5.0352000000000006
 30
0.0
 10
-72.684100000000001
 20
-5.0352000000000006
 30
0.0
  0
SPLINE
  5
E7
100
AcDbEntity
  8
Ebene 1
370
    20
 62
     0
100
AcDbSpline
210
0.0
220
0.0
230
1.0
 70
     0
 71
     3
 72
     8
 73
     4
 74
     0
 42
0.0000000001
 43
0.0000000001
 40
0.0
 40
0.0
 40
0.0
 40
0.0
 40
1.0
 40
1.0
 40
1.0
 40
1.0
 10
-75.513900000000007
 20
-5.0352000000000006
 30
0.0
 10
-75.513900000000007
 20
-5.0352000000000006
 30
0.0
 10
-74.059700000000007
 20
5.6947999999999999
 30
0.0
 10
-74.059700000000007
 20
5.6947999999999999
 30
0.0
  0
SPLINE
  5
E8
100
AcDbEntity
  8
Ebene 1
370
    20
 62
     0
100
AcDbSpline
210
0.0
220
0.0
230
1.0
 70
     0
 71
     3
 72
     8
 73
     4
 74
     0
 42
0.0000000001
 43
0.0000000001
 40
0.0
 40
0.0
 40
0.0
 40
0.0
 40
1.0
 40
1.0
 40
1.0
 40
1.0
 10
-74.059700000000007
 20
5.6947999999999999
 30
0.0
 10
-74.059700000000007
 20
5.6947999999999999
 30
0.0
 10
-72.684100000000001
 20
-5.0352000000000006
 30
0.0
 10
-72.684100000000001
 20
-5.0352000000000006
 30
0.0
  0
SPLINE
  5
E9
100
AcDbEntity
  8
Ebene 1
370
    20
 62
     0
100
AcDbSpline
210
0.0
220
0.0
230
1.0
 70
     0
 71
     3
 72
     8
 73
     4
 74
     0
 42
0.0000000001
 43
0.0000000001
 40
0.0
 40
0.0
 40
0.0
 40
0.0
 40
1.0
 40
1.0
 40
1.0
 40
1.0
 10
-80.623500000000007
 20
7.9941000000000004
 30
0.0
 10
-80.623500000000007
 20
7.9941000000000004
 30
0.0
 10
-65.609300000000005
 20
7.9941000000000004
 30
0.0
 10
-65.609300000000005
 20
7.9941000000000004
 30
0.0
  0
SPLINE
  5
EA
100
AcDbEntity
  8
Ebene 1
370
    20
 62
     0
100
AcDbSpline
210
0.0
220
0.0
230
1.0
 70
     0
 71
     3
 72
     8
 73
     4
 74
     0
 42
0.0000000001
 43
0.0000000001
 40
0.0
 40
0.0
 40
0.0
 40
0.0
 40
1.0
 40
1.0
 40
1.0
 40
1.0
 10
-80.623500000000007
 20
5.6947999999999999
 30
0.0
 10
-80.623500000000007
 20
5.6947999999999999
 30
0.0
 10
-66.867100000000008
 20
5.6947999999999999
 30
0.0
 10
-66.867100000000008
 20
5.6947999999999999
 30
0.0
  0
SPLINE
  5
EB
100
AcDbEntity
  8
Ebene 1
370
    20
 62
     0
100
AcDbSpline
210
0.0
220
0.0
230
1.0
 70
     0
 71
     3
 72
     8
 73
     4
 74
     0
 42
0.0000000001
 43
0.0000000001
 40
0.0
 40
0.0
 40
0.0
 40
0.0
 40
1.0
 40
1.0
 40
1.0
 40
1.0
 10
-19.702300000000001
 20
21.357400000000002
 30
0.0
 10
-19.702300000000001
 20
21.357400000000002
 30
0.0
 10
-17.344100000000001
 20
21.023300000000003
 30
0.0
 10
-17.344100000000001
 20
21.023300000000003
 30
0.0
  0
SPLINE
  5
EC
100
AcDbEntity
  8
Ebene 1
370
    20
 62
     0
100
AcDbSpline
210
0.0
220
0.0
230
1.0
 70
     0
 71
     3
 72
     8
 73
     4
 74
     0
 42
0.0000000001
 43
0.0000000001
 40
0.0
 40
0.0
 40
0.0
 40
0.0
 40
1.0
 40
1.0
 40
1.0
 40
1.0
 10
-19.702300000000001
 20
20.7089
 30
0.0
 10
-19.702300000000001
 20
20.7089
 30
0.0
 10
-17.344100000000001
 20
21.023300000000003
 30
0.0
 10
-17.344100000000001
 20
21.023300000000003
 30
0.0
  0
SPLINE
  5
ED
100
AcDbEntity
  8
Ebene 1
370
    20
 62
     0
100
AcDbSpline
210
0.0
220
0.0
230
1.0
 70
     0
 71
     3
 72
     8
 73
     4
 74
     0
 42
0.0000000001
 43
0.0000000001
 40
0.0
 40
0.0
 40
0.0
 40
0.0
 40
1.0
 40
1.0
 40
1.0
 40
1.0
 10
-19.623699999999999
 20
21.691500000000001
 30
0.0
 10
-19.623699999999999
 20
21.691500000000001
 30
0.0
 10
-14.514200000000001
 20
21.023300000000003
 30
0.0
 10
-14.514200000000001
 20
21.023300000000003
 30
0.0
  0
SPLINE
  5
EE
100
AcDbEntity
  8
Ebene 1
370
    20
 62
     0
100
AcDbSpline
210
0.0
220
0.0
230
1.0
 70
     0
 71
     3
 72
     8
 73
     4
 74
     0
 42
0.0000000001
 43
0.0000000001
 40
0.0
 40
0.0
 40
0.0
 40
0.0
 40
1.0
 40
1.0
 40
1.0
 40
1.0
 10
-19.623699999999999
 20
20.3748
 30
0.0
 10
-19.623699999999999
 20
20.3748
 30
0.0
 10
-14.514200000000001
 20
21.023300000000003
 30
0.0
 10
-14.514200000000001
 20
21.023300000000003
 30
0.0
  0
SPLINE
  5
EF
100
AcDbEntity
  8
Ebene 1
370
    20
 62
     0
100
AcDbSpline
210
0.0
220
0.0
230
1.0
 70
     0
 71
     3
 72
     8
 73
     4
 74
     0
 42
0.0000000001
 43
0.0000000001
 40
0.0
 40
0.0
 40
0.0
 40
0.0
 40
1.0
 40
1.0
 40
1.0
 40
1.0
 10
-19.623699999999999
 20
22.084500000000002
 30
0.0
 10
-19.623699999999999
 20
22.084500000000002
 30
0.0
 10
-11.704000000000001
 20
21.023300000000003
 30
0.0
 10
-11.704000000000001
 20
21.023300000000003
 30
0.0
  0
SPLINE
  5
F0
100
AcDbEntity
  8
Ebene 1
370
    20
 62
     0
100
AcDbSpline
210
0.0
220
0.0
230
1.0
 70
     0
 71
     3
 72
     8
 73
     4
 74
     0
 42
0.0000000001
 43
0.0000000001
 40
0.0
 40
0.0
 40
0.0
 40
0.0
 40
1.0
 40
1.0
 40
1.0
 40
1.0
 10
-19.623699999999999
 20
19.9818
 30
0.0
 10
-19.623699999999999
 20
19.9818
 30
0.0
 10
-11.704000000000001
 20
21.023300000000003
 30
0.0
 10
-11.704000000000001
 20
21.023300000000003
 30
0.0
  0
SPLINE
  5
F1
100
AcDbEntity
  8
Ebene 1
370
    20
 62
     0
100
AcDbSpline
210
0.0
220
0.0
230
1.0
 70
     0
 71
     3
 72
     8
 73
     4
 74
     0
 42
0.0000000001
 43
0.0000000001
 40
0.0
 40
0.0
 40
0.0
 40
0.0
 40
1.0
 40
1.0
 40
1.0
 40
1.0
 10
-19.623699999999999
 20
19.6477
 30
0.0
 10
-19.623699999999999
 20
19.6477
 30
0.0
 10
-19.623699999999999
 20
22.477600000000002
 30
0.0
 10
-19.623699999999999
 20
22.477600000000002
 30
0.0
  0
SPLINE
  5
F2
100
AcDbEntity
  8
Ebene 1
370
    20
 62
     0
100
AcDbSpline
210
0.0
220
0.0
230
1.0
 70
     0
 71
     3
 72
     8
 73
     4
 74
     0
 42
0.0000000001
 43
0.0000000001
 40
0.0
 40
0.0
 40
0.0
 40
0.0
 40
1.0
 40
1.0
 40
1.0
 40
1.0
 10
-19.623699999999999
 20
22.477600000000002
 30
0.0
 10
-19.623699999999999
 20
22.477600000000002
 30
0.0
 10
-8.8937000000000008
 20
21.023300000000003
 30
0.0
 10
-8.8937000000000008
 20
21.023300000000003
 30
0.0
  0
SPLINE
  5
F3
100
AcDbEntity
  8
Ebene 1
370
    20
 62
     0
100
AcDbSpline
210
0.0
220
0.0
230
1.0
 70
     0
 71
     3
 72
     8
 73
     4
 74
     0
 42
0.0000000001
 43
0.0000000001
 40
0.0
 40
0.0
 40
0.0
 40
0.0
 40
1.0
 40
1.0
 40
1.0
 40
1.0
 10
-19.623699999999999
 20
19.6477
 30
0.0
 10
-19.623699999999999
 20
19.6477
 30
0.0
 10
-8.8937000000000008
 20
21.023300000000003
 30
0.0
 10
-8.8937000000000008
 20
21.023300000000003
 30
0.0
  0
SPLINE
  5
F4
100
AcDbEntity
  8
Ebene 1
370
    20
 62
     0
100
AcDbSpline
210
0.0
220
0.0
230
1.0
 70
     0
 71
     3
 72
     8
 73
     4
 74
     0
 42
0.0000000001
 43
0.0000000001
 40
0.0
 40
0.0
 40
0.0
 40
0.0
 40
1.0
 40
1.0
 40
1.0
 40
1.0
 10
-58.416700000000006
 20
21.023300000000003
 30
0.0
 10
-58.416700000000006
 20
21.023300000000003
 30
0.0
 10
-56.058500000000002
 20
20.7089
 30
0.0
 10
-56.058500000000002
 20
20.7089
 30
0.0
  0
SPLINE
  5
F5
100
AcDbEntity
  8
Ebene 1
370
    20
 62
     0
100
AcDbSpline
210
0.0
220
0.0
230
1.0
 70
     0
 71
     3
 72
     8
 73
     4
 74
     0
 42
0.0000000001
 43
0.0000000001
 40
0.0
 40
0.0
 40
0.0
 40
0.0
 40
1.0
 40
1.0
 40
1.0
 40
1.0
 10
-58.416700000000006
 20
21.023300000000003
 30
0.0
 10
-58.416700000000006
 20
21.023300000000003
 30
0.0
 10
-56.058500000000002
 20
21.357400000000002
 30
0.0
 10
-56.058500000000002
 20
21.357400000000002
 30
0.0
  0
SPLINE
  5
F6
100
AcDbEntity
  8
Ebene 1
370
    20
 62
     0
100
AcDbSpline
210
0.0
220
0.0
230
1.0
 70
     0
 71
     3
 72
     8
 73
     4
 74
     0
 42
0.0000000001
 43
0.0000000001
 40
0.0
 40
0.0
 40
0.0
 40
0.0
 40
1.0
 40
1.0
 40
1.0
 40
1.0
 10
-61.226900000000001
 20
21.023300000000003
 30
0.0
 10
-61.226900000000001
 20
21.023300000000003
 30
0.0
 10
-56.117400000000004
 20
20.3748
 30
0.0
 10
-56.117400000000004
 20
20.3748
 30
0.0
  0
SPLINE
  5
F7
100
AcDbEntity
  8
Ebene 1
370
    20
 62
     0
100
AcDbSpline
210
0.0
220
0.0
230
1.0
 70
     0
 71
     3
 72
     8
 73
     4
 74
     0
 42
0.0000000001
 43
0.0000000001
 40
0.0
 40
0.0
 40
0.0
 40
0.0
 40
1.0
 40
1.0
 40
1.0
 40
1.0
 10
-61.226900000000001
 20
21.023300000000003
 30
0.0
 10
-61.226900000000001
 20
21.023300000000003
 30
0.0
 10
-56.117400000000004
 20
21.691500000000001
 30
0.0
 10
-56.117400000000004
 20
21.691500000000001
 30
0.0
  0
SPLINE
  5
F8
100
AcDbEntity
  8
Ebene 1
370
    20
 62
     0
100
AcDbSpline
210
0.0
220
0.0
230
1.0
 70
     0
 71
     3
 72
     8
 73
     4
 74
     0
 42
0.0000000001
 43
0.0000000001
 40
0.0
 40
0.0
 40
0.0
 40
0.0
 40
1.0
 40
1.0
 40
1.0
 40
1.0
 10
-64.037199999999999
 20
21.023300000000003
 30
0.0
 10
-64.037199999999999
 20
21.023300000000003
 30
0.0
 10
-56.117400000000004
 20
19.9818
 30
0.0
 10
-56.117400000000004
 20
19.9818
 30
0.0
  0
SPLINE
  5
F9
100
AcDbEntity
  8
Ebene 1
370
    20
 62
     0
100
AcDbSpline
210
0.0
220
0.0
230
1.0
 70
     0
 71
     3
 72
     8
 73
     4
 74
     0
 42
0.0000000001
 43
0.0000000001
 40
0.0
 40
0.0
 40
0.0
 40
0.0
 40
1.0
 40
1.0
 40
1.0
 40
1.0
 10
-64.037199999999999
 20
21.023300000000003
 30
0.0
 10
-64.037199999999999
 20
21.023300000000003
 30
0.0
 10
-56.117400000000004
 20
22.084500000000002
 30
0.0
 10
-56.117400000000004
 20
22.084500000000002
 30
0.0
  0
SPLINE
  5
FA
100
AcDbEntity
  8
Ebene 1
370
    20
 62
     0
100
AcDbSpline
210
0.0
220
0.0
230
1.0
 70
     0
 71
     3
 72
     8
 73
     4
 74
     0
 42
0.0000000001
 43
0.0000000001
 40
0.0
 40
0.0
 40
0.0
 40
0.0
 40
1.0
 40
1.0
 40
1.0
 40
1.0
 10
-56.117400000000004
 20
22.477600000000002
 30
0.0
 10
-56.117400000000004
 20
22.477600000000002
 30
0.0
 10
-56.117400000000004
 20
19.6477
 30
0.0
 10
-56.117400000000004
 20
19.6477
 30
0.0
  0
SPLINE
  5
FB
100
AcDbEntity
  8
Ebene 1
370
    20
 62
     0
100
AcDbSpline
210
0.0
220
0.0
230
1.0
 70
     0
 71
     3
 72
     8
 73
     4
 74
     0
 42
0.0000000001
 43
0.0000000001
 40
0.0
 40
0.0
 40
0.0
 40
0.0
 40
1.0
 40
1.0
 40
1.0
 40
1.0
 10
-66.867100000000008
 20
21.023300000000003
 30
0.0
 10
-66.867100000000008
 20
21.023300000000003
 30
0.0
 10
-56.117400000000004
 20
19.6477
 30
0.0
 10
-56.117400000000004
 20
19.6477
 30
0.0
  0
SPLINE
  5
FC
100
AcDbEntity
  8
Ebene 1
370
    20
 62
     0
100
AcDbSpline
210
0.0
220
0.0
230
1.0
 70
     0
 71
     3
 72
     8
 73
     4
 74
     0
 42
0.0000000001
 43
0.0000000001
 40
0.0
 40
0.0
 40
0.0
 40
0.0
 40
1.0
 40
1.0
 40
1.0
 40
1.0
 10
-66.867100000000008
 20
21.023300000000003
 30
0.0
 10
-66.867100000000008
 20
21.023300000000003
 30
0.0
 10
-56.117400000000004
 20
22.477600000000002
 30
0.0
 10
-56.117400000000004
 20
22.477600000000002
 30
0.0
  0
SPLINE
  5
FD
100
AcDbEntity
  8
Ebene 1
370
    20
 62
     0
100
AcDbSpline
210
0.0
220
0.0
230
1.0
 70
     0
 71
     3
 72
     8
 73
     4
 74
     0
 42
0.0000000001
 43
0.0000000001
 40
0.0
 40
0.0
 40
0.0
 40
0.0
 40
1.0
 40
1.0
 40
1.0
 40
1.0
 10
-66.867100000000008
 20
21.023300000000003
 30
0.0
 10
-66.867100000000008
 20
21.023300000000003
 30
0.0
 10
-8.8937000000000008
 20
21.023300000000003
 30
0.0
 10
-8.8937000000000008
 20
21.023300000000003
 30
0.0
  0
SPLINE
  5
FE
100
AcDbEntity
  8
Ebene 1
370
    20
 62
     0
100
AcDbSpline
210
0.0
220
0.0
230
1.0
 70
     0
 71
     3
 72
     8
 73
     4
 74
     0
 42
0.0000000001
 43
0.0000000001
 40
0.0
 40
0.0
 40
0.0
 40
0.0
 40
1.0
 40
1.0
 40
1.0
 40
1.0
 10
-8.8937000000000008
 20
27.508500000000002
 30
0.0
 10
-8.8937000000000008
 20
27.508500000000002
 30
0.0
 10
-8.8937000000000008
 20
6.0878000000000005
 30
0.0
 10
-8.8937000000000008
 20
6.0878000000000005
 30
0.0
  0
SPLINE
  5
FF
100
AcDbEntity
  8
Ebene 1
370
    20
 62
     0
100
AcDbSpline
210
0.0
220
0.0
230
1.0
 70
     0
 71
     3
 72
     8
 73
     4
 74
     0
 42
0.0000000001
 43
0.0000000001
 40
0.0
 40
0.0
 40
0.0
 40
0.0
 40
1.0
 40
1.0
 40
1.0
 40
1.0
 10
-66.867100000000008
 20
27.508500000000002
 30
0.0
 10
-66.867100000000008
 20
27.508500000000002
 30
0.0
 10
-66.867100000000008
 20
6.0878000000000005
 30
0.0
 10
-66.867100000000008
 20
6.0878000000000005
 30
0.0
  0
ENDSEC
  0
SECTION
  2
OBJECTS
  0
DICTIONARY
  5
19
100
AcDbDictionary
280
     0
281
     1
  3
ACAD_GROUP
350
1A
  3
ACAD_MLINESTYLE
350
1B
  3
ACAD_LAYOUT
350
1E
  3
ACAD_PLOTSETTINGS
350
22
  3
ACAD_PLOTSTYLENAME
350
1F
  3
ACAD_WIPEOUT_VARS
350
23
  0
DICTIONARY
  5
1A
102
{ACAD_REACTORS
330
19
102
}
100
AcDbDictionary
280
     0
281
     1
  0
DICTIONARY
  5
1B
102
{ACAD_REACTORS
330
19
102
}
100
AcDbDictionary
280
     0
281
     1
  3
Standard
350
1C
  0
MLINESTYLE
  5
1C
102
{ACAD_REACTORS
330
1B
102
}
100
AcDbMlineStyle
  2
Standard
 70
     0
  3

 62
     0
 51
90.0
 52
90.0
 71
     2
 49
0.5
 62
   256
  6
BYLAYER
 49
-0.5
 62
   256
  6
BYLAYER
  0
ACDBDICTIONARYWDFLT
  5
1F
102
{ACAD_REACTORS
330
19
102
}
100
AcDbDictionary
281
     1
  3
Normal
350
1D
100
AcDbDictionaryWithDefault
340
1D
  0
ACDBPLACEHOLDER
  5
1D
102
{ACAD_REACTORS
330
1F
102
}
  0
LAYOUT
  5
20
102
{ACAD_REACTORS
330
1E
102
}
100
AcDbPlotSettings
  1

  2

  4

  6

 40
0.0
 41
0.0
 42
0.0
 43
0.0
 44
0.0
 45
0.0
 46
0.0
 47
0.0
 48
0.0
 49
0.0
140
0.0
141
0.0
142
1.0
143
1.0
 70
  1024
 72
     0
 73
     0
 74
     0
  7

 75
     0
147
1.0
148
0.0
149
0.0
100
AcDbLayout
  1
Model
 70
     0
 71
     0
 10
0.0
 20
0.0
 11
0.0
 21
0.0
 12
0.0
 22
0.0
 32
0.0
 14
0.0
 24
0.0
 34
0.0
 15
0.0
 25
0.0
 35
0.0
146
0.0
 13
0.0
 23
0.0
 33
0.0
 16
0.0
 26
0.0
 36
0.0
 17
0.0
 27
0.0
 37
0.0
 76
     0
330
A
331
0
345
0
346
0
  0
LAYOUT
  5
21
102
{ACAD_REACTORS
330
1E
102
}
100
AcDbPlotSettings
  1

  2

  4

  6

 40
0.0
 41
0.0
 42
0.0
 43
0.0
 44
0.0
 45
0.0
 46
0.0
 47
0.0
 48
0.0
 49
0.0
140
0.0
141
0.0
142
1.0
143
1.0
 70
     0
 72
     0
 73
     0
 74
     0
  7

 75
     0
147
1.0
148
0.0
149
0.0
100
AcDbLayout
  1
Layout1
 70
     0
 71
     0
 10
0.0
 20
0.0
 11
0.0
 21
0.0
 12
0.0
 22
0.0
 32
0.0
 14
0.0
 24
0.0
 34
0.0
 15
0.0
 25
0.0
 35
0.0
146
0.0
 13
0.0
 23
0.0
 33
0.0
 16
0.0
 26
0.0
 36
0.0
 17
0.0
 27
0.0
 37
0.0
 76
     0
330
B
331
0
345
0
346
0
  0
DICTIONARY
  5
1E
102
{ACAD_REACTORS
330
19
102
}
100
AcDbDictionary
280
     0
281
     1
  3
Layout1
350
21
  3
Model
350
20
  0
DICTIONARY
  5
22
102
{ACAD_REACTORS
330
19
102
}
100
AcDbDictionary
280
     0
281
     1
  0
WIPEOUTVARIABLES
  5
23
100
AcDbWipeoutVariables
 70
     1
  0
ENDSEC
  0
EOF
