  0
SECTION
  2
HEADER
  9
$ACADVER
  1
AC1015
  9
$ACADMAINTVER
 70
     6
  9
$DWGCODEPAGE
  3
DOS850
  9
$INSBASE
 10
0.0
 20
0.0
 30
0.0
  9
$EXTMIN
 10
-69.0571
 20
-25.7716
 30
1.000000E+20
  9
$EXTMAX
 10
67.5532
 20
40.2344
 30
-1.000000E+20
  9
$LIMMIN
 10
0.0
 20
0.0
  9
$LIMMAX
 10
0.0
 20
0.0
  9
$ORTHOMODE
 70
     0
  9
$REGENMODE
 70
     1
  9
$FILLMODE
 70
     1
  9
$QTEXTMODE
 70
     0
  9
$MIRRTEXT
 70
     1
  9
$LTSCALE
 40
1.0
  9
$ATTMODE
 70
     1
  9
$TEXTSIZE
 40
0.2
  9
$TRACEWID
 40
0.05
  9
$TEXTSTYLE
  7
Standard
  9
$CLAYER
  8
0
  9
$CELTYPE
  6
Continuous
  9
$CECOLOR
 62
   256
  9
$CELTSCALE
 40
1.0
  9
$DISPSILH
 70
     0
  9
$DIMSCALE
 40
1.0
  9
$DIMASZ
 40
0.18
  9
$DIMEXO
 40
0.0625
  9
$DIMDLI
 40
0.38
  9
$DIMRND
 40
0.0
  9
$DIMDLE
 40
0.0
  9
$DIMEXE
 40
0.18
  9
$DIMTP
 40
0.0
  9
$DIMTM
 40
0.0
  9
$DIMTXT
 40
0.18
  9
$DIMCEN
 40
0.09
  9
$DIMTSZ
 40
0.0
  9
$DIMTOL
 70
     0
  9
$DIMLIM
 70
     0
  9
$DIMTIH
 70
     1
  9
$DIMTOH
 70
     1
  9
$DIMSE1
 70
     0
  9
$DIMSE2
 70
     0
  9
$DIMTAD
 70
     0
  9
$DIMZIN
 70
     0
  9
$DIMBLK
  1

  9
$DIMASO
 70
     1
  9
$DIMSHO
 70
     1
  9
$DIMPOST
  1

  9
$DIMAPOST
  1

  9
$DIMALT
 70
     0
  9
$DIMALTD
 70
     2
  9
$DIMALTF
 40
25.4
  9
$DIMLFAC
 40
1.0
  9
$DIMTOFL
 70
     0
  9
$DIMTVP
 40
0.0
  9
$DIMTIX
 70
     0
  9
$DIMSOXD
 70
     0
  9
$DIMSAH
 70
     0
  9
$DIMBLK1
  1

  9
$DIMBLK2
  1

  9
$DIMSTYLE
  2
Standard
  9
$DIMCLRD
 70
     0
  9
$DIMCLRE
 70
     0
  9
$DIMCLRT
 70
     0
  9
$DIMTFAC
 40
1.0
  9
$DIMGAP
 40
0.09
  9
$DIMJUST
 70
     0
  9
$DIMSD1
 70
     0
  9
$DIMSD2
 70
     0
  9
$DIMTOLJ
 70
     1
  9
$DIMTZIN
 70
     0
  9
$DIMALTZ
 70
     0
  9
$DIMALTTZ
 70
     0
  9
$DIMUPT
 70
     0
  9
$DIMDEC
 70
     4
  9
$DIMTDEC
 70
     4
  9
$DIMALTU
 70
     2
  9
$DIMALTTD
 70
     2
  9
$DIMTXSTY
  7
Standard
  9
$DIMAUNIT
 70
     0
  9
$DIMADEC
 70
     0
  9
$DIMALTRND
 40
0.0
  9
$DIMAZIN
 70
     0
  9
$DIMDSEP
 70
     0
  9
$DIMATFIT
 70
     3
  9
$DIMFRAC
 70
     0
  9
$DIMLDRBLK
  1

  9
$DIMLUNIT
 70
     2
  9
$DIMLWD
 70
     0
  9
$DIMLWE
 70
     0
  9
$DIMTMOVE
 70
     0
  9
$LUNITS
 70
     2
  9
$LUPREC
 70
     4
  9
$SKETCHINC
 40
0.1
  9
$FILLETRAD
 40
0.0
  9
$AUNITS
 70
     0
  9
$AUPREC
 70
     0
  9
$MENU
  1
acad
  9
$ELEVATION
 40
0.0
  9
$PELEVATION
 40
0.0
  9
$THICKNESS
 40
0.0
  9
$LIMCHECK
 70
     0
  9
$CHAMFERA
 40
0.0
  9
$CHAMFERB
 40
0.0
  9
$CHAMFERC
 40
0.0
  9
$CHAMFERD
 40
0.0
  9
$SKPOLY
 70
     0
  9
$TDCREATE
 40
0.000000000
  9
$TDUCREATE
 40
0.000000000
  9
$TDUPDATE
 40
0.000000000
  9
$TDUUPDATE
 40
0.000000000
  9
$TDINDWG
 40
0.0000000000
  9
$TDUSRTIMER
 40
0.0000000000
  9
$USRTIMER
 70
     1
  9
$ANGBASE
 50
0.0
  9
$ANGDIR
 70
     0
  9
$PDMODE
 70
     0
  9
$PDSIZE
 40
0.0
  9
$PLINEWID
 40
0.0
  9
$SPLFRAME
 70
     0
  9
$SPLINETYPE
 70
     6
  9
$SPLINESEGS
 70
     8
  9
$HANDSEED
  5
1A0
  9
$SURFTAB1
 70
     6
  9
$SURFTAB2
 70
     6
  9
$SURFTYPE
 70
     6
  9
$SURFU
 70
     6
  9
$SURFV
 70
     6
  9
$UCSBASE
  2

  9
$UCSNAME
  2

  9
$UCSORG
 10
0.0
 20
0.0
 30
0.0
  9
$UCSXDIR
 10
1.0
 20
0.0
 30
0.0
  9
$UCSYDIR
 10
0.0
 20
1.0
 30
0.0
  9
$UCSORTHOREF
  2

  9
$UCSORTHOVIEW
 70
     0
  9
$UCSORGTOP
 10
0.0
 20
0.0
 30
0.0
  9
$UCSORGBOTTOM
 10
0.0
 20
0.0
 30
0.0
  9
$UCSORGLEFT
 10
0.0
 20
0.0
 30
0.0
  9
$UCSORGRIGHT
 10
0.0
 20
0.0
 30
0.0
  9
$UCSORGFRONT
 10
0.0
 20
0.0
 30
0.0
  9
$UCSORGBACK
 10
0.0
 20
0.0
 30
0.0
  9
$PUCSBASE
  2

  9
$PUCSNAME
  2

  9
$PUCSORG
 10
0.0
 20
0.0
 30
0.0
  9
$PUCSXDIR
 10
1.0
 20
0.0
 30
0.0
  9
$PUCSYDIR
 10
0.0
 20
1.0
 30
0.0
  9
$PUCSORTHOREF
  2

  9
$PUCSORTHOVIEW
 70
     0
  9
$PUCSORGTOP
 10
0.0
 20
0.0
 30
0.0
  9
$PUCSORGBOTTOM
 10
0.0
 20
0.0
 30
0.0
  9
$PUCSORGLEFT
 10
0.0
 20
0.0
 30
0.0
  9
$PUCSORGRIGHT
 10
0.0
 20
0.0
 30
0.0
  9
$PUCSORGFRONT
 10
0.0
 20
0.0
 30
0.0
  9
$PUCSORGBACK
 10
0.0
 20
0.0
 30
0.0
  9
$USERI1
 70
     0
  9
$USERI2
 70
     0
  9
$USERI3
 70
     0
  9
$USERI4
 70
     0
  9
$USERI5
 70
     0
  9
$USERR1
 40
0.0
  9
$USERR2
 40
0.0
  9
$USERR3
 40
0.0
  9
$USERR4
 40
0.0
  9
$USERR5
 40
0.0
  9
$WORLDVIEW
 70
     1
  9
$SHADEDGE
 70
     3
  9
$SHADEDIF
 70
    70
  9
$TILEMODE
 70
     1
  9
$MAXACTVP
 70
    16
  9
$PINSBASE
 10
0.0
 20
0.0
 30
0.0
  9
$PLIMCHECK
 70
     0
  9
$PEXTMIN
 10
1.000000E+20
 20
1.000000E+20
 30
1.000000E+20
  9
$PEXTMAX
 10
-1.000000E+20
 20
-1.000000E+20
 30
-1.000000E+20
  9
$PLIMMIN
 10
0.0
 20
0.0
  9
$PLIMMAX
 10
12.0
 20
9.0
  9
$UNITMODE
 70
     0
  9
$VISRETAIN
 70
     0
  9
$PLINEGEN
 70
     1
  9
$PSLTSCALE
 70
     0
  9
$TREEDEPTH
 70
  3020
  9
$CMLSTYLE
  2
Standard
  9
$CMLJUST
 70
     0
  9
$CMLSCALE
 40
1.0
  9
$PROXYGRAPHICS
 70
     0
  9
$MEASUREMENT
 70
     0
  9
$CELWEIGHT
370
     0
  9
$ENDCAPS
280
     0
  9
$JOINSTYLE
280
     0
  9
$LWDISPLAY
290
     0
  9
$INSUNITS
 70
     4
  9
$HYPERLINKBASE
  1

  9
$XEDIT
290
     1
  9
$CEPSNTYPE
380
     0
  9
$PSTYLEMODE
290
     1
  9
$FINGERPRINTGUID
  2

  9
$VERSIONGUID
  2

  9
$EXTNAMES
290
     1
  9
$PSVPSCALE
 40
0.0
  0
ENDSEC
  0
SECTION
  2
CLASSES
  0
CLASS
  1
LWPOLYLINE
  2
AcDbPolyline
  3
AutoCAD 2000
 90
    32768
280
     0
281
     1
  0
CLASS
  1
IMAGE
  2
AcDbRasterImage
  3
ISM
 90
    32895
280
     0
281
     1
  0
CLASS
  1
OLE2FRAME
  2
AcDbOle2Frame
  3
AutoCAD 2000
 90
    32768
280
     0
281
     1
  0
CLASS
  1
HATCH
  2
AcDbHatch
  3
AutoCAD 2000
 90
    32768
280
     0
281
     1
  0
CLASS
  1
DICTIONARYVAR
  2
AcDbDictionaryVar
  3
AutoCAD 2000
 90
    32768
280
     0
281
     0
  0
CLASS
  1
RASTERVARIABLES
  2
AcDbRasterVariables
  3
ISM
 90
    32768
280
     0
281
     0
  0
CLASS
  1
IMAGEDEF
  2
AcDbRasterImageDef
  3
ISM
 90
    32768
280
     0
281
     0
  0
CLASS
  1
IMAGEDEF_REACTOR
  2
AcDbRasterImageDefReactor
  3
ISM
 90
    32769
280
     0
281
     0
  0
CLASS
  1
IDBUFFER
  2
AcDbIdBuffer
  3
AutoCAD 2000
 90
    32768
280
     0
281
     0
  0
CLASS
  1
SPATIAL_FILTER
  2
AcDbSpatialFilter
  3
AutoCAD 2000
 90
    32768
280
     0
281
     0
  0
CLASS
  1
XRECORD
  2
AcDbXrecord
  3
AutoCAD 2000
 90
    32768
280
     0
281
     0
  0
CLASS
  1
SORTENTSTABLE
  2
AcDbSortentsTable
  3
AutoCAD 2000
 90
    32768
280
     0
281
     0
  0
CLASS
  1
LAYER_INDEX
  2
AcDbLayerIndex
  3
AutoCAD 2000
 90
    32768
280
     0
281
     0
  0
CLASS
  1
SPATIAL_INDEX
  2
AcDbSpatialIndex
  3
AutoCAD 2000
 90
    32768
280
     0
281
     0
  0
CLASS
  1
OBJECT_PTR
  2
CAseDLPNTableRecord
  3
"ASE-LPNTableRecord"
 90
    32769
280
     0
281
     0
  0
CLASS
  1
LAYOUT
  2
AcDbLayout
  3
AutoCAD 2000
 90
        0
280
     0
281
     0
  0
CLASS
  1
PLOTSETTINGS
  2
AcDbPlotSettings
  3
AutoCAD 2000
 90
    32768
280
     0
281
     0
  0
CLASS
  1
ACDBDICTIONARYWDFLT
  2
AcDbDictionaryWithDefault
  3
AutoCAD 2000
 90
        0
280
     0
281
     0
  0
CLASS
  1
ACDBPLACEHOLDER
  2
AcDbPlaceHolder
  3
AutoCAD 2000
 90
        0
280
     0
281
     0
  0
CLASS
  1
VBA_PROJECT
  2
AcDbVbaProject
  3
acadvba
 90
    32768
280
     0
281
     0
  0
CLASS
  1
WIPEOUT
  2
AcDbWipeout
  3
WipeOut|AutoCAD Express Tool|expresstools@autodesk.com
 90
    32895
280
     0
281
     1
  0
CLASS
  1
WIPEOUTVARIABLES
  2
AcDbWipeoutVariables
  3
WipeOut|AutoCAD Express Tool|expresstools@autodesk.com
 90
        0
280
     0
281
     0
  0
CLASS
  1
RTEXT
  2
RText
  3
RText|AutoCAD Express Tool|expresstools@autodesk.com
 90
    32768
280
     0
281
     1
  0
CLASS
  1
ARCALIGNEDTEXT
  2
AcDbArcAlignedText
  3
ATEXT|AutoCAD Express Tool|expresstools@autodesk.com
 90
    32768
280
     0
281
     1
  0
ENDSEC
  0
SECTION
  2
TABLES
  0
TABLE
  2
VPORT
  5
7
100
AcDbSymbolTable
 70
     1
  0
VPORT
  5
15
100
AcDbSymbolTableRecord
100
AcDbViewportTableRecord
  2
*ACTIVE
 70
     0
 10
0.0
 20
0.0
 11
1.0
 21
1.0
 12
6.591288
 22
4.579184
 13
0.0
 23
0.0
 14
1.0
 24
1.0
 15
0.0
 25
0.0
 16
0.0
 26
0.0
 36
1.0
 17
0.0
 27
0.0
 37
0.0
 40
9.158369
 41
0.688564
 42
50.0
 43
0.0
 44
0.0
 50
0.0
 51
0.0
 71
     0
 72
   100
 73
     1
 74
     1
 75
     0
 76
     0
 77
     0
 78
     0
281
     0
 65
     0
110
0.0
120
0.0
130
0.0
111
1.0
121
0.0
131
0.0
112
0.0
122
1.0
132
0.0
345
0
346
0
 79
     0
146
0.0
  0
ENDTAB
  0
TABLE
  2
LTYPE
  5
4
100
AcDbSymbolTable
 70
     4
  0
LTYPE
  5
11
100
AcDbSymbolTableRecord
100
AcDbLinetypeTableRecord
  2
ByBlock
 70
    64
  3

 72
    65
 73
     0
 40
0.0
  0
LTYPE
  5
12
100
AcDbSymbolTableRecord
100
AcDbLinetypeTableRecord
  2
ByLayer
 70
    64
  3

 72
    65
 73
     0
 40
0.0
  0
LTYPE
  5
13
100
AcDbSymbolTableRecord
100
AcDbLinetypeTableRecord
  2
Continuous
 70
    64
  3
Solid line
 72
    65
 73
     0
 40
0.0
  0
LTYPE
  5
B0
100
AcDbSymbolTableRecord
100
AcDbLinetypeTableRecord
  2
New Line1
 70
    65
  3

 72
    64
 73
     4
 40
1.2
 49
0.5
 74
     0
 49
-0.3
 74
     0
 49
0.1
 74
     0
 49
-0.3
 74
     0
  0
ENDTAB
  0
TABLE
  2
LAYER
  5
2
100
AcDbSymbolTable
 70
     3
  0
LAYER
  5
14
100
AcDbSymbolTableRecord
100
AcDbLayerTableRecord
  2
0
 70
     0
 62
     7
  6
Continuous
290
     1
370
    -3
390
1D
  0
LAYER
  5
24
100
AcDbSymbolTableRecord
100
AcDbLayerTableRecord
  2
Ebene 1
 70
     0
 62
     7
  6
Continuous
290
     1
370
    -3
390
1F
  0
LAYER
  5
141
100
AcDbSymbolTableRecord
100
AcDbLayerTableRecord
  2
LC-006-003-----0
 70
     0
 62
     7
  6
Continuous
290
     1
370
    -3
390
1F
  0
ENDTAB
  0
TABLE
  2
STYLE
  5
3
100
AcDbSymbolTable
 70
     1
  0
STYLE
  5
17
100
AcDbSymbolTableRecord
100
AcDbTextStyleTableRecord
  2
Standard
 70
     0
 40
0.0
 41
1.0
 50
0.0
 71
     0
 42
0.0
  3
txt
  4

  0
ENDTAB
  0
TABLE
  2
VIEW
  5
5
100
AcDbSymbolTable
 70
     0
  0
ENDTAB
  0
TABLE
  2
UCS
  5
6
100
AcDbSymbolTable
 70
     0
  0
ENDTAB
  0
TABLE
  2
APPID
  5
8
100
AcDbSymbolTable
 70
     1
  0
APPID
  5
16
100
AcDbSymbolTableRecord
100
AcDbRegAppTableRecord
  2
ACAD
 70
     0
  0
ENDTAB
  0
TABLE
  2
DIMSTYLE
  5
9
100
AcDbSymbolTable
 70
     1
100
AcDbDimStyleTable
 71
     0
  0
DIMSTYLE
105
18
100
AcDbSymbolTableRecord
100
AcDbDimStyleTableRecord
  2
Standard
 70
     0
  3

  4

 40
1.0
 41
0.18
 42
0.0625
 43
0.38
 44
0.18
 45
0.0
 46
0.0
 47
0.0
 48
0.0
 71
     0
 72
     0
 73
     1
 74
     1
 75
     0
 76
     0
 77
     0
 78
     0
 79
     0
140
0.18
141
0.09
142
0.0
143
25.4
144
1.0
145
0.0
146
1.0
147
0.09
148
0.0
170
     0
171
     2
172
     0
173
     0
174
     0
175
     0
176
     0
177
     0
178
     0
179
     0
271
     4
272
     4
273
     2
274
     2
275
     0
276
     0
277
     2
278
    46
279
     0
280
     0
281
     0
282
     0
283
     1
284
     0
285
     0
286
     0
288
     0
340
17
341
0
342
0
343
0
344
0
371
    -2
372
    -2
  0
ENDTAB
  0
TABLE
  2
BLOCK_RECORD
  5
1
100
AcDbSymbolTable
 70
     0
  0
BLOCK_RECORD
  5
A
100
AcDbSymbolTableRecord
100
AcDbBlockTableRecord
  2
*MODEL_SPACE
340
20
  0
BLOCK_RECORD
  5
B
100
AcDbSymbolTableRecord
100
AcDbBlockTableRecord
  2
*PAPER_SPACE
340
21
  0
ENDTAB
  0
ENDSEC
  0
SECTION
  2
BLOCKS
  0
BLOCK
  5
D
100
AcDbEntity
  8
0
100
AcDbBlockBegin
  2
*MODEL_SPACE
 70
     0
 10
0.0
 20
0.0
 30
0.0
  3
*MODEL_SPACE
  1

  0
ENDBLK
  5
E
100
AcDbEntity
  8
0
100
AcDbBlockEnd
  0
BLOCK
  5
F
100
AcDbEntity
 67
     1
  8
0
100
AcDbBlockBegin
  2
*PAPER_SPACE
 70
     0
 10
0.0
 20
0.0
 30
0.0
  3
*PAPER_SPACE
  1

  0
ENDBLK
  5
10
100
AcDbEntity
 67
     1
  8
0
100
AcDbBlockEnd
  0
ENDSEC
  0
SECTION
  2
ENTITIES
  0
SPLINE
  5
25
100
AcDbEntity
  8
Ebene 1
100
AcDbSpline
210
0.0
220
0.0
230
1.0
 70
     1
 71
     3
 72
    40
 73
    36
 74
     0
 42
0.0000000001
 43
0.0000000001
 40
0.0
 40
0.0
 40
0.0
 40
0.0
 40
0.1111111111111111
 40
0.1111111111111111
 40
0.1111111111111111
 40
0.1111111111111111
 40
0.2222222222222222
 40
0.2222222222222222
 40
0.2222222222222222
 40
0.2222222222222222
 40
0.3333333333333333
 40
0.3333333333333333
 40
0.3333333333333333
 40
0.3333333333333333
 40
0.4444444444444444
 40
0.4444444444444444
 40
0.4444444444444444
 40
0.4444444444444444
 40
0.5555555555555556
 40
0.5555555555555556
 40
0.5555555555555556
 40
0.5555555555555556
 40
0.6666666666666667
 40
0.6666666666666667
 40
0.6666666666666667
 40
0.6666666666666667
 40
0.7777777777777779
 40
0.7777777777777779
 40
0.7777777777777779
 40
0.7777777777777779
 40
0.8888888888888891
 40
0.8888888888888891
 40
0.8888888888888891
 40
0.8888888888888891
 40
1.0
 40
1.0
 40
1.0
 40
1.0
 10
-34.008500000000005
 20
32.386400000000002
 30
0.0
 10
-34.008500000000005
 20
32.386400000000002
 30
0.0
 10
-32.7712
 20
38.287400000000005
 30
0.0
 10
-32.7712
 20
38.287400000000005
 30
0.0
 10
-32.7712
 20
38.287400000000005
 30
0.0
 10
-33.304300000000005
 20
37.868900000000004
 30
0.0
 10
-34.054000000000002
 20
37.532299999999999
 30
0.0
 10
-35.020200000000003
 20
37.279299999999999
 30
0.0
 10
-35.020200000000003
 20
37.279299999999999
 30
0.0
 10
-35.020200000000003
 20
37.279299999999999
 30
0.0
 10
-34.840000000000003
 20
38.154600000000002
 30
0.0
 10
-34.840000000000003
 20
38.154600000000002
 30
0.0
 10
-34.840000000000003
 20
38.154600000000002
 30
0.0
 10
-34.3596
 20
38.345600000000005
 30
0.0
 10
-33.886600000000001
 20
38.596800000000002
 30
0.0
 10
-33.418900000000001
 20
38.906100000000002
 30
0.0
 10
-33.418900000000001
 20
38.906100000000002
 30
0.0
 10
-32.951300000000003
 20
39.215400000000002
 30
0.0
 10
-32.600100000000005
 20
39.4848
 30
0.0
 10
-32.365400000000001
 20
39.715900000000005
 30
0.0
 10
-32.365400000000001
 20
39.715900000000005
 30
0.0
 10
-32.223500000000001
 20
39.857800000000005
 30
0.0
 10
-32.088799999999999
 20
40.0306
 30
0.0
 10
-31.961400000000001
 20
40.234400000000001
 30
0.0
 10
-31.961400000000001
 20
40.234400000000001
 30
0.0
 10
-31.961400000000001
 20
40.234400000000001
 30
0.0
 10
-31.4009
 20
40.234400000000001
 30
0.0
 10
-31.4009
 20
40.234400000000001
 30
0.0
 10
-31.4009
 20
40.234400000000001
 30
0.0
 10
-31.4009
 20
40.234400000000001
 30
0.0
 10
-33.036799999999999
 20
32.386400000000002
 30
0.0
 10
-33.036799999999999
 20
32.386400000000002
 30
0.0
 10
-33.036799999999999
 20
32.386400000000002
 30
0.0
 10
-33.036799999999999
 20
32.386400000000002
 30
0.0
 10
-34.008500000000005
 20
32.386400000000002
 30
0.0
 10
-34.008500000000005
 20
32.386400000000002
 30
0.0
  0
SPLINE
  5
26
100
AcDbEntity
  8
Ebene 1
100
AcDbSpline
210
0.0
220
0.0
230
1.0
 70
     1
 71
     3
 72
    52
 73
    48
 74
     0
 42
0.0000000001
 43
0.0000000001
 40
0.0
 40
0.0
 40
0.0
 40
0.0
 40
0.0833333333333333
 40
0.0833333333333333
 40
0.0833333333333333
 40
0.0833333333333333
 40
0.1666666666666667
 40
0.1666666666666667
 40
0.1666666666666667
 40
0.1666666666666667
 40
0.25
 40
0.25
 40
0.25
 40
0.25
 40
0.3333333333333333
 40
0.3333333333333333
 40
0.3333333333333333
 40
0.3333333333333333
 40
0.4166666666666666
 40
0.4166666666666666
 40
0.4166666666666666
 40
0.4166666666666666
 40
0.4999999999999999
 40
0.4999999999999999
 40
0.4999999999999999
 40
0.4999999999999999
 40
0.5833333333333333
 40
0.5833333333333333
 40
0.5833333333333333
 40
0.5833333333333333
 40
0.6666666666666666
 40
0.6666666666666666
 40
0.6666666666666666
 40
0.6666666666666666
 40
0.75
 40
0.75
 40
0.75
 40
0.75
 40
0.8333333333333334
 40
0.8333333333333334
 40
0.8333333333333334
 40
0.8333333333333334
 40
0.9166666666666667
 40
0.9166666666666667
 40
0.9166666666666667
 40
0.9166666666666667
 40
1.0
 40
1.0
 40
1.0
 40
1.0
 10
-29.790600000000001
 20
34.950299999999999
 30
0.0
 10
-29.790600000000001
 20
35.610800000000005
 30
0.0
 10
-29.692400000000003
 20
36.283999999999999
 30
0.0
 10
-29.495900000000002
 20
36.9664
 30
0.0
 10
-29.495900000000002
 20
36.9664
 30
0.0
 10
-29.297500000000003
 20
37.648800000000001
 30
0.0
 10
-29.0791
 20
38.192799999999998
 30
0.0
 10
-28.837100000000003
 20
38.602200000000003
 30
0.0
 10
-28.837100000000003
 20
38.602200000000003
 30
0.0
 10
-28.595100000000002
 20
39.011600000000001
 30
0.0
 10
-28.344000000000001
 20
39.330100000000002
 30
0.0
 10
-28.085600000000003
 20
39.561100000000003
 30
0.0
 10
-28.085600000000003
 20
39.561100000000003
 30
0.0
 10
-27.825400000000002
 20
39.792200000000001
 30
0.0
 10
-27.570700000000002
 20
39.963300000000004
 30
0.0
 10
-27.319600000000001
 20
40.070700000000002
 30
0.0
 10
-27.319600000000001
 20
40.070700000000002
 30
0.0
 10
-27.0702
 20
40.179900000000004
 30
0.0
 10
-26.791800000000002
 20
40.234400000000001
 30
0.0
 10
-26.4862
 20
40.234400000000001
 30
0.0
 10
-26.4862
 20
40.234400000000001
 30
0.0
 10
-25.889300000000002
 20
40.234400000000001
 30
0.0
 10
-25.390800000000002
 20
40.010600000000004
 30
0.0
 10
-24.990400000000001
 20
39.566600000000001
 30
0.0
 10
-24.990400000000001
 20
39.566600000000001
 30
0.0
 10
-24.5901
 20
39.122599999999998
 30
0.0
 10
-24.390000000000001
 20
38.482100000000003
 30
0.0
 10
-24.390000000000001
 20
37.643300000000004
 30
0.0
 10
-24.390000000000001
 20
37.643300000000004
 30
0.0
 10
-24.390000000000001
 20
36.779000000000003
 30
0.0
 10
-24.530100000000001
 20
35.923700000000004
 30
0.0
 10
-24.8066
 20
35.0794
 30
0.0
 10
-24.8066
 20
35.0794
 30
0.0
 10
-25.1342
 20
34.076799999999999
 30
0.0
 10
-25.589100000000002
 20
33.325299999999999
 30
0.0
 10
-26.171300000000002
 20
32.823100000000004
 30
0.0
 10
-26.171300000000002
 20
32.823100000000004
 30
0.0
 10
-26.619
 20
32.442799999999998
 30
0.0
 10
-27.128500000000003
 20
32.253500000000003
 30
0.0
 10
-27.701600000000003
 20
32.253500000000003
 30
0.0
 10
-27.701600000000003
 20
32.253500000000003
 30
0.0
 10
-28.287600000000001
 20
32.253500000000003
 30
0.0
 10
-28.782500000000002
 20
32.482800000000005
 30
0.0
 10
-29.186400000000003
 20
32.943200000000004
 30
0.0
 10
-29.186400000000003
 20
32.943200000000004
 30
0.0
 10
-29.588600000000003
 20
33.403600000000004
 30
0.0
 10
-29.790600000000001
 20
34.0732
 30
0.0
 10
-29.790600000000001
 20
34.950299999999999
 30
0.0
  0
SPLINE
  5
27
100
AcDbEntity
  8
Ebene 1
100
AcDbSpline
210
0.0
220
0.0
230
1.0
 70
     1
 71
     3
 72
    48
 73
    44
 74
     0
 42
0.0000000001
 43
0.0000000001
 40
0.0
 40
0.0
 40
0.0
 40
0.0
 40
0.0909090909090909
 40
0.0909090909090909
 40
0.0909090909090909
 40
0.0909090909090909
 40
0.1818181818181818
 40
0.1818181818181818
 40
0.1818181818181818
 40
0.1818181818181818
 40
0.2727272727272727
 40
0.2727272727272727
 40
0.2727272727272727
 40
0.2727272727272727
 40
0.3636363636363637
 40
0.3636363636363637
 40
0.3636363636363637
 40
0.3636363636363637
 40
0.4545454545454546
 40
0.4545454545454546
 40
0.4545454545454546
 40
0.4545454545454546
 40
0.5454545454545455
 40
0.5454545454545455
 40
0.5454545454545455
 40
0.5454545454545455
 40
0.6363636363636365
 40
0.6363636363636365
 40
0.6363636363636365
 40
0.6363636363636365
 40
0.7272727272727274
 40
0.7272727272727274
 40
0.7272727272727274
 40
0.7272727272727274
 40
0.8181818181818183
 40
0.8181818181818183
 40
0.8181818181818183
 40
0.8181818181818183
 40
0.9090909090909093
 40
0.9090909090909093
 40
0.9090909090909093
 40
0.9090909090909093
 40
1.0
 40
1.0
 40
1.0
 40
1.0
 10
-28.857200000000002
 20
34.704599999999999
 30
0.0
 10
-28.857200000000002
 20
34.225999999999999
 30
0.0
 10
-28.7789
 20
33.851100000000002
 30
0.0
 10
-28.6188
 20
33.579999999999998
 30
0.0
 10
-28.6188
 20
33.579999999999998
 30
0.0
 10
-28.402200000000001
 20
33.207000000000001
 30
0.0
 10
-28.080100000000002
 20
33.0214
 30
0.0
 10
-27.6525
 20
33.0214
 30
0.0
 10
-27.6525
 20
33.0214
 30
0.0
 10
-27.279500000000002
 20
33.0214
 30
0.0
 10
-26.941100000000002
 20
33.188900000000004
 30
0.0
 10
-26.635400000000001
 20
33.527300000000004
 30
0.0
 10
-26.635400000000001
 20
33.527300000000004
 30
0.0
 10
-26.195
 20
34.004000000000005
 30
0.0
 10
-25.862000000000002
 20
34.701000000000001
 30
0.0
 10
-25.640000000000001
 20
35.619800000000005
 30
0.0
 10
-25.640000000000001
 20
35.619800000000005
 30
0.0
 10
-25.418100000000003
 20
36.538699999999999
 30
0.0
 10
-25.307000000000002
 20
37.288499999999999
 30
0.0
 10
-25.307000000000002
 20
37.872500000000002
 30
0.0
 10
-25.307000000000002
 20
37.872500000000002
 30
0.0
 10
-25.307000000000002
 20
38.433
 30
0.0
 10
-25.414400000000001
 20
38.838799999999999
 30
0.0
 10
-25.6309
 20
39.088100000000004
 30
0.0
 10
-25.6309
 20
39.088100000000004
 30
0.0
 10
-25.845700000000001
 20
39.335500000000003
 30
0.0
 10
-26.127700000000001
 20
39.461100000000002
 30
0.0
 10
-26.480700000000002
 20
39.461100000000002
 30
0.0
 10
-26.480700000000002
 20
39.461100000000002
 30
0.0
 10
-26.735400000000002
 20
39.461100000000002
 30
0.0
 10
-26.9757
 20
39.395600000000002
 30
0.0
 10
-27.197700000000001
 20
39.262700000000002
 30
0.0
 10
-27.197700000000001
 20
39.262700000000002
 30
0.0
 10
-27.419600000000003
 20
39.131700000000002
 30
0.0
 10
-27.6326
 20
38.906100000000002
 30
0.0
 10
-27.834500000000002
 20
38.585900000000002
 30
0.0
 10
-27.834500000000002
 20
38.585900000000002
 30
0.0
 10
-28.122
 20
38.134599999999999
 30
0.0
 10
-28.373100000000001
 20
37.459499999999998
 30
0.0
 10
-28.586000000000002
 20
36.560600000000001
 30
0.0
 10
-28.586000000000002
 20
36.560600000000001
 30
0.0
 10
-28.768000000000001
 20
35.792700000000004
 30
0.0
 10
-28.857200000000002
 20
35.173999999999999
 30
0.0
 10
-28.857200000000002
 20
34.704599999999999
 30
0.0
  0
SPLINE
  5
28
100
AcDbEntity
  8
Ebene 1
100
AcDbSpline
210
0.0
220
0.0
230
1.0
 70
     1
 71
     3
 72
    52
 73
    48
 74
     0
 42
0.0000000001
 43
0.0000000001
 40
0.0
 40
0.0
 40
0.0
 40
0.0
 40
0.0833333333333333
 40
0.0833333333333333
 40
0.0833333333333333
 40
0.0833333333333333
 40
0.1666666666666667
 40
0.1666666666666667
 40
0.1666666666666667
 40
0.1666666666666667
 40
0.25
 40
0.25
 40
0.25
 40
0.25
 40
0.3333333333333333
 40
0.3333333333333333
 40
0.3333333333333333
 40
0.3333333333333333
 40
0.4166666666666666
 40
0.4166666666666666
 40
0.4166666666666666
 40
0.4166666666666666
 40
0.4999999999999999
 40
0.4999999999999999
 40
0.4999999999999999
 40
0.4999999999999999
 40
0.5833333333333333
 40
0.5833333333333333
 40
0.5833333333333333
 40
0.5833333333333333
 40
0.6666666666666666
 40
0.6666666666666666
 40
0.6666666666666666
 40
0.6666666666666666
 40
0.75
 40
0.75
 40
0.75
 40
0.75
 40
0.8333333333333334
 40
0.8333333333333334
 40
0.8333333333333334
 40
0.8333333333333334
 40
0.9166666666666667
 40
0.9166666666666667
 40
0.9166666666666667
 40
0.9166666666666667
 40
1.0
 40
1.0
 40
1.0
 40
1.0
 10
-23.718600000000002
 20
34.950299999999999
 30
0.0
 10
-23.718600000000002
 20
35.610800000000005
 30
0.0
 10
-23.6203
 20
36.283999999999999
 30
0.0
 10
-23.4238
 20
36.9664
 30
0.0
 10
-23.4238
 20
36.9664
 30
0.0
 10
-23.2254
 20
37.648800000000001
 30
0.0
 10
-23.007100000000001
 20
38.192799999999998
 30
0.0
 10
-22.765000000000001
 20
38.602200000000003
 30
0.0
 10
-22.765000000000001
 20
38.602200000000003
 30
0.0
 10
-22.523
 20
39.011600000000001
 30
0.0
 10
-22.271900000000002
 20
39.330100000000002
 30
0.0
 10
-22.0136
 20
39.561100000000003
 30
0.0
 10
-22.0136
 20
39.561100000000003
 30
0.0
 10
-21.753400000000003
 20
39.792200000000001
 30
0.0
 10
-21.4986
 20
39.963300000000004
 30
0.0
 10
-21.247500000000002
 20
40.070700000000002
 30
0.0
 10
-21.247500000000002
 20
40.070700000000002
 30
0.0
 10
-20.998200000000001
 20
40.179900000000004
 30
0.0
 10
-20.719799999999999
 20
40.234400000000001
 30
0.0
 10
-20.414100000000001
 20
40.234400000000001
 30
0.0
 10
-20.414100000000001
 20
40.234400000000001
 30
0.0
 10
-19.817299999999999
 20
40.234400000000001
 30
0.0
 10
-19.3187
 20
40.010600000000004
 30
0.0
 10
-18.918400000000002
 20
39.566600000000001
 30
0.0
 10
-18.918400000000002
 20
39.566600000000001
 30
0.0
 10
-18.5181
 20
39.122599999999998
 30
0.0
 10
-18.317900000000002
 20
38.482100000000003
 30
0.0
 10
-18.317900000000002
 20
37.643300000000004
 30
0.0
 10
-18.317900000000002
 20
37.643300000000004
 30
0.0
 10
-18.317900000000002
 20
36.779000000000003
 30
0.0
 10
-18.458000000000002
 20
35.923700000000004
 30
0.0
 10
-18.734500000000001
 20
35.0794
 30
0.0
 10
-18.734500000000001
 20
35.0794
 30
0.0
 10
-19.062100000000001
 20
34.076799999999999
 30
0.0
 10
-19.516999999999999
 20
33.325299999999999
 30
0.0
 10
-20.099299999999999
 20
32.823100000000004
 30
0.0
 10
-20.099299999999999
 20
32.823100000000004
 30
0.0
 10
-20.546900000000001
 20
32.442799999999998
 30
0.0
 10
-21.0564
 20
32.253500000000003
 30
0.0
 10
-21.6296
 20
32.253500000000003
 30
0.0
 10
-21.6296
 20
32.253500000000003
 30
0.0
 10
-22.215500000000002
 20
32.253500000000003
 30
0.0
 10
-22.7104
 20
32.482800000000005
 30
0.0
 10
-23.1144
 20
32.943200000000004
 30
0.0
 10
-23.1144
 20
32.943200000000004
 30
0.0
 10
-23.516500000000001
 20
33.403600000000004
 30
0.0
 10
-23.718600000000002
 20
34.0732
 30
0.0
 10
-23.718600000000002
 20
34.950299999999999
 30
0.0
  0
SPLINE
  5
29
100
AcDbEntity
  8
Ebene 1
100
AcDbSpline
210
0.0
220
0.0
230
1.0
 70
     1
 71
     3
 72
    48
 73
    44
 74
     0
 42
0.0000000001
 43
0.0000000001
 40
0.0
 40
0.0
 40
0.0
 40
0.0
 40
0.0909090909090909
 40
0.0909090909090909
 40
0.0909090909090909
 40
0.0909090909090909
 40
0.1818181818181818
 40
0.1818181818181818
 40
0.1818181818181818
 40
0.1818181818181818
 40
0.2727272727272727
 40
0.2727272727272727
 40
0.2727272727272727
 40
0.2727272727272727
 40
0.3636363636363637
 40
0.3636363636363637
 40
0.3636363636363637
 40
0.3636363636363637
 40
0.4545454545454546
 40
0.4545454545454546
 40
0.4545454545454546
 40
0.4545454545454546
 40
0.5454545454545455
 40
0.5454545454545455
 40
0.5454545454545455
 40
0.5454545454545455
 40
0.6363636363636365
 40
0.6363636363636365
 40
0.6363636363636365
 40
0.6363636363636365
 40
0.7272727272727274
 40
0.7272727272727274
 40
0.7272727272727274
 40
0.7272727272727274
 40
0.8181818181818183
 40
0.8181818181818183
 40
0.8181818181818183
 40
0.8181818181818183
 40
0.9090909090909093
 40
0.9090909090909093
 40
0.9090909090909093
 40
0.9090909090909093
 40
1.0
 40
1.0
 40
1.0
 40
1.0
 10
-22.7851
 20
34.704599999999999
 30
0.0
 10
-22.7851
 20
34.225999999999999
 30
0.0
 10
-22.706800000000001
 20
33.851100000000002
 30
0.0
 10
-22.546700000000001
 20
33.579999999999998
 30
0.0
 10
-22.546700000000001
 20
33.579999999999998
 30
0.0
 10
-22.330200000000001
 20
33.207000000000001
 30
0.0
 10
-22.008100000000002
 20
33.0214
 30
0.0
 10
-21.580400000000001
 20
33.0214
 30
0.0
 10
-21.580400000000001
 20
33.0214
 30
0.0
 10
-21.2074
 20
33.0214
 30
0.0
 10
-20.869
 20
33.188900000000004
 30
0.0
 10
-20.563300000000002
 20
33.527300000000004
 30
0.0
 10
-20.563300000000002
 20
33.527300000000004
 30
0.0
 10
-20.122900000000001
 20
34.004000000000005
 30
0.0
 10
-19.789899999999999
 20
34.701000000000001
 30
0.0
 10
-19.568000000000001
 20
35.619800000000005
 30
0.0
 10
-19.568000000000001
 20
35.619800000000005
 30
0.0
 10
-19.346
 20
36.538699999999999
 30
0.0
 10
-19.234999999999999
 20
37.288499999999999
 30
0.0
 10
-19.234999999999999
 20
37.872500000000002
 30
0.0
 10
-19.234999999999999
 20
37.872500000000002
 30
0.0
 10
-19.234999999999999
 20
38.433
 30
0.0
 10
-19.342400000000001
 20
38.838799999999999
 30
0.0
 10
-19.558800000000002
 20
39.088100000000004
 30
0.0
 10
-19.558800000000002
 20
39.088100000000004
 30
0.0
 10
-19.773600000000002
 20
39.335500000000003
 30
0.0
 10
-20.055600000000002
 20
39.461100000000002
 30
0.0
 10
-20.4086
 20
39.461100000000002
 30
0.0
 10
-20.4086
 20
39.461100000000002
 30
0.0
 10
-20.663399999999999
 20
39.461100000000002
 30
0.0
 10
-20.903600000000001
 20
39.395600000000002
 30
0.0
 10
-21.125600000000002
 20
39.262700000000002
 30
0.0
 10
-21.125600000000002
 20
39.262700000000002
 30
0.0
 10
-21.3476
 20
39.131700000000002
 30
0.0
 10
-21.560500000000001
 20
38.906100000000002
 30
0.0
 10
-21.7624
 20
38.585900000000002
 30
0.0
 10
-21.7624
 20
38.585900000000002
 30
0.0
 10
-22.049900000000001
 20
38.134599999999999
 30
0.0
 10
-22.301100000000002
 20
37.459499999999998
 30
0.0
 10
-22.5139
 20
36.560600000000001
 30
0.0
 10
-22.5139
 20
36.560600000000001
 30
0.0
 10
-22.695900000000002
 20
35.792700000000004
 30
0.0
 10
-22.7851
 20
35.173999999999999
 30
0.0
 10
-22.7851
 20
34.704599999999999
 30
0.0
  0
SPLINE
  5
2A
100
AcDbEntity
  8
Ebene 1
100
AcDbSpline
210
0.0
220
0.0
230
1.0
 70
     1
 71
     3
 72
    44
 73
    40
 74
     0
 42
0.0000000001
 43
0.0000000001
 40
0.0
 40
0.0
 40
0.0
 40
0.0
 40
0.1
 40
0.1
 40
0.1
 40
0.1
 40
0.2
 40
0.2
 40
0.2
 40
0.2
 40
0.3
 40
0.3
 40
0.3
 40
0.3
 40
0.4
 40
0.4
 40
0.4
 40
0.4
 40
0.5
 40
0.5
 40
0.5
 40
0.5
 40
0.6
 40
0.6
 40
0.6
 40
0.6
 40
0.7
 40
0.7
 40
0.7
 40
0.7
 40
0.7999999999999999
 40
0.7999999999999999
 40
0.7999999999999999
 40
0.7999999999999999
 40
0.8999999999999999
 40
0.8999999999999999
 40
0.8999999999999999
 40
0.8999999999999999
 40
1.0
 40
1.0
 40
1.0
 40
1.0
 10
-61.349200000000003
 20
-0.6425000000000001
 30
0.0
 10
-61.875100000000003
 20
-0.5570000000000001
 30
0.0
 10
-62.508300000000006
 20
-0.375
 30
0.0
 10
-63.247100000000003
 20
-0.0984
 30
0.0
 10
-63.247100000000003
 20
-0.0984
 30
0.0
 10
-64.1387
 20
0.2327
 30
0.0
 10
-65.024900000000002
 20
0.6659000000000001
 30
0.0
 10
-65.903800000000004
 20
1.2027000000000001
 30
0.0
 10
-65.903800000000004
 20
1.2027000000000001
 30
0.0
 10
-66.784500000000008
 20
1.7394000000000001
 30
0.0
 10
-67.539600000000007
 20
2.3363
 30
0.0
 10
-68.172800000000009
 20
2.9932000000000003
 30
0.0
 10
-68.172800000000009
 20
2.9932000000000003
 30
0.0
 10
-68.172800000000009
 20
2.9932000000000003
 30
0.0
 10
-68.172800000000009
 20
-0.9027000000000001
 30
0.0
 10
-68.172800000000009
 20
-0.9027000000000001
 30
0.0
 10
-68.172800000000009
 20
-0.9027000000000001
 30
0.0
 10
-68.172800000000009
 20
-0.9027000000000001
 30
0.0
 10
-69.057100000000005
 20
-0.7170000000000001
 30
0.0
 10
-69.057100000000005
 20
-0.7170000000000001
 30
0.0
 10
-69.057100000000005
 20
-0.7170000000000001
 30
0.0
 10
-69.057100000000005
 20
-0.7170000000000001
 30
0.0
 10
-69.057100000000005
 20
4.2724000000000002
 30
0.0
 10
-69.057100000000005
 20
4.2724000000000002
 30
0.0
 10
-69.057100000000005
 20
4.2724000000000002
 30
0.0
 10
-69.057100000000005
 20
4.2724000000000002
 30
0.0
 10
-68.172800000000009
 20
4.0922000000000001
 30
0.0
 10
-68.172800000000009
 20
4.0922000000000001
 30
0.0
 10
-68.172800000000009
 20
4.0922000000000001
 30
0.0
 10
-67.430400000000006
 20
3.2461000000000002
 30
0.0
 10
-66.471500000000006
 20
2.5073000000000003
 30
0.0
 10
-65.299700000000001
 20
1.8741000000000001
 30
0.0
 10
-65.299700000000001
 20
1.8741000000000001
 30
0.0
 10
-63.945900000000002
 20
1.139
 30
0.0
 10
-62.628500000000003
 20
0.6349
 30
0.0
 10
-61.349200000000003
 20
0.3656
 30
0.0
 10
-61.349200000000003
 20
0.3656
 30
0.0
 10
-61.349200000000003
 20
0.3656
 30
0.0
 10
-61.349200000000003
 20
-0.6425000000000001
 30
0.0
 10
-61.349200000000003
 20
-0.6425000000000001
 30
0.0
  0
SPLINE
  5
2B
100
AcDbEntity
  8
Ebene 1
100
AcDbSpline
210
0.0
220
0.0
230
1.0
 70
     1
 71
     3
 72
    76
 73
    72
 74
     0
 42
0.0000000001
 43
0.0000000001
 40
0.0
 40
0.0
 40
0.0
 40
0.0
 40
0.0555555555555556
 40
0.0555555555555556
 40
0.0555555555555556
 40
0.0555555555555556
 40
0.1111111111111111
 40
0.1111111111111111
 40
0.1111111111111111
 40
0.1111111111111111
 40
0.1666666666666667
 40
0.1666666666666667
 40
0.1666666666666667
 40
0.1666666666666667
 40
0.2222222222222222
 40
0.2222222222222222
 40
0.2222222222222222
 40
0.2222222222222222
 40
0.2777777777777778
 40
0.2777777777777778
 40
0.2777777777777778
 40
0.2777777777777778
 40
0.3333333333333334
 40
0.3333333333333334
 40
0.3333333333333334
 40
0.3333333333333334
 40
0.388888888888889
 40
0.388888888888889
 40
0.388888888888889
 40
0.388888888888889
 40
0.4444444444444445
 40
0.4444444444444445
 40
0.4444444444444445
 40
0.4444444444444445
 40
0.5000000000000001
 40
0.5000000000000001
 40
0.5000000000000001
 40
0.5000000000000001
 40
0.5555555555555557
 40
0.5555555555555557
 40
0.5555555555555557
 40
0.5555555555555557
 40
0.6111111111111113
 40
0.6111111111111113
 40
0.6111111111111113
 40
0.6111111111111113
 40
0.6666666666666669
 40
0.6666666666666669
 40
0.6666666666666669
 40
0.6666666666666669
 40
0.7222222222222224
 40
0.7222222222222224
 40
0.7222222222222224
 40
0.7222222222222224
 40
0.777777777777778
 40
0.777777777777778
 40
0.777777777777778
 40
0.777777777777778
 40
0.8333333333333336
 40
0.8333333333333336
 40
0.8333333333333336
 40
0.8333333333333336
 40
0.8888888888888892
 40
0.8888888888888892
 40
0.8888888888888892
 40
0.8888888888888892
 40
0.9444444444444448
 40
0.9444444444444448
 40
0.9444444444444448
 40
0.9444444444444448
 40
1.0
 40
1.0
 40
1.0
 40
1.0
 10
-41.521900000000002
 20
-15.6364
 30
0.0
 10
-42.069600000000001
 20
-14.986800000000001
 30
0.0
 10
-42.342500000000001
 20
-14.1608
 30
0.0
 10
-42.342500000000001
 20
-13.158100000000001
 30
0.0
 10
-42.342500000000001
 20
-13.158100000000001
 30
0.0
 10
-42.342500000000001
 20
-12.4794
 30
0.0
 10
-42.213300000000004
 20
-11.829800000000001
 30
0.0
 10
-41.953099999999999
 20
-11.213000000000001
 30
0.0
 10
-41.953099999999999
 20
-11.213000000000001
 30
0.0
 10
-41.740200000000002
 20
-10.6998
 30
0.0
 10
-41.460000000000001
 20
-10.259500000000001
 30
0.0
 10
-41.1143
 20
-9.8882000000000012
 30
0.0
 10
-41.1143
 20
-9.8882000000000012
 30
0.0
 10
-40.7667
 20
-9.5170000000000012
 30
0.0
 10
-40.390100000000004
 20
-9.2294999999999998
 30
0.0
 10
-39.980600000000003
 20
-9.0257000000000005
 30
0.0
 10
-39.980600000000003
 20
-9.0257000000000005
 30
0.0
 10
-39.436599999999999
 20
-8.7565000000000008
 30
0.0
 10
-38.852400000000003
 20
-8.6218000000000004
 30
0.0
 10
-38.226500000000001
 20
-8.6218000000000004
 30
0.0
 10
-38.226500000000001
 20
-8.6218000000000004
 30
0.0
 10
-37.423999999999999
 20
-8.6218000000000004
 30
0.0
 10
-36.7453
 20
-8.8292000000000002
 30
0.0
 10
-36.190400000000004
 20
-9.2459000000000007
 30
0.0
 10
-36.190400000000004
 20
-9.2459000000000007
 30
0.0
 10
-36.190400000000004
 20
-9.2459000000000007
 30
0.0
 10
-35.338799999999999
 20
-8.2215000000000007
 30
0.0
 10
-35.338799999999999
 20
-8.2215000000000007
 30
0.0
 10
-35.338799999999999
 20
-8.2215000000000007
 30
0.0
 10
-35.338799999999999
 20
-8.2215000000000007
 30
0.0
 10
-34.863900000000001
 20
-8.6436000000000011
 30
0.0
 10
-34.863900000000001
 20
-8.6436000000000011
 30
0.0
 10
-34.863900000000001
 20
-8.6436000000000011
 30
0.0
 10
-34.863900000000001
 20
-8.6436000000000011
 30
0.0
 10
-35.726400000000005
 20
-9.6826000000000008
 30
0.0
 10
-35.726400000000005
 20
-9.6826000000000008
 30
0.0
 10
-35.726400000000005
 20
-9.6826000000000008
 30
0.0
 10
-35.180500000000002
 20
-10.3086
 30
0.0
 10
-34.905700000000003
 20
-11.131
 30
0.0
 10
-34.905700000000003
 20
-12.1501
 30
0.0
 10
-34.905700000000003
 20
-12.1501
 30
0.0
 10
-34.905700000000003
 20
-12.887
 30
0.0
 10
-35.056699999999999
 20
-13.576600000000001
 30
0.0
 10
-35.358800000000002
 20
-14.224400000000001
 30
0.0
 10
-35.358800000000002
 20
-14.224400000000001
 30
0.0
 10
-35.5899
 20
-14.717500000000001
 30
0.0
 10
-35.882800000000003
 20
-15.141500000000001
 30
0.0
 10
-36.2395
 20
-15.496300000000002
 30
0.0
 10
-36.2395
 20
-15.496300000000002
 30
0.0
 10
-36.594300000000004
 20
-15.849400000000001
 30
0.0
 10
-36.972799999999999
 20
-16.124100000000002
 30
0.0
 10
-37.374900000000004
 20
-16.3188
 30
0.0
 10
-37.374900000000004
 20
-16.3188
 30
0.0
 10
-37.908100000000005
 20
-16.575400000000002
 30
0.0
 10
-38.472200000000001
 20
-16.7028
 30
0.0
 10
-39.069000000000003
 20
-16.7028
 30
0.0
 10
-39.069000000000003
 20
-16.7028
 30
0.0
 10
-39.822299999999998
 20
-16.7028
 30
0.0
 10
-40.482900000000001
 20
-16.4953
 30
0.0
 10
-41.047000000000004
 20
-16.078600000000002
 30
0.0
 10
-41.047000000000004
 20
-16.078600000000002
 30
0.0
 10
-41.047000000000004
 20
-16.078600000000002
 30
0.0
 10
-41.905799999999999
 20
-17.119500000000002
 30
0.0
 10
-41.905799999999999
 20
-17.119500000000002
 30
0.0
 10
-41.905799999999999
 20
-17.119500000000002
 30
0.0
 10
-41.905799999999999
 20
-17.119500000000002
 30
0.0
 10
-42.411700000000003
 20
-16.697300000000002
 30
0.0
 10
-42.411700000000003
 20
-16.697300000000002
 30
0.0
 10
-42.411700000000003
 20
-16.697300000000002
 30
0.0
 10
-42.411700000000003
 20
-16.697300000000002
 30
0.0
 10
-41.521900000000002
 20
-15.6364
 30
0.0
 10
-41.521900000000002
 20
-15.6364
 30
0.0
  0
SPLINE
  5
2C
100
AcDbEntity
  8
Ebene 1
100
AcDbSpline
210
0.0
220
0.0
230
1.0
 70
     1
 71
     3
 72
    28
 73
    24
 74
     0
 42
0.0000000001
 43
0.0000000001
 40
0.0
 40
0.0
 40
0.0
 40
0.0
 40
0.1666666666666667
 40
0.1666666666666667
 40
0.1666666666666667
 40
0.1666666666666667
 40
0.3333333333333333
 40
0.3333333333333333
 40
0.3333333333333333
 40
0.3333333333333333
 40
0.5
 40
0.5
 40
0.5
 40
0.5
 40
0.6666666666666666
 40
0.6666666666666666
 40
0.6666666666666666
 40
0.6666666666666666
 40
0.8333333333333333
 40
0.8333333333333333
 40
0.8333333333333333
 40
0.8333333333333333
 40
1.0
 40
1.0
 40
1.0
 40
1.0
 10
-40.875900000000001
 20
-14.863100000000001
 30
0.0
 10
-40.875900000000001
 20
-14.863100000000001
 30
0.0
 10
-36.814500000000002
 20
-9.9920000000000009
 30
0.0
 10
-36.814500000000002
 20
-9.9920000000000009
 30
0.0
 10
-36.814500000000002
 20
-9.9920000000000009
 30
0.0
 10
-37.220199999999998
 20
-9.6570999999999998
 30
0.0
 10
-37.682500000000005
 20
-9.4898000000000007
 30
0.0
 10
-38.201100000000004
 20
-9.4898000000000007
 30
0.0
 10
-38.201100000000004
 20
-9.4898000000000007
 30
0.0
 10
-38.723300000000002
 20
-9.4898000000000007
 30
0.0
 10
-39.2273
 20
-9.6445000000000007
 30
0.0
 10
-39.715000000000003
 20
-9.9538000000000011
 30
0.0
 10
-39.715000000000003
 20
-9.9538000000000011
 30
0.0
 10
-40.200800000000001
 20
-10.2631
 30
0.0
 10
-40.590200000000003
 20
-10.7143
 30
0.0
 10
-40.881399999999999
 20
-11.307500000000001
 30
0.0
 10
-40.881399999999999
 20
-11.307500000000001
 30
0.0
 10
-41.174300000000002
 20
-11.902600000000001
 30
0.0
 10
-41.319800000000001
 20
-12.5395
 30
0.0
 10
-41.319800000000001
 20
-13.2218
 30
0.0
 10
-41.319800000000001
 20
-13.2218
 30
0.0
 10
-41.319800000000001
 20
-13.8787
 30
0.0
 10
-41.172499999999999
 20
-14.426400000000001
 30
0.0
 10
-40.875900000000001
 20
-14.863100000000001
 30
0.0
  0
SPLINE
  5
2D
100
AcDbEntity
  8
Ebene 1
100
AcDbSpline
210
0.0
220
0.0
230
1.0
 70
     1
 71
     3
 72
    32
 73
    28
 74
     0
 42
0.0000000001
 43
0.0000000001
 40
0.0
 40
0.0
 40
0.0
 40
0.0
 40
0.1428571428571429
 40
0.1428571428571429
 40
0.1428571428571429
 40
0.1428571428571429
 40
0.2857142857142857
 40
0.2857142857142857
 40
0.2857142857142857
 40
0.2857142857142857
 40
0.4285714285714286
 40
0.4285714285714286
 40
0.4285714285714286
 40
0.4285714285714286
 40
0.5714285714285714
 40
0.5714285714285714
 40
0.5714285714285714
 40
0.5714285714285714
 40
0.7142857142857142
 40
0.7142857142857142
 40
0.7142857142857142
 40
0.7142857142857142
 40
0.857142857142857
 40
0.857142857142857
 40
0.857142857142857
 40
0.857142857142857
 40
1.0
 40
1.0
 40
1.0
 40
1.0
 10
-36.377800000000001
 20
-10.465
 30
0.0
 10
-36.377800000000001
 20
-10.465
 30
0.0
 10
-40.428200000000004
 20
-15.338000000000001
 30
0.0
 10
-40.428200000000004
 20
-15.338000000000001
 30
0.0
 10
-40.428200000000004
 20
-15.338000000000001
 30
0.0
 10
-39.998800000000003
 20
-15.672800000000001
 30
0.0
 10
-39.5184
 20
-15.840200000000001
 30
0.0
 10
-38.988900000000001
 20
-15.840200000000001
 30
0.0
 10
-38.988900000000001
 20
-15.840200000000001
 30
0.0
 10
-38.5886
 20
-15.840200000000001
 30
0.0
 10
-38.206499999999998
 20
-15.7438
 30
0.0
 10
-37.842600000000004
 20
-15.554600000000001
 30
0.0
 10
-37.842600000000004
 20
-15.554600000000001
 30
0.0
 10
-37.480400000000003
 20
-15.3635
 30
0.0
 10
-37.156600000000005
 20
-15.0997
 30
0.0
 10
-36.870899999999999
 20
-14.759400000000001
 30
0.0
 10
-36.870899999999999
 20
-14.759400000000001
 30
0.0
 10
-36.5852
 20
-14.421000000000001
 30
0.0
 10
-36.3596
 20
-14.002400000000002
 30
0.0
 10
-36.194000000000003
 20
-13.5075
 30
0.0
 10
-36.194000000000003
 20
-13.5075
 30
0.0
 10
-36.028400000000005
 20
-13.0107
 30
0.0
 10
-35.9465
 20
-12.523100000000001
 30
0.0
 10
-35.9465
 20
-12.044500000000001
 30
0.0
 10
-35.9465
 20
-12.044500000000001
 30
0.0
 10
-35.9465
 20
-11.444000000000001
 30
0.0
 10
-36.090299999999999
 20
-10.918200000000001
 30
0.0
 10
-36.377800000000001
 20
-10.465
 30
0.0
  0
SPLINE
  5
2E
100
AcDbEntity
  8
Ebene 1
100
AcDbSpline
210
0.0
220
0.0
230
1.0
 70
     1
 71
     3
 72
    76
 73
    72
 74
     0
 42
0.0000000001
 43
0.0000000001
 40
0.0
 40
0.0
 40
0.0
 40
0.0
 40
0.0555555555555556
 40
0.0555555555555556
 40
0.0555555555555556
 40
0.0555555555555556
 40
0.1111111111111111
 40
0.1111111111111111
 40
0.1111111111111111
 40
0.1111111111111111
 40
0.1666666666666667
 40
0.1666666666666667
 40
0.1666666666666667
 40
0.1666666666666667
 40
0.2222222222222222
 40
0.2222222222222222
 40
0.2222222222222222
 40
0.2222222222222222
 40
0.2777777777777778
 40
0.2777777777777778
 40
0.2777777777777778
 40
0.2777777777777778
 40
0.3333333333333334
 40
0.3333333333333334
 40
0.3333333333333334
 40
0.3333333333333334
 40
0.388888888888889
 40
0.388888888888889
 40
0.388888888888889
 40
0.388888888888889
 40
0.4444444444444445
 40
0.4444444444444445
 40
0.4444444444444445
 40
0.4444444444444445
 40
0.5000000000000001
 40
0.5000000000000001
 40
0.5000000000000001
 40
0.5000000000000001
 40
0.5555555555555557
 40
0.5555555555555557
 40
0.5555555555555557
 40
0.5555555555555557
 40
0.6111111111111113
 40
0.6111111111111113
 40
0.6111111111111113
 40
0.6111111111111113
 40
0.6666666666666669
 40
0.6666666666666669
 40
0.6666666666666669
 40
0.6666666666666669
 40
0.7222222222222224
 40
0.7222222222222224
 40
0.7222222222222224
 40
0.7222222222222224
 40
0.777777777777778
 40
0.777777777777778
 40
0.777777777777778
 40
0.777777777777778
 40
0.8333333333333336
 40
0.8333333333333336
 40
0.8333333333333336
 40
0.8333333333333336
 40
0.8888888888888892
 40
0.8888888888888892
 40
0.8888888888888892
 40
0.8888888888888892
 40
0.9444444444444448
 40
0.9444444444444448
 40
0.9444444444444448
 40
0.9444444444444448
 40
1.0
 40
1.0
 40
1.0
 40
1.0
 10
-34.112400000000001
 20
-14.779400000000001
 30
0.0
 10
-34.112400000000001
 20
-14.779400000000001
 30
0.0
 10
-33.206099999999999
 20
-14.688400000000001
 30
0.0
 10
-33.206099999999999
 20
-14.688400000000001
 30
0.0
 10
-33.206099999999999
 20
-14.688400000000001
 30
0.0
 10
-33.144300000000001
 20
-15.125100000000002
 30
0.0
 10
-33.020499999999998
 20
-15.436300000000001
 30
0.0
 10
-32.833100000000002
 20
-15.6219
 30
0.0
 10
-32.833100000000002
 20
-15.6219
 30
0.0
 10
-32.643900000000002
 20
-15.805700000000002
 30
0.0
 10
-32.420100000000005
 20
-15.8985
 30
0.0
 10
-32.1599
 20
-15.8985
 30
0.0
 10
-32.1599
 20
-15.8985
 30
0.0
 10
-31.790500000000002
 20
-15.8985
 30
0.0
 10
-31.448400000000003
 20
-15.738300000000001
 30
0.0
 10
-31.131800000000002
 20
-15.418100000000001
 30
0.0
 10
-31.131800000000002
 20
-15.418100000000001
 30
0.0
 10
-30.665900000000001
 20
-14.948600000000001
 30
0.0
 10
-30.323900000000002
 20
-14.275400000000001
 30
0.0
 10
-30.1037
 20
-13.398300000000001
 30
0.0
 10
-30.1037
 20
-13.398300000000001
 30
0.0
 10
-30.425800000000002
 20
-13.6403
 30
0.0
 10
-30.7133
 20
-13.811400000000001
 30
0.0
 10
-30.964400000000001
 20
-13.915100000000001
 30
0.0
 10
-30.964400000000001
 20
-13.915100000000001
 30
0.0
 10
-31.213700000000003
 20
-14.018800000000001
 30
0.0
 10
-31.472000000000001
 20
-14.069800000000001
 30
0.0
 10
-31.734100000000002
 20
-14.069800000000001
 30
0.0
 10
-31.734100000000002
 20
-14.069800000000001
 30
0.0
 10
-32.210799999999999
 20
-14.069800000000001
 30
0.0
 10
-32.636600000000001
 20
-13.909600000000001
 30
0.0
 10
-33.013200000000005
 20
-13.589400000000001
 30
0.0
 10
-33.013200000000005
 20
-13.589400000000001
 30
0.0
 10
-33.511800000000001
 20
-13.1745
 30
0.0
 10
-33.759300000000003
 20
-12.5776
 30
0.0
 10
-33.759300000000003
 20
-11.7988
 30
0.0
 10
-33.759300000000003
 20
-11.7988
 30
0.0
 10
-33.759300000000003
 20
-10.918200000000001
 30
0.0
 10
-33.471800000000002
 20
-10.163
 30
0.0
 10
-32.896799999999999
 20
-9.5334000000000003
 30
0.0
 10
-32.896799999999999
 20
-9.5334000000000003
 30
0.0
 10
-32.401900000000005
 20
-8.9930000000000003
 30
0.0
 10
-31.795900000000003
 20
-8.7218999999999998
 30
0.0
 10
-31.079000000000001
 20
-8.7218999999999998
 30
0.0
 10
-31.079000000000001
 20
-8.7218999999999998
 30
0.0
 10
-30.4313
 20
-8.7218999999999998
 30
0.0
 10
-29.894500000000001
 20
-8.9621000000000013
 30
0.0
 10
-29.468600000000002
 20
-9.4406999999999996
 30
0.0
 10
-29.468600000000002
 20
-9.4406999999999996
 30
0.0
 10
-29.042900000000003
 20
-9.9173000000000009
 30
0.0
 10
-28.828100000000003
 20
-10.594200000000001
 30
0.0
 10
-28.828100000000003
 20
-11.467700000000001
 30
0.0
 10
-28.828100000000003
 20
-11.467700000000001
 30
0.0
 10
-28.828100000000003
 20
-12.317400000000001
 30
0.0
 10
-28.970000000000002
 20
-13.1563
 30
0.0
 10
-29.255800000000001
 20
-13.984200000000001
 30
0.0
 10
-29.255800000000001
 20
-13.984200000000001
 30
0.0
 10
-29.592400000000001
 20
-14.957800000000001
 30
0.0
 10
-30.049100000000003
 20
-15.676400000000001
 30
0.0
 10
-30.625900000000001
 20
-16.1387
 30
0.0
 10
-30.625900000000001
 20
-16.1387
 30
0.0
 10
-31.093500000000002
 20
-16.5153
 30
0.0
 10
-31.623100000000001
 20
-16.7028
 30
0.0
 10
-32.209000000000003
 20
-16.7028
 30
0.0
 10
-32.209000000000003
 20
-16.7028
 30
0.0
 10
-32.749400000000001
 20
-16.7028
 30
0.0
 10
-33.189799999999998
 20
-16.535299999999999
 30
0.0
 10
-33.533700000000003
 20
-16.198700000000002
 30
0.0
 10
-33.533700000000003
 20
-16.198700000000002
 30
0.0
 10
-33.875799999999998
 20
-15.863900000000001
 30
0.0
 10
-34.0687
 20
-15.3908
 30
0.0
 10
-34.112400000000001
 20
-14.779400000000001
 30
0.0
  0
SPLINE
  5
2F
100
AcDbEntity
  8
Ebene 1
100
AcDbSpline
210
0.0
220
0.0
230
1.0
 70
     1
 71
     3
 72
    52
 73
    48
 74
     0
 42
0.0000000001
 43
0.0000000001
 40
0.0
 40
0.0
 40
0.0
 40
0.0
 40
0.0833333333333333
 40
0.0833333333333333
 40
0.0833333333333333
 40
0.0833333333333333
 40
0.1666666666666667
 40
0.1666666666666667
 40
0.1666666666666667
 40
0.1666666666666667
 40
0.25
 40
0.25
 40
0.25
 40
0.25
 40
0.3333333333333333
 40
0.3333333333333333
 40
0.3333333333333333
 40
0.3333333333333333
 40
0.4166666666666666
 40
0.4166666666666666
 40
0.4166666666666666
 40
0.4166666666666666
 40
0.4999999999999999
 40
0.4999999999999999
 40
0.4999999999999999
 40
0.4999999999999999
 40
0.5833333333333333
 40
0.5833333333333333
 40
0.5833333333333333
 40
0.5833333333333333
 40
0.6666666666666666
 40
0.6666666666666666
 40
0.6666666666666666
 40
0.6666666666666666
 40
0.75
 40
0.75
 40
0.75
 40
0.75
 40
0.8333333333333334
 40
0.8333333333333334
 40
0.8333333333333334
 40
0.8333333333333334
 40
0.9166666666666667
 40
0.9166666666666667
 40
0.9166666666666667
 40
0.9166666666666667
 40
1.0
 40
1.0
 40
1.0
 40
1.0
 10
-32.827600000000004
 20
-11.686
 30
0.0
 10
-32.827600000000004
 20
-12.177300000000001
 30
0.0
 10
-32.696600000000004
 20
-12.5686
 30
0.0
 10
-32.434600000000003
 20
-12.8597
 30
0.0
 10
-32.434600000000003
 20
-12.8597
 30
0.0
 10
-32.174399999999999
 20
-13.1509
 30
0.0
 10
-31.863300000000002
 20
-13.2964
 30
0.0
 10
-31.504800000000003
 20
-13.2964
 30
0.0
 10
-31.504800000000003
 20
-13.2964
 30
0.0
 10
-31.2392
 20
-13.2964
 30
0.0
 10
-30.973500000000001
 20
-13.205400000000001
 30
0.0
 10
-30.711400000000001
 20
-13.025300000000001
 30
0.0
 10
-30.711400000000001
 20
-13.025300000000001
 30
0.0
 10
-30.447600000000001
 20
-12.843300000000001
 30
0.0
 10
-30.222000000000001
 20
-12.5722
 30
0.0
 10
-30.032700000000002
 20
-12.2119
 30
0.0
 10
-30.032700000000002
 20
-12.2119
 30
0.0
 10
-29.845300000000002
 20
-11.851700000000001
 30
0.0
 10
-29.750700000000002
 20
-11.480400000000001
 30
0.0
 10
-29.750700000000002
 20
-11.100100000000001
 30
0.0
 10
-29.750700000000002
 20
-11.100100000000001
 30
0.0
 10
-29.750700000000002
 20
-10.8017
 30
0.0
 10
-29.8125
 20
-10.5252
 30
0.0
 10
-29.938100000000002
 20
-10.268500000000001
 30
0.0
 10
-29.938100000000002
 20
-10.268500000000001
 30
0.0
 10
-30.061800000000002
 20
-10.012
 30
0.0
 10
-30.231100000000001
 20
-9.8209
 30
0.0
 10
-30.447600000000001
 20
-9.6898999999999997
 30
0.0
 10
-30.447600000000001
 20
-9.6898999999999997
 30
0.0
 10
-30.662300000000002
 20
-9.5607000000000006
 30
0.0
 10
-30.878800000000002
 20
-9.4952000000000005
 30
0.0
 10
-31.099
 20
-9.4952000000000005
 30
0.0
 10
-31.099
 20
-9.4952000000000005
 30
0.0
 10
-31.313700000000001
 20
-9.4952000000000005
 30
0.0
 10
-31.523000000000003
 20
-9.5534999999999997
 30
0.0
 10
-31.7286
 20
-9.6662999999999997
 30
0.0
 10
-31.7286
 20
-9.6662999999999997
 30
0.0
 10
-31.934200000000001
 20
-9.7809000000000008
 30
0.0
 10
-32.125300000000003
 20
-9.9465000000000003
 30
0.0
 10
-32.3018
 20
-10.166600000000001
 30
0.0
 10
-32.3018
 20
-10.166600000000001
 30
0.0
 10
-32.478300000000004
 20
-10.3887
 30
0.0
 10
-32.609300000000005
 20
-10.6416
 30
0.0
 10
-32.696600000000004
 20
-10.927200000000001
 30
0.0
 10
-32.696600000000004
 20
-10.927200000000001
 30
0.0
 10
-32.783999999999999
 20
-11.213000000000001
 30
0.0
 10
-32.827600000000004
 20
-11.465900000000001
 30
0.0
 10
-32.827600000000004
 20
-11.686
 30
0.0
  0
SPLINE
  5
30
100
AcDbEntity
  8
Ebene 1
100
AcDbSpline
210
0.0
220
0.0
230
1.0
 70
     1
 71
     3
 72
    40
 73
    36
 74
     0
 42
0.0000000001
 43
0.0000000001
 40
0.0
 40
0.0
 40
0.0
 40
0.0
 40
0.1111111111111111
 40
0.1111111111111111
 40
0.1111111111111111
 40
0.1111111111111111
 40
0.2222222222222222
 40
0.2222222222222222
 40
0.2222222222222222
 40
0.2222222222222222
 40
0.3333333333333333
 40
0.3333333333333333
 40
0.3333333333333333
 40
0.3333333333333333
 40
0.4444444444444444
 40
0.4444444444444444
 40
0.4444444444444444
 40
0.4444444444444444
 40
0.5555555555555556
 40
0.5555555555555556
 40
0.5555555555555556
 40
0.5555555555555556
 40
0.6666666666666667
 40
0.6666666666666667
 40
0.6666666666666667
 40
0.6666666666666667
 40
0.7777777777777779
 40
0.7777777777777779
 40
0.7777777777777779
 40
0.7777777777777779
 40
0.8888888888888891
 40
0.8888888888888891
 40
0.8888888888888891
 40
0.8888888888888891
 40
1.0
 40
1.0
 40
1.0
 40
1.0
 10
-26.1478
 20
-16.569900000000001
 30
0.0
 10
-26.1478
 20
-16.569900000000001
 30
0.0
 10
-24.910500000000003
 20
-10.668900000000001
 30
0.0
 10
-24.910500000000003
 20
-10.668900000000001
 30
0.0
 10
-24.910500000000003
 20
-10.668900000000001
 30
0.0
 10
-25.4437
 20
-11.087400000000001
 30
0.0
 10
-26.193300000000001
 20
-11.424000000000001
 30
0.0
 10
-27.159600000000001
 20
-11.677000000000001
 30
0.0
 10
-27.159600000000001
 20
-11.677000000000001
 30
0.0
 10
-27.159600000000001
 20
-11.677000000000001
 30
0.0
 10
-26.979400000000002
 20
-10.8017
 30
0.0
 10
-26.979400000000002
 20
-10.8017
 30
0.0
 10
-26.979400000000002
 20
-10.8017
 30
0.0
 10
-26.499000000000002
 20
-10.6106
 30
0.0
 10
-26.026
 20
-10.359500000000001
 30
0.0
 10
-25.558300000000003
 20
-10.0502
 30
0.0
 10
-25.558300000000003
 20
-10.0502
 30
0.0
 10
-25.090600000000002
 20
-9.7408999999999999
 30
0.0
 10
-24.7395
 20
-9.4715000000000007
 30
0.0
 10
-24.5047
 20
-9.2404000000000011
 30
0.0
 10
-24.5047
 20
-9.2404000000000011
 30
0.0
 10
-24.3628
 20
-9.0984999999999996
 30
0.0
 10
-24.228100000000001
 20
-8.9257000000000009
 30
0.0
 10
-24.1008
 20
-8.7218999999999998
 30
0.0
 10
-24.1008
 20
-8.7218999999999998
 30
0.0
 10
-24.1008
 20
-8.7218999999999998
 30
0.0
 10
-23.540300000000002
 20
-8.7218999999999998
 30
0.0
 10
-23.540300000000002
 20
-8.7218999999999998
 30
0.0
 10
-23.540300000000002
 20
-8.7218999999999998
 30
0.0
 10
-23.540300000000002
 20
-8.7218999999999998
 30
0.0
 10
-25.176100000000002
 20
-16.569900000000001
 30
0.0
 10
-25.176100000000002
 20
-16.569900000000001
 30
0.0
 10
-25.176100000000002
 20
-16.569900000000001
 30
0.0
 10
-25.176100000000002
 20
-16.569900000000001
 30
0.0
 10
-26.1478
 20
-16.569900000000001
 30
0.0
 10
-26.1478
 20
-16.569900000000001
 30
0.0
  0
SPLINE
  5
31
100
AcDbEntity
  8
Ebene 1
100
AcDbSpline
210
0.0
220
0.0
230
1.0
 70
     1
 71
     3
 72
    36
 73
    32
 74
     0
 42
0.0000000001
 43
0.0000000001
 40
0.0
 40
0.0
 40
0.0
 40
0.0
 40
0.125
 40
0.125
 40
0.125
 40
0.125
 40
0.25
 40
0.25
 40
0.25
 40
0.25
 40
0.375
 40
0.375
 40
0.375
 40
0.375
 40
0.5
 40
0.5
 40
0.5
 40
0.5
 40
0.625
 40
0.625
 40
0.625
 40
0.625
 40
0.75
 40
0.75
 40
0.75
 40
0.75
 40
0.875
 40
0.875
 40
0.875
 40
0.875
 40
1.0
 40
1.0
 40
1.0
 40
1.0
 10
-22.111900000000002
 20
-16.569900000000001
 30
0.0
 10
-22.111900000000002
 20
-16.569900000000001
 30
0.0
 10
-21.8826
 20
-15.4763
 30
0.0
 10
-21.8826
 20
-15.4763
 30
0.0
 10
-21.8826
 20
-15.4763
 30
0.0
 10
-21.8826
 20
-15.4763
 30
0.0
 10
-20.7836
 20
-15.4763
 30
0.0
 10
-20.7836
 20
-15.4763
 30
0.0
 10
-20.7836
 20
-15.4763
 30
0.0
 10
-20.7836
 20
-15.4763
 30
0.0
 10
-20.9819
 20
-16.431699999999999
 30
0.0
 10
-20.9819
 20
-16.431699999999999
 30
0.0
 10
-20.9819
 20
-16.431699999999999
 30
0.0
 10
-21.1021
 20
-17.003
 30
0.0
 10
-21.289400000000001
 20
-17.423300000000001
 30
0.0
 10
-21.5442
 20
-17.689
 30
0.0
 10
-21.5442
 20
-17.689
 30
0.0
 10
-21.7972
 20
-17.956500000000002
 30
0.0
 10
-22.097300000000001
 20
-18.109300000000001
 30
0.0
 10
-22.441300000000002
 20
-18.147600000000001
 30
0.0
 10
-22.441300000000002
 20
-18.147600000000001
 30
0.0
 10
-22.441300000000002
 20
-18.147600000000001
 30
0.0
 10
-22.3521
 20
-17.7272
 30
0.0
 10
-22.3521
 20
-17.7272
 30
0.0
 10
-22.3521
 20
-17.7272
 30
0.0
 10
-21.928100000000001
 20
-17.608900000000002
 30
0.0
 10
-21.649800000000003
 20
-17.223100000000002
 30
0.0
 10
-21.5151
 20
-16.569900000000001
 30
0.0
 10
-21.5151
 20
-16.569900000000001
 30
0.0
 10
-21.5151
 20
-16.569900000000001
 30
0.0
 10
-22.111900000000002
 20
-16.569900000000001
 30
0.0
 10
-22.111900000000002
 20
-16.569900000000001
 30
0.0
  0
SPLINE
  5
32
100
AcDbEntity
  8
Ebene 1
100
AcDbSpline
210
0.0
220
0.0
230
1.0
 70
     1
 71
     3
 72
   120
 73
   116
 74
     0
 42
0.0000000001
 43
0.0000000001
 40
0.0
 40
0.0
 40
0.0
 40
0.0
 40
0.0344827586206897
 40
0.0344827586206897
 40
0.0344827586206897
 40
0.0344827586206897
 40
0.0689655172413793
 40
0.0689655172413793
 40
0.0689655172413793
 40
0.0689655172413793
 40
0.103448275862069
 40
0.103448275862069
 40
0.103448275862069
 40
0.103448275862069
 40
0.1379310344827586
 40
0.1379310344827586
 40
0.1379310344827586
 40
0.1379310344827586
 40
0.1724137931034483
 40
0.1724137931034483
 40
0.1724137931034483
 40
0.1724137931034483
 40
0.206896551724138
 40
0.206896551724138
 40
0.206896551724138
 40
0.206896551724138
 40
0.2413793103448276
 40
0.2413793103448276
 40
0.2413793103448276
 40
0.2413793103448276
 40
0.2758620689655173
 40
0.2758620689655173
 40
0.2758620689655173
 40
0.2758620689655173
 40
0.310344827586207
 40
0.310344827586207
 40
0.310344827586207
 40
0.310344827586207
 40
0.3448275862068966
 40
0.3448275862068966
 40
0.3448275862068966
 40
0.3448275862068966
 40
0.3793103448275863
 40
0.3793103448275863
 40
0.3793103448275863
 40
0.3793103448275863
 40
0.413793103448276
 40
0.413793103448276
 40
0.413793103448276
 40
0.413793103448276
 40
0.4482758620689656
 40
0.4482758620689656
 40
0.4482758620689656
 40
0.4482758620689656
 40
0.4827586206896553
 40
0.4827586206896553
 40
0.4827586206896553
 40
0.4827586206896553
 40
0.517241379310345
 40
0.517241379310345
 40
0.517241379310345
 40
0.517241379310345
 40
0.5517241379310346
 40
0.5517241379310346
 40
0.5517241379310346
 40
0.5517241379310346
 40
0.5862068965517242
 40
0.5862068965517242
 40
0.5862068965517242
 40
0.5862068965517242
 40
0.6206896551724138
 40
0.6206896551724138
 40
0.6206896551724138
 40
0.6206896551724138
 40
0.6551724137931034
 40
0.6551724137931034
 40
0.6551724137931034
 40
0.6551724137931034
 40
0.689655172413793
 40
0.689655172413793
 40
0.689655172413793
 40
0.689655172413793
 40
0.7241379310344827
 40
0.7241379310344827
 40
0.7241379310344827
 40
0.7241379310344827
 40
0.7586206896551723
 40
0.7586206896551723
 40
0.7586206896551723
 40
0.7586206896551723
 40
0.7931034482758619
 40
0.7931034482758619
 40
0.7931034482758619
 40
0.7931034482758619
 40
0.8275862068965515
 40
0.8275862068965515
 40
0.8275862068965515
 40
0.8275862068965515
 40
0.8620689655172411
 40
0.8620689655172411
 40
0.8620689655172411
 40
0.8620689655172411
 40
0.8965517241379307
 40
0.8965517241379307
 40
0.8965517241379307
 40
0.8965517241379307
 40
0.9310344827586203
 40
0.9310344827586203
 40
0.9310344827586203
 40
0.9310344827586203
 40
0.9655172413793099
 40
0.9655172413793099
 40
0.9655172413793099
 40
0.9655172413793099
 40
1.0
 40
1.0
 40
1.0
 40
1.0
 10
-18.907600000000002
 20
-14.3354
 30
0.0
 10
-18.907600000000002
 20
-14.3354
 30
0.0
 10
-17.9268
 20
-14.2408
 30
0.0
 10
-17.9268
 20
-14.2408
 30
0.0
 10
-17.9268
 20
-14.2408
 30
0.0
 10
-17.934100000000001
 20
-14.379100000000001
 30
0.0
 10
-17.9377
 20
-14.462800000000001
 30
0.0
 10
-17.9377
 20
-14.4901
 30
0.0
 10
-17.9377
 20
-14.4901
 30
0.0
 10
-17.9377
 20
-14.7248
 30
0.0
 10
-17.877700000000001
 20
-14.961400000000001
 30
0.0
 10
-17.759399999999999
 20
-15.199800000000002
 30
0.0
 10
-17.759399999999999
 20
-15.199800000000002
 30
0.0
 10
-17.639300000000002
 20
-15.4381
 30
0.0
 10
-17.477399999999999
 20
-15.620000000000001
 30
0.0
 10
-17.273600000000002
 20
-15.745600000000001
 30
0.0
 10
-17.273600000000002
 20
-15.745600000000001
 30
0.0
 10
-17.069800000000001
 20
-15.873000000000001
 30
0.0
 10
-16.853200000000001
 20
-15.934900000000001
 30
0.0
 10
-16.625800000000002
 20
-15.934900000000001
 30
0.0
 10
-16.625800000000002
 20
-15.934900000000001
 30
0.0
 10
-16.327400000000001
 20
-15.934900000000001
 30
0.0
 10
-16.023500000000002
 20
-15.833
 30
0.0
 10
-15.7142
 20
-15.625500000000001
 30
0.0
 10
-15.7142
 20
-15.625500000000001
 30
0.0
 10
-15.404800000000002
 20
-15.4199
 30
0.0
 10
-15.155600000000002
 20
-15.1197
 30
0.0
 10
-14.9627
 20
-14.7248
 30
0.0
 10
-14.9627
 20
-14.7248
 30
0.0
 10
-14.771600000000001
 20
-14.331800000000001
 30
0.0
 10
-14.6752
 20
-13.9406
 30
0.0
 10
-14.6752
 20
-13.553000000000001
 30
0.0
 10
-14.6752
 20
-13.553000000000001
 30
0.0
 10
-14.6752
 20
-13.116300000000001
 30
0.0
 10
-14.804400000000001
 20
-12.7651
 30
0.0
 10
-15.0609
 20
-12.503
 30
0.0
 10
-15.0609
 20
-12.503
 30
0.0
 10
-15.3193
 20
-12.2392
 30
0.0
 10
-15.6578
 20
-12.1082
 30
0.0
 10
-16.0763
 20
-12.1082
 30
0.0
 10
-16.0763
 20
-12.1082
 30
0.0
 10
-16.3583
 20
-12.1082
 30
0.0
 10
-16.624000000000002
 20
-12.175500000000001
 30
0.0
 10
-16.873200000000001
 20
-12.3102
 30
0.0
 10
-16.873200000000001
 20
-12.3102
 30
0.0
 10
-17.124400000000001
 20
-12.444900000000001
 30
0.0
 10
-17.357300000000002
 20
-12.6487
 30
0.0
 10
-17.575600000000001
 20
-12.917900000000001
 30
0.0
 10
-17.575600000000001
 20
-12.917900000000001
 30
0.0
 10
-17.575600000000001
 20
-12.917900000000001
 30
0.0
 10
-18.418100000000003
 20
-12.8597
 30
0.0
 10
-18.418100000000003
 20
-12.8597
 30
0.0
 10
-18.418100000000003
 20
-12.8597
 30
0.0
 10
-18.418100000000003
 20
-12.8597
 30
0.0
 10
-17.239000000000001
 20
-8.8620000000000001
 30
0.0
 10
-17.239000000000001
 20
-8.8620000000000001
 30
0.0
 10
-17.239000000000001
 20
-8.8620000000000001
 30
0.0
 10
-17.239000000000001
 20
-8.8620000000000001
 30
0.0
 10
-13.4214
 20
-8.8620000000000001
 30
0.0
 10
-13.4214
 20
-8.8620000000000001
 30
0.0
 10
-13.4214
 20
-8.8620000000000001
 30
0.0
 10
-13.4214
 20
-8.8620000000000001
 30
0.0
 10
-13.6089
 20
-9.7464000000000013
 30
0.0
 10
-13.6089
 20
-9.7464000000000013
 30
0.0
 10
-13.6089
 20
-9.7464000000000013
 30
0.0
 10
-13.6089
 20
-9.7464000000000013
 30
0.0
 10
-16.578500000000002
 20
-9.7464000000000013
 30
0.0
 10
-16.578500000000002
 20
-9.7464000000000013
 30
0.0
 10
-16.578500000000002
 20
-9.7464000000000013
 30
0.0
 10
-16.578500000000002
 20
-9.7464000000000013
 30
0.0
 10
-17.164400000000001
 20
-11.735100000000001
 30
0.0
 10
-17.164400000000001
 20
-11.735100000000001
 30
0.0
 10
-17.164400000000001
 20
-11.735100000000001
 30
0.0
 10
-16.944200000000002
 20
-11.575100000000001
 30
0.0
 10
-16.716699999999999
 20
-11.4549
 30
0.0
 10
-16.485700000000001
 20
-11.3749
 30
0.0
 10
-16.485700000000001
 20
-11.3749
 30
0.0
 10
-16.252700000000001
 20
-11.2948
 30
0.0
 10
-16.012599999999999
 20
-11.254800000000001
 30
0.0
 10
-15.766900000000001
 20
-11.254800000000001
 30
0.0
 10
-15.766900000000001
 20
-11.254800000000001
 30
0.0
 10
-15.170100000000001
 20
-11.254800000000001
 30
0.0
 10
-14.6806
 20
-11.4513
 30
0.0
 10
-14.296700000000001
 20
-11.846200000000001
 30
0.0
 10
-14.296700000000001
 20
-11.846200000000001
 30
0.0
 10
-13.912700000000001
 20
-12.241000000000001
 30
0.0
 10
-13.719900000000001
 20
-12.781400000000001
 30
0.0
 10
-13.719900000000001
 20
-13.467500000000001
 30
0.0
 10
-13.719900000000001
 20
-13.467500000000001
 30
0.0
 10
-13.719900000000001
 20
-14.0679
 30
0.0
 10
-13.852600000000001
 20
-14.6211
 30
0.0
 10
-14.114700000000001
 20
-15.1287
 30
0.0
 10
-14.114700000000001
 20
-15.1287
 30
0.0
 10
-14.378500000000001
 20
-15.634600000000001
 30
0.0
 10
-14.740600000000001
 20
-16.024000000000001
 30
0.0
 10
-15.199200000000001
 20
-16.295200000000001
 30
0.0
 10
-15.199200000000001
 20
-16.295200000000001
 30
0.0
 10
-15.659500000000001
 20
-16.568100000000001
 30
0.0
 10
-16.156300000000002
 20
-16.7028
 30
0.0
 10
-16.689500000000002
 20
-16.7028
 30
0.0
 10
-16.689500000000002
 20
-16.7028
 30
0.0
 10
-17.1371
 20
-16.7028
 30
0.0
 10
-17.533799999999999
 20
-16.602600000000002
 30
0.0
 10
-17.8795
 20
-16.398800000000001
 30
0.0
 10
-17.8795
 20
-16.398800000000001
 30
0.0
 10
-18.223400000000002
 20
-16.196899999999999
 30
0.0
 10
-18.4818
 20
-15.918500000000002
 30
0.0
 10
-18.654700000000002
 20
-15.561900000000001
 30
0.0
 10
-18.654700000000002
 20
-15.561900000000001
 30
0.0
 10
-18.827500000000001
 20
-15.207000000000001
 30
0.0
 10
-18.913
 20
-14.8522
 30
0.0
 10
-18.913
 20
-14.4955
 30
0.0
 10
-18.913
 20
-14.4955
 30
0.0
 10
-18.913
 20
-14.461
 30
0.0
 10
-18.911200000000001
 20
-14.408200000000001
 30
0.0
 10
-18.907600000000002
 20
-14.3354
 30
0.0
  0
SPLINE
  5
33
100
AcDbEntity
  8
Ebene 1
370
    35
100
AcDbSpline
210
0.0
220
0.0
230
1.0
 70
     0
 71
     3
 72
     8
 73
     4
 74
     0
 42
0.0000000001
 43
0.0000000001
 40
0.0
 40
0.0
 40
0.0
 40
0.0
 40
1.0
 40
1.0
 40
1.0
 40
1.0
 10
28.377300000000002
 20
25.928000000000001
 30
0.0
 10
28.377300000000002
 20
25.928000000000001
 30
0.0
 10
28.377300000000002
 20
-8.4258000000000006
 30
0.0
 10
28.377300000000002
 20
-8.4258000000000006
 30
0.0
  0
SPLINE
  5
34
100
AcDbEntity
  8
Ebene 1
370
    35
100
AcDbSpline
210
0.0
220
0.0
230
1.0
 70
     0
 71
     3
 72
     8
 73
     4
 74
     0
 42
0.0000000001
 43
0.0000000001
 40
0.0
 40
0.0
 40
0.0
 40
0.0
 40
1.0
 40
1.0
 40
1.0
 40
1.0
 10
67.363200000000006
 20
-8.4258000000000006
 30
0.0
 10
67.363200000000006
 20
-8.4258000000000006
 30
0.0
 10
67.363200000000006
 20
25.928000000000001
 30
0.0
 10
67.363200000000006
 20
25.928000000000001
 30
0.0
  0
SPLINE
  5
35
100
AcDbEntity
  8
Ebene 1
370
    35
100
AcDbSpline
210
0.0
220
0.0
230
1.0
 70
     0
 71
     3
 72
     8
 73
     4
 74
     0
 42
0.0000000001
 43
0.0000000001
 40
0.0
 40
0.0
 40
0.0
 40
0.0
 40
1.0
 40
1.0
 40
1.0
 40
1.0
 10
30.075600000000001
 20
-7.9626000000000001
 30
0.0
 10
30.075600000000001
 20
-7.9626000000000001
 30
0.0
 10
30.075600000000001
 20
25.464700000000001
 30
0.0
 10
30.075600000000001
 20
25.464700000000001
 30
0.0
  0
SPLINE
  5
36
100
AcDbEntity
  8
Ebene 1
370
    35
100
AcDbSpline
210
0.0
220
0.0
230
1.0
 70
     0
 71
     3
 72
     8
 73
     4
 74
     0
 42
0.0000000001
 43
0.0000000001
 40
0.0
 40
0.0
 40
0.0
 40
0.0
 40
1.0
 40
1.0
 40
1.0
 40
1.0
 10
65.6648
 20
-7.9626000000000001
 30
0.0
 10
65.6648
 20
-7.9626000000000001
 30
0.0
 10
65.6648
 20
25.464700000000001
 30
0.0
 10
65.6648
 20
25.464700000000001
 30
0.0
  0
SPLINE
  5
37
100
AcDbEntity
  8
Ebene 1
370
    35
100
AcDbSpline
210
0.0
220
0.0
230
1.0
 70
     1
 71
     3
 72
    20
 73
    16
 74
     0
 42
0.0000000001
 43
0.0000000001
 40
0.0
 40
0.0
 40
0.0
 40
0.0
 40
0.25
 40
0.25
 40
0.25
 40
0.25
 40
0.5
 40
0.5
 40
0.5
 40
0.5
 40
0.75
 40
0.75
 40
0.75
 40
0.75
 40
1.0
 40
1.0
 40
1.0
 40
1.0
 10
65.6648
 20
8.7510000000000012
 30
0.0
 10
65.6648
 20
18.578700000000001
 30
0.0
 10
57.697900000000004
 20
26.545500000000001
 30
0.0
 10
47.870200000000004
 20
26.545500000000001
 30
0.0
 10
47.870200000000004
 20
26.545500000000001
 30
0.0
 10
38.0426
 20
26.545500000000001
 30
0.0
 10
30.075600000000001
 20
18.578700000000001
 30
0.0
 10
30.075600000000001
 20
8.7510000000000012
 30
0.0
 10
30.075600000000001
 20
8.7510000000000012
 30
0.0
 10
30.075600000000001
 20
-1.0765
 30
0.0
 10
38.0426
 20
-9.0434000000000001
 30
0.0
 10
47.870200000000004
 20
-9.0434000000000001
 30
0.0
 10
47.870200000000004
 20
-9.0434000000000001
 30
0.0
 10
57.697900000000004
 20
-9.0434000000000001
 30
0.0
 10
65.6648
 20
-1.0765
 30
0.0
 10
65.6648
 20
8.7510000000000012
 30
0.0
  0
SPLINE
  5
38
100
AcDbEntity
  8
Ebene 1
370
    35
100
AcDbSpline
210
0.0
220
0.0
230
1.0
 70
     0
 71
     3
 72
     8
 73
     4
 74
     0
 42
0.0000000001
 43
0.0000000001
 40
0.0
 40
0.0
 40
0.0
 40
0.0
 40
1.0
 40
1.0
 40
1.0
 40
1.0
 10
-45.329100000000004
 20
17.2043
 30
0.0
 10
-45.329100000000004
 20
17.2043
 30
0.0
 10
-27.920500000000001
 20
17.2043
 30
0.0
 10
-27.920500000000001
 20
17.2043
 30
0.0
  0
SPLINE
  5
39
100
AcDbEntity
  8
Ebene 1
370
    35
100
AcDbSpline
210
0.0
220
0.0
230
1.0
 70
     0
 71
     3
 72
     8
 73
     4
 74
     0
 42
0.0000000001
 43
0.0000000001
 40
0.0
 40
0.0
 40
0.0
 40
0.0
 40
1.0
 40
1.0
 40
1.0
 40
1.0
 10
-45.7151
 20
19.404500000000002
 30
0.0
 10
-45.7151
 20
19.404500000000002
 30
0.0
 10
-27.920500000000001
 20
19.404500000000002
 30
0.0
 10
-27.920500000000001
 20
19.404500000000002
 30
0.0
  0
SPLINE
  5
3A
100
AcDbEntity
  8
Ebene 1
370
    35
100
AcDbSpline
210
0.0
220
0.0
230
1.0
 70
     0
 71
     3
 72
     8
 73
     4
 74
     0
 42
0.0000000001
 43
0.0000000001
 40
0.0
 40
0.0
 40
0.0
 40
0.0
 40
1.0
 40
1.0
 40
1.0
 40
1.0
 10
-44.788699999999999
 20
15.544500000000001
 30
0.0
 10
-44.788699999999999
 20
15.544500000000001
 30
0.0
 10
-27.920500000000001
 20
15.544500000000001
 30
0.0
 10
-27.920500000000001
 20
15.544500000000001
 30
0.0
  0
SPLINE
  5
3B
100
AcDbEntity
  8
Ebene 1
370
    35
100
AcDbSpline
210
0.0
220
0.0
230
1.0
 70
     0
 71
     3
 72
     8
 73
     4
 74
     0
 42
0.0000000001
 43
0.0000000001
 40
0.0
 40
0.0
 40
0.0
 40
0.0
 40
1.0
 40
1.0
 40
1.0
 40
1.0
 10
-45.329100000000004
 20
16.934200000000001
 30
0.0
 10
-45.329100000000004
 20
16.934200000000001
 30
0.0
 10
-27.920500000000001
 20
16.934200000000001
 30
0.0
 10
-27.920500000000001
 20
16.934200000000001
 30
0.0
  0
SPLINE
  5
3C
100
AcDbEntity
  8
Ebene 1
370
    35
100
AcDbSpline
210
0.0
220
0.0
230
1.0
 70
     0
 71
     3
 72
     8
 73
     4
 74
     0
 42
0.0000000001
 43
0.0000000001
 40
0.0
 40
0.0
 40
0.0
 40
0.0
 40
1.0
 40
1.0
 40
1.0
 40
1.0
 10
-44.595700000000001
 20
15.081300000000001
 30
0.0
 10
-44.595700000000001
 20
15.081300000000001
 30
0.0
 10
-44.595700000000001
 20
13.3444
 30
0.0
 10
-44.595700000000001
 20
13.3444
 30
0.0
  0
SPLINE
  5
3D
100
AcDbEntity
  8
Ebene 1
370
    35
100
AcDbSpline
210
0.0
220
0.0
230
1.0
 70
     0
 71
     3
 72
     8
 73
     4
 74
     0
 42
0.0000000001
 43
0.0000000001
 40
0.0
 40
0.0
 40
0.0
 40
0.0
 40
1.0
 40
1.0
 40
1.0
 40
1.0
 10
-44.325500000000005
 20
15.081300000000001
 30
0.0
 10
-44.325500000000005
 20
15.081300000000001
 30
0.0
 10
-44.325500000000005
 20
13.074200000000001
 30
0.0
 10
-44.325500000000005
 20
13.074200000000001
 30
0.0
  0
SPLINE
  5
3E
100
AcDbEntity
  8
Ebene 1
370
    35
100
AcDbSpline
210
0.0
220
0.0
230
1.0
 70
     0
 71
     3
 72
     8
 73
     4
 74
     0
 42
0.0000000001
 43
0.0000000001
 40
0.0
 40
0.0
 40
0.0
 40
0.0
 40
1.0
 40
1.0
 40
1.0
 40
1.0
 10
-10.511900000000001
 20
17.2043
 30
0.0
 10
-10.511900000000001
 20
17.2043
 30
0.0
 10
-27.920500000000001
 20
17.2043
 30
0.0
 10
-27.920500000000001
 20
17.2043
 30
0.0
  0
SPLINE
  5
3F
100
AcDbEntity
  8
Ebene 1
370
    35
100
AcDbSpline
210
0.0
220
0.0
230
1.0
 70
     0
 71
     3
 72
     8
 73
     4
 74
     0
 42
0.0000000001
 43
0.0000000001
 40
0.0
 40
0.0
 40
0.0
 40
0.0
 40
1.0
 40
1.0
 40
1.0
 40
1.0
 10
-45.7151
 20
18.7483
 30
0.0
 10
-45.7151
 20
18.7483
 30
0.0
 10
-45.7151
 20
17.590299999999999
 30
0.0
 10
-45.7151
 20
17.590299999999999
 30
0.0
  0
SPLINE
  5
40
100
AcDbEntity
  8
Ebene 1
370
    35
100
AcDbSpline
210
0.0
220
0.0
230
1.0
 70
     0
 71
     3
 72
     8
 73
     4
 74
     0
 42
0.0000000001
 43
0.0000000001
 40
0.0
 40
0.0
 40
0.0
 40
0.0
 40
1.0
 40
1.0
 40
1.0
 40
1.0
 10
-45.985300000000002
 20
18.7483
 30
0.0
 10
-45.985300000000002
 20
18.7483
 30
0.0
 10
-45.985300000000002
 20
16.2393
 30
0.0
 10
-45.985300000000002
 20
16.2393
 30
0.0
  0
SPLINE
  5
41
100
AcDbEntity
  8
Ebene 1
370
    35
100
AcDbSpline
210
0.0
220
0.0
230
1.0
 70
     0
 71
     3
 72
     8
 73
     4
 74
     0
 42
0.0000000001
 43
0.0000000001
 40
0.0
 40
0.0
 40
0.0
 40
0.0
 40
1.0
 40
1.0
 40
1.0
 40
1.0
 10
-44.595700000000001
 20
15.081300000000001
 30
0.0
 10
-44.595700000000001
 20
15.187900000000001
 30
0.0
 10
-44.682100000000005
 20
15.2743
 30
0.0
 10
-44.788699999999999
 20
15.2743
 30
0.0
  0
SPLINE
  5
42
100
AcDbEntity
  8
Ebene 1
370
    35
100
AcDbSpline
210
0.0
220
0.0
230
1.0
 70
     0
 71
     3
 72
     8
 73
     4
 74
     0
 42
0.0000000001
 43
0.0000000001
 40
0.0
 40
0.0
 40
0.0
 40
0.0
 40
1.0
 40
1.0
 40
1.0
 40
1.0
 10
-44.788699999999999
 20
15.2743
 30
0.0
 10
-44.788699999999999
 20
15.2743
 30
0.0
 10
-45.329100000000004
 20
15.2743
 30
0.0
 10
-45.329100000000004
 20
15.2743
 30
0.0
  0
SPLINE
  5
43
100
AcDbEntity
  8
Ebene 1
370
    35
100
AcDbSpline
210
0.0
220
0.0
230
1.0
 70
     0
 71
     3
 72
     8
 73
     4
 74
     0
 42
0.0000000001
 43
0.0000000001
 40
0.0
 40
0.0
 40
0.0
 40
0.0
 40
1.0
 40
1.0
 40
1.0
 40
1.0
 10
-45.985300000000002
 20
16.2393
 30
0.0
 10
-45.985300000000002
 20
16.2393
 30
0.0
 10
-45.985300000000002
 20
15.9305
 30
0.0
 10
-45.985300000000002
 20
15.9305
 30
0.0
  0
SPLINE
  5
44
100
AcDbEntity
  8
Ebene 1
370
    35
100
AcDbSpline
210
0.0
220
0.0
230
1.0
 70
     0
 71
     3
 72
     8
 73
     4
 74
     0
 42
0.0000000001
 43
0.0000000001
 40
0.0
 40
0.0
 40
0.0
 40
0.0
 40
1.0
 40
1.0
 40
1.0
 40
1.0
 10
-45.7151
 20
15.9305
 30
0.0
 10
-45.7151
 20
15.717300000000002
 30
0.0
 10
-45.542300000000004
 20
15.544500000000001
 30
0.0
 10
-45.329100000000004
 20
15.544500000000001
 30
0.0
  0
SPLINE
  5
45
100
AcDbEntity
  8
Ebene 1
370
    35
100
AcDbSpline
210
0.0
220
0.0
230
1.0
 70
     0
 71
     3
 72
     8
 73
     4
 74
     0
 42
0.0000000001
 43
0.0000000001
 40
0.0
 40
0.0
 40
0.0
 40
0.0
 40
1.0
 40
1.0
 40
1.0
 40
1.0
 10
-45.329100000000004
 20
15.2743
 30
0.0
 10
-45.329100000000004
 20
15.2743
 30
0.0
 10
-44.788699999999999
 20
15.2743
 30
0.0
 10
-44.788699999999999
 20
15.2743
 30
0.0
  0
SPLINE
  5
46
100
AcDbEntity
  8
Ebene 1
370
    35
100
AcDbSpline
210
0.0
220
0.0
230
1.0
 70
     0
 71
     3
 72
     8
 73
     4
 74
     0
 42
0.0000000001
 43
0.0000000001
 40
0.0
 40
0.0
 40
0.0
 40
0.0
 40
1.0
 40
1.0
 40
1.0
 40
1.0
 10
-45.329100000000004
 20
15.544500000000001
 30
0.0
 10
-45.329100000000004
 20
15.544500000000001
 30
0.0
 10
-44.788699999999999
 20
15.544500000000001
 30
0.0
 10
-44.788699999999999
 20
15.544500000000001
 30
0.0
  0
SPLINE
  5
47
100
AcDbEntity
  8
Ebene 1
370
    35
100
AcDbSpline
210
0.0
220
0.0
230
1.0
 70
     0
 71
     3
 72
     8
 73
     4
 74
     0
 42
0.0000000001
 43
0.0000000001
 40
0.0
 40
0.0
 40
0.0
 40
0.0
 40
1.0
 40
1.0
 40
1.0
 40
1.0
 10
-45.7151
 20
17.590299999999999
 30
0.0
 10
-45.7151
 20
17.590299999999999
 30
0.0
 10
-45.7151
 20
15.9305
 30
0.0
 10
-45.7151
 20
15.9305
 30
0.0
  0
SPLINE
  5
48
100
AcDbEntity
  8
Ebene 1
370
    35
100
AcDbSpline
210
0.0
220
0.0
230
1.0
 70
     0
 71
     3
 72
     8
 73
     4
 74
     0
 42
0.0000000001
 43
0.0000000001
 40
0.0
 40
0.0
 40
0.0
 40
0.0
 40
1.0
 40
1.0
 40
1.0
 40
1.0
 10
-45.7151
 20
17.059699999999999
 30
0.0
 10
-45.602900000000005
 20
16.978200000000001
 30
0.0
 10
-45.467800000000004
 20
16.934200000000001
 30
0.0
 10
-45.329100000000004
 20
16.934200000000001
 30
0.0
  0
SPLINE
  5
49
100
AcDbEntity
  8
Ebene 1
370
    35
100
AcDbSpline
210
0.0
220
0.0
230
1.0
 70
     0
 71
     3
 72
     8
 73
     4
 74
     0
 42
0.0000000001
 43
0.0000000001
 40
0.0
 40
0.0
 40
0.0
 40
0.0
 40
1.0
 40
1.0
 40
1.0
 40
1.0
 10
-45.7151
 20
17.590299999999999
 30
0.0
 10
-45.7151
 20
17.377100000000002
 30
0.0
 10
-45.542300000000004
 20
17.2043
 30
0.0
 10
-45.329100000000004
 20
17.2043
 30
0.0
  0
SPLINE
  5
4A
100
AcDbEntity
  8
Ebene 1
370
    35
100
AcDbSpline
210
0.0
220
0.0
230
1.0
 70
     0
 71
     3
 72
     8
 73
     4
 74
     0
 42
0.0000000001
 43
0.0000000001
 40
0.0
 40
0.0
 40
0.0
 40
0.0
 40
1.0
 40
1.0
 40
1.0
 40
1.0
 10
-44.325500000000005
 20
15.081300000000001
 30
0.0
 10
-44.325500000000005
 20
15.337100000000001
 30
0.0
 10
-44.532900000000005
 20
15.544500000000001
 30
0.0
 10
-44.788699999999999
 20
15.544500000000001
 30
0.0
  0
SPLINE
  5
4B
100
AcDbEntity
  8
Ebene 1
370
    35
100
AcDbSpline
210
0.0
220
0.0
230
1.0
 70
     0
 71
     3
 72
     8
 73
     4
 74
     0
 42
0.0000000001
 43
0.0000000001
 40
0.0
 40
0.0
 40
0.0
 40
0.0
 40
1.0
 40
1.0
 40
1.0
 40
1.0
 10
-45.985300000000002
 20
15.9305
 30
0.0
 10
-45.985300000000002
 20
15.568100000000001
 30
0.0
 10
-45.691400000000002
 20
15.2743
 30
0.0
 10
-45.329100000000004
 20
15.2743
 30
0.0
  0
SPLINE
  5
4C
100
AcDbEntity
  8
Ebene 1
370
    35
100
AcDbSpline
210
0.0
220
0.0
230
1.0
 70
     0
 71
     3
 72
     8
 73
     4
 74
     0
 42
0.0000000001
 43
0.0000000001
 40
0.0
 40
0.0
 40
0.0
 40
0.0
 40
1.0
 40
1.0
 40
1.0
 40
1.0
 10
-46.371300000000005
 20
19.1343
 30
0.0
 10
-46.371300000000005
 20
19.1343
 30
0.0
 10
-46.564300000000003
 20
19.1343
 30
0.0
 10
-46.564300000000003
 20
19.1343
 30
0.0
  0
SPLINE
  5
4D
100
AcDbEntity
  8
Ebene 1
370
    35
100
AcDbSpline
210
0.0
220
0.0
230
1.0
 70
     0
 71
     3
 72
     8
 73
     4
 74
     0
 42
0.0000000001
 43
0.0000000001
 40
0.0
 40
0.0
 40
0.0
 40
0.0
 40
1.0
 40
1.0
 40
1.0
 40
1.0
 10
-46.371300000000005
 20
19.404500000000002
 30
0.0
 10
-46.371300000000005
 20
19.404500000000002
 30
0.0
 10
-46.564300000000003
 20
19.404500000000002
 30
0.0
 10
-46.564300000000003
 20
19.404500000000002
 30
0.0
  0
SPLINE
  5
4E
100
AcDbEntity
  8
Ebene 1
370
    35
100
AcDbSpline
210
0.0
220
0.0
230
1.0
 70
     0
 71
     3
 72
     8
 73
     4
 74
     0
 42
0.0000000001
 43
0.0000000001
 40
0.0
 40
0.0
 40
0.0
 40
0.0
 40
1.0
 40
1.0
 40
1.0
 40
1.0
 10
-47.413499999999999
 20
16.934200000000001
 30
0.0
 10
-47.413499999999999
 20
16.934200000000001
 30
0.0
 10
-45.985300000000002
 20
16.934200000000001
 30
0.0
 10
-45.985300000000002
 20
16.934200000000001
 30
0.0
  0
SPLINE
  5
4F
100
AcDbEntity
  8
Ebene 1
370
    35
100
AcDbSpline
210
0.0
220
0.0
230
1.0
 70
     0
 71
     3
 72
     8
 73
     4
 74
     0
 42
0.0000000001
 43
0.0000000001
 40
0.0
 40
0.0
 40
0.0
 40
0.0
 40
1.0
 40
1.0
 40
1.0
 40
1.0
 10
-46.564300000000003
 20
19.1343
 30
0.0
 10
-46.777500000000003
 20
19.1343
 30
0.0
 10
-46.950300000000006
 20
18.961500000000001
 30
0.0
 10
-46.950300000000006
 20
18.7483
 30
0.0
  0
SPLINE
  5
50
100
AcDbEntity
  8
Ebene 1
370
    35
100
AcDbSpline
210
0.0
220
0.0
230
1.0
 70
     0
 71
     3
 72
     8
 73
     4
 74
     0
 42
0.0000000001
 43
0.0000000001
 40
0.0
 40
0.0
 40
0.0
 40
0.0
 40
1.0
 40
1.0
 40
1.0
 40
1.0
 10
-46.564300000000003
 20
19.404500000000002
 30
0.0
 10
-46.926700000000004
 20
19.404500000000002
 30
0.0
 10
-47.220500000000001
 20
19.110800000000001
 30
0.0
 10
-47.220500000000001
 20
18.7483
 30
0.0
  0
SPLINE
  5
51
100
AcDbEntity
  8
Ebene 1
370
    35
100
AcDbSpline
210
0.0
220
0.0
230
1.0
 70
     0
 71
     3
 72
     8
 73
     4
 74
     0
 42
0.0000000001
 43
0.0000000001
 40
0.0
 40
0.0
 40
0.0
 40
0.0
 40
1.0
 40
1.0
 40
1.0
 40
1.0
 10
-47.220500000000001
 20
18.7483
 30
0.0
 10
-47.220500000000001
 20
18.7483
 30
0.0
 10
-47.220500000000001
 20
17.6905
 30
0.0
 10
-47.220500000000001
 20
17.6905
 30
0.0
  0
SPLINE
  5
52
100
AcDbEntity
  8
Ebene 1
370
    35
100
AcDbSpline
210
0.0
220
0.0
230
1.0
 70
     0
 71
     3
 72
     8
 73
     4
 74
     0
 42
0.0000000001
 43
0.0000000001
 40
0.0
 40
0.0
 40
0.0
 40
0.0
 40
1.0
 40
1.0
 40
1.0
 40
1.0
 10
-46.950300000000006
 20
17.6905
 30
0.0
 10
-46.950300000000006
 20
17.6905
 30
0.0
 10
-46.950300000000006
 20
18.7483
 30
0.0
 10
-46.950300000000006
 20
18.7483
 30
0.0
  0
SPLINE
  5
53
100
AcDbEntity
  8
Ebene 1
370
    35
100
AcDbSpline
210
0.0
220
0.0
230
1.0
 70
     0
 71
     3
 72
     8
 73
     4
 74
     0
 42
0.0000000001
 43
0.0000000001
 40
0.0
 40
0.0
 40
0.0
 40
0.0
 40
1.0
 40
1.0
 40
1.0
 40
1.0
 10
-45.985300000000002
 20
18.7483
 30
0.0
 10
-45.985300000000002
 20
18.961500000000001
 30
0.0
 10
-46.158100000000005
 20
19.1343
 30
0.0
 10
-46.371300000000005
 20
19.1343
 30
0.0
  0
SPLINE
  5
54
100
AcDbEntity
  8
Ebene 1
370
    35
100
AcDbSpline
210
0.0
220
0.0
230
1.0
 70
     0
 71
     3
 72
     8
 73
     4
 74
     0
 42
0.0000000001
 43
0.0000000001
 40
0.0
 40
0.0
 40
0.0
 40
0.0
 40
1.0
 40
1.0
 40
1.0
 40
1.0
 10
-45.985300000000002
 20
18.7483
 30
0.0
 10
-45.985300000000002
 20
18.961500000000001
 30
0.0
 10
-46.158100000000005
 20
19.1343
 30
0.0
 10
-46.371300000000005
 20
19.1343
 30
0.0
  0
SPLINE
  5
55
100
AcDbEntity
  8
Ebene 1
370
    35
100
AcDbSpline
210
0.0
220
0.0
230
1.0
 70
     0
 71
     3
 72
     8
 73
     4
 74
     0
 42
0.0000000001
 43
0.0000000001
 40
0.0
 40
0.0
 40
0.0
 40
0.0
 40
1.0
 40
1.0
 40
1.0
 40
1.0
 10
-45.7151
 20
18.7483
 30
0.0
 10
-45.7151
 20
19.110800000000001
 30
0.0
 10
-46.008900000000004
 20
19.404500000000002
 30
0.0
 10
-46.371300000000005
 20
19.404500000000002
 30
0.0
  0
SPLINE
  5
56
100
AcDbEntity
  8
Ebene 1
370
    35
100
AcDbSpline
210
0.0
220
0.0
230
1.0
 70
     0
 71
     3
 72
     8
 73
     4
 74
     0
 42
0.0000000001
 43
0.0000000001
 40
0.0
 40
0.0
 40
0.0
 40
0.0
 40
1.0
 40
1.0
 40
1.0
 40
1.0
 10
-45.7151
 20
19.404500000000002
 30
0.0
 10
-45.7151
 20
19.404500000000002
 30
0.0
 10
-46.371300000000005
 20
19.404500000000002
 30
0.0
 10
-46.371300000000005
 20
19.404500000000002
 30
0.0
  0
SPLINE
  5
57
100
AcDbEntity
  8
Ebene 1
370
    35
100
AcDbSpline
210
0.0
220
0.0
230
1.0
 70
     0
 71
     3
 72
     8
 73
     4
 74
     0
 42
0.0000000001
 43
0.0000000001
 40
0.0
 40
0.0
 40
0.0
 40
0.0
 40
1.0
 40
1.0
 40
1.0
 40
1.0
 10
-10.1259
 20
19.404500000000002
 30
0.0
 10
-10.1259
 20
19.404500000000002
 30
0.0
 10
-27.920500000000001
 20
19.404500000000002
 30
0.0
 10
-27.920500000000001
 20
19.404500000000002
 30
0.0
  0
SPLINE
  5
58
100
AcDbEntity
  8
Ebene 1
370
    35
100
AcDbSpline
210
0.0
220
0.0
230
1.0
 70
     0
 71
     3
 72
     8
 73
     4
 74
     0
 42
0.0000000001
 43
0.0000000001
 40
0.0
 40
0.0
 40
0.0
 40
0.0
 40
1.0
 40
1.0
 40
1.0
 40
1.0
 10
-11.0524
 20
15.544500000000001
 30
0.0
 10
-11.0524
 20
15.544500000000001
 30
0.0
 10
-27.920500000000001
 20
15.544500000000001
 30
0.0
 10
-27.920500000000001
 20
15.544500000000001
 30
0.0
  0
SPLINE
  5
59
100
AcDbEntity
  8
Ebene 1
370
    35
100
AcDbSpline
210
0.0
220
0.0
230
1.0
 70
     0
 71
     3
 72
     8
 73
     4
 74
     0
 42
0.0000000001
 43
0.0000000001
 40
0.0
 40
0.0
 40
0.0
 40
0.0
 40
1.0
 40
1.0
 40
1.0
 40
1.0
 10
-10.511900000000001
 20
16.934200000000001
 30
0.0
 10
-10.511900000000001
 20
16.934200000000001
 30
0.0
 10
-27.920500000000001
 20
16.934200000000001
 30
0.0
 10
-27.920500000000001
 20
16.934200000000001
 30
0.0
  0
SPLINE
  5
5A
100
AcDbEntity
  8
Ebene 1
370
    35
100
AcDbSpline
210
0.0
220
0.0
230
1.0
 70
     0
 71
     3
 72
     8
 73
     4
 74
     0
 42
0.0000000001
 43
0.0000000001
 40
0.0
 40
0.0
 40
0.0
 40
0.0
 40
1.0
 40
1.0
 40
1.0
 40
1.0
 10
-11.2454
 20
15.081300000000001
 30
0.0
 10
-11.2454
 20
15.081300000000001
 30
0.0
 10
-11.2454
 20
13.3444
 30
0.0
 10
-11.2454
 20
13.3444
 30
0.0
  0
SPLINE
  5
5B
100
AcDbEntity
  8
Ebene 1
370
    35
100
AcDbSpline
210
0.0
220
0.0
230
1.0
 70
     0
 71
     3
 72
     8
 73
     4
 74
     0
 42
0.0000000001
 43
0.0000000001
 40
0.0
 40
0.0
 40
0.0
 40
0.0
 40
1.0
 40
1.0
 40
1.0
 40
1.0
 10
-11.515600000000001
 20
15.081300000000001
 30
0.0
 10
-11.515600000000001
 20
15.081300000000001
 30
0.0
 10
-11.515600000000001
 20
13.074200000000001
 30
0.0
 10
-11.515600000000001
 20
13.074200000000001
 30
0.0
  0
SPLINE
  5
5C
100
AcDbEntity
  8
Ebene 1
370
    35
100
AcDbSpline
210
0.0
220
0.0
230
1.0
 70
     0
 71
     3
 72
     8
 73
     4
 74
     0
 42
0.0000000001
 43
0.0000000001
 40
0.0
 40
0.0
 40
0.0
 40
0.0
 40
1.0
 40
1.0
 40
1.0
 40
1.0
 10
-10.1259
 20
18.7483
 30
0.0
 10
-10.1259
 20
18.7483
 30
0.0
 10
-10.1259
 20
17.590299999999999
 30
0.0
 10
-10.1259
 20
17.590299999999999
 30
0.0
  0
SPLINE
  5
5D
100
AcDbEntity
  8
Ebene 1
370
    35
100
AcDbSpline
210
0.0
220
0.0
230
1.0
 70
     0
 71
     3
 72
     8
 73
     4
 74
     0
 42
0.0000000001
 43
0.0000000001
 40
0.0
 40
0.0
 40
0.0
 40
0.0
 40
1.0
 40
1.0
 40
1.0
 40
1.0
 10
-9.8557000000000006
 20
18.7483
 30
0.0
 10
-9.8557000000000006
 20
18.7483
 30
0.0
 10
-9.8557000000000006
 20
16.548200000000001
 30
0.0
 10
-9.8557000000000006
 20
16.548200000000001
 30
0.0
  0
SPLINE
  5
5E
100
AcDbEntity
  8
Ebene 1
370
    35
100
AcDbSpline
210
0.0
220
0.0
230
1.0
 70
     0
 71
     3
 72
     8
 73
     4
 74
     0
 42
0.0000000001
 43
0.0000000001
 40
0.0
 40
0.0
 40
0.0
 40
0.0
 40
1.0
 40
1.0
 40
1.0
 40
1.0
 10
-11.0524
 20
15.2743
 30
0.0
 10
-11.158900000000001
 20
15.2743
 30
0.0
 10
-11.2454
 20
15.187900000000001
 30
0.0
 10
-11.2454
 20
15.081300000000001
 30
0.0
  0
SPLINE
  5
5F
100
AcDbEntity
  8
Ebene 1
370
    35
100
AcDbSpline
210
0.0
220
0.0
230
1.0
 70
     0
 71
     3
 72
     8
 73
     4
 74
     0
 42
0.0000000001
 43
0.0000000001
 40
0.0
 40
0.0
 40
0.0
 40
0.0
 40
1.0
 40
1.0
 40
1.0
 40
1.0
 10
-11.0524
 20
15.2743
 30
0.0
 10
-11.0524
 20
15.2743
 30
0.0
 10
-10.511900000000001
 20
15.2743
 30
0.0
 10
-10.511900000000001
 20
15.2743
 30
0.0
  0
SPLINE
  5
60
100
AcDbEntity
  8
Ebene 1
370
    35
100
AcDbSpline
210
0.0
220
0.0
230
1.0
 70
     0
 71
     3
 72
     8
 73
     4
 74
     0
 42
0.0000000001
 43
0.0000000001
 40
0.0
 40
0.0
 40
0.0
 40
0.0
 40
1.0
 40
1.0
 40
1.0
 40
1.0
 10
-9.8557000000000006
 20
16.548200000000001
 30
0.0
 10
-9.8557000000000006
 20
16.548200000000001
 30
0.0
 10
-9.8557000000000006
 20
15.9305
 30
0.0
 10
-9.8557000000000006
 20
15.9305
 30
0.0
  0
SPLINE
  5
61
100
AcDbEntity
  8
Ebene 1
370
    35
100
AcDbSpline
210
0.0
220
0.0
230
1.0
 70
     0
 71
     3
 72
    12
 73
     8
 74
     0
 42
0.0000000001
 43
0.0000000001
 40
0.0
 40
0.0
 40
0.0
 40
0.0
 40
0.5
 40
0.5
 40
0.5
 40
0.5
 40
1.0
 40
1.0
 40
1.0
 40
1.0
 10
-10.511900000000001
 20
15.544500000000001
 30
0.0
 10
-10.409600000000001
 20
15.544500000000001
 30
0.0
 10
-10.311400000000001
 20
15.5853
 30
0.0
 10
-10.239100000000001
 20
15.6576
 30
0.0
 10
-10.239100000000001
 20
15.6576
 30
0.0
 10
-10.166700000000001
 20
15.73
 30
0.0
 10
-10.1259
 20
15.828200000000001
 30
0.0
 10
-10.1259
 20
15.9305
 30
0.0
  0
SPLINE
  5
62
100
AcDbEntity
  8
Ebene 1
370
    35
100
AcDbSpline
210
0.0
220
0.0
230
1.0
 70
     0
 71
     3
 72
     8
 73
     4
 74
     0
 42
0.0000000001
 43
0.0000000001
 40
0.0
 40
0.0
 40
0.0
 40
0.0
 40
1.0
 40
1.0
 40
1.0
 40
1.0
 10
-10.511900000000001
 20
15.2743
 30
0.0
 10
-10.511900000000001
 20
15.2743
 30
0.0
 10
-11.0524
 20
15.2743
 30
0.0
 10
-11.0524
 20
15.2743
 30
0.0
  0
SPLINE
  5
63
100
AcDbEntity
  8
Ebene 1
370
    35
100
AcDbSpline
210
0.0
220
0.0
230
1.0
 70
     0
 71
     3
 72
     8
 73
     4
 74
     0
 42
0.0000000001
 43
0.0000000001
 40
0.0
 40
0.0
 40
0.0
 40
0.0
 40
1.0
 40
1.0
 40
1.0
 40
1.0
 10
-10.511900000000001
 20
15.544500000000001
 30
0.0
 10
-10.511900000000001
 20
15.544500000000001
 30
0.0
 10
-11.0524
 20
15.544500000000001
 30
0.0
 10
-11.0524
 20
15.544500000000001
 30
0.0
  0
SPLINE
  5
64
100
AcDbEntity
  8
Ebene 1
370
    35
100
AcDbSpline
210
0.0
220
0.0
230
1.0
 70
     0
 71
     3
 72
     8
 73
     4
 74
     0
 42
0.0000000001
 43
0.0000000001
 40
0.0
 40
0.0
 40
0.0
 40
0.0
 40
1.0
 40
1.0
 40
1.0
 40
1.0
 10
-10.1259
 20
17.590299999999999
 30
0.0
 10
-10.1259
 20
17.590299999999999
 30
0.0
 10
-10.1259
 20
15.9305
 30
0.0
 10
-10.1259
 20
15.9305
 30
0.0
  0
SPLINE
  5
65
100
AcDbEntity
  8
Ebene 1
370
    35
100
AcDbSpline
210
0.0
220
0.0
230
1.0
 70
     0
 71
     3
 72
     8
 73
     4
 74
     0
 42
0.0000000001
 43
0.0000000001
 40
0.0
 40
0.0
 40
0.0
 40
0.0
 40
1.0
 40
1.0
 40
1.0
 40
1.0
 10
-10.511900000000001
 20
16.934200000000001
 30
0.0
 10
-10.373200000000001
 20
16.934200000000001
 30
0.0
 10
-10.238100000000001
 20
16.978200000000001
 30
0.0
 10
-10.1259
 20
17.059699999999999
 30
0.0
  0
SPLINE
  5
66
100
AcDbEntity
  8
Ebene 1
370
    35
100
AcDbSpline
210
0.0
220
0.0
230
1.0
 70
     0
 71
     3
 72
    12
 73
     8
 74
     0
 42
0.0000000001
 43
0.0000000001
 40
0.0
 40
0.0
 40
0.0
 40
0.0
 40
0.5
 40
0.5
 40
0.5
 40
0.5
 40
1.0
 40
1.0
 40
1.0
 40
1.0
 10
-10.511900000000001
 20
17.2043
 30
0.0
 10
-10.409600000000001
 20
17.2043
 30
0.0
 10
-10.311400000000001
 20
17.245000000000001
 30
0.0
 10
-10.239100000000001
 20
17.317399999999999
 30
0.0
 10
-10.239100000000001
 20
17.317399999999999
 30
0.0
 10
-10.166700000000001
 20
17.389800000000001
 30
0.0
 10
-10.1259
 20
17.488
 30
0.0
 10
-10.1259
 20
17.590299999999999
 30
0.0
  0
SPLINE
  5
67
100
AcDbEntity
  8
Ebene 1
370
    35
100
AcDbSpline
210
0.0
220
0.0
230
1.0
 70
     0
 71
     3
 72
     8
 73
     4
 74
     0
 42
0.0000000001
 43
0.0000000001
 40
0.0
 40
0.0
 40
0.0
 40
0.0
 40
1.0
 40
1.0
 40
1.0
 40
1.0
 10
-11.0524
 20
15.544500000000001
 30
0.0
 10
-11.308200000000001
 20
15.544500000000001
 30
0.0
 10
-11.515600000000001
 20
15.337100000000001
 30
0.0
 10
-11.515600000000001
 20
15.081300000000001
 30
0.0
  0
SPLINE
  5
68
100
AcDbEntity
  8
Ebene 1
370
    35
100
AcDbSpline
210
0.0
220
0.0
230
1.0
 70
     0
 71
     3
 72
    12
 73
     8
 74
     0
 42
0.0000000001
 43
0.0000000001
 40
0.0
 40
0.0
 40
0.0
 40
0.0
 40
0.5
 40
0.5
 40
0.5
 40
0.5
 40
1.0
 40
1.0
 40
1.0
 40
1.0
 10
-10.511900000000001
 20
15.2743
 30
0.0
 10
-10.338000000000001
 20
15.2743
 30
0.0
 10
-10.171100000000001
 20
15.343500000000001
 30
0.0
 10
-10.0479
 20
15.4665
 30
0.0
 10
-10.0479
 20
15.4665
 30
0.0
 10
-9.9249000000000009
 20
15.589600000000001
 30
0.0
 10
-9.8557000000000006
 20
15.756600000000001
 30
0.0
 10
-9.8557000000000006
 20
15.9305
 30
0.0
  0
SPLINE
  5
69
100
AcDbEntity
  8
Ebene 1
370
    35
100
AcDbSpline
210
0.0
220
0.0
230
1.0
 70
     0
 71
     3
 72
     8
 73
     4
 74
     0
 42
0.0000000001
 43
0.0000000001
 40
0.0
 40
0.0
 40
0.0
 40
0.0
 40
1.0
 40
1.0
 40
1.0
 40
1.0
 10
-9.4697000000000013
 20
19.1343
 30
0.0
 10
-9.4697000000000013
 20
19.1343
 30
0.0
 10
-9.2766999999999999
 20
19.1343
 30
0.0
 10
-9.2766999999999999
 20
19.1343
 30
0.0
  0
SPLINE
  5
6A
100
AcDbEntity
  8
Ebene 1
370
    35
100
AcDbSpline
210
0.0
220
0.0
230
1.0
 70
     0
 71
     3
 72
     8
 73
     4
 74
     0
 42
0.0000000001
 43
0.0000000001
 40
0.0
 40
0.0
 40
0.0
 40
0.0
 40
1.0
 40
1.0
 40
1.0
 40
1.0
 10
-9.4697000000000013
 20
19.404500000000002
 30
0.0
 10
-9.4697000000000013
 20
19.404500000000002
 30
0.0
 10
-9.2766999999999999
 20
19.404500000000002
 30
0.0
 10
-9.2766999999999999
 20
19.404500000000002
 30
0.0
  0
SPLINE
  5
6B
100
AcDbEntity
  8
Ebene 1
370
    35
100
AcDbSpline
210
0.0
220
0.0
230
1.0
 70
     0
 71
     3
 72
     8
 73
     4
 74
     0
 42
0.0000000001
 43
0.0000000001
 40
0.0
 40
0.0
 40
0.0
 40
0.0
 40
1.0
 40
1.0
 40
1.0
 40
1.0
 10
-8.4276
 20
16.934200000000001
 30
0.0
 10
-8.4276
 20
16.934200000000001
 30
0.0
 10
-9.8557000000000006
 20
16.934200000000001
 30
0.0
 10
-9.8557000000000006
 20
16.934200000000001
 30
0.0
  0
SPLINE
  5
6C
100
AcDbEntity
  8
Ebene 1
370
    35
100
AcDbSpline
210
0.0
220
0.0
230
1.0
 70
     0
 71
     3
 72
     8
 73
     4
 74
     0
 42
0.0000000001
 43
0.0000000001
 40
0.0
 40
0.0
 40
0.0
 40
0.0
 40
1.0
 40
1.0
 40
1.0
 40
1.0
 10
-8.8908000000000005
 20
18.7483
 30
0.0
 10
-8.8908000000000005
 20
18.961500000000001
 30
0.0
 10
-9.063600000000001
 20
19.1343
 30
0.0
 10
-9.2766999999999999
 20
19.1343
 30
0.0
  0
SPLINE
  5
6D
100
AcDbEntity
  8
Ebene 1
370
    35
100
AcDbSpline
210
0.0
220
0.0
230
1.0
 70
     0
 71
     3
 72
     8
 73
     4
 74
     0
 42
0.0000000001
 43
0.0000000001
 40
0.0
 40
0.0
 40
0.0
 40
0.0
 40
1.0
 40
1.0
 40
1.0
 40
1.0
 10
-8.6205999999999996
 20
18.7483
 30
0.0
 10
-8.6205999999999996
 20
19.110800000000001
 30
0.0
 10
-8.9144000000000005
 20
19.404500000000002
 30
0.0
 10
-9.2766999999999999
 20
19.404500000000002
 30
0.0
  0
SPLINE
  5
6E
100
AcDbEntity
  8
Ebene 1
370
    35
100
AcDbSpline
210
0.0
220
0.0
230
1.0
 70
     0
 71
     3
 72
     8
 73
     4
 74
     0
 42
0.0000000001
 43
0.0000000001
 40
0.0
 40
0.0
 40
0.0
 40
0.0
 40
1.0
 40
1.0
 40
1.0
 40
1.0
 10
-8.6205999999999996
 20
18.7483
 30
0.0
 10
-8.6205999999999996
 20
18.7483
 30
0.0
 10
-8.6205999999999996
 20
17.6905
 30
0.0
 10
-8.6205999999999996
 20
17.6905
 30
0.0
  0
SPLINE
  5
6F
100
AcDbEntity
  8
Ebene 1
370
    35
100
AcDbSpline
210
0.0
220
0.0
230
1.0
 70
     0
 71
     3
 72
     8
 73
     4
 74
     0
 42
0.0000000001
 43
0.0000000001
 40
0.0
 40
0.0
 40
0.0
 40
0.0
 40
1.0
 40
1.0
 40
1.0
 40
1.0
 10
30.693300000000001
 20
-10.741800000000001
 30
0.0
 10
30.693300000000001
 20
-10.741800000000001
 30
0.0
 10
65.047200000000004
 20
-10.741800000000001
 30
0.0
 10
65.047200000000004
 20
-10.741800000000001
 30
0.0
  0
SPLINE
  5
70
100
AcDbEntity
  8
Ebene 1
370
    35
100
AcDbSpline
210
0.0
220
0.0
230
1.0
 70
     0
 71
     3
 72
     8
 73
     4
 74
     0
 42
0.0000000001
 43
0.0000000001
 40
0.0
 40
0.0
 40
0.0
 40
0.0
 40
1.0
 40
1.0
 40
1.0
 40
1.0
 10
64.584000000000003
 20
-9.0434000000000001
 30
0.0
 10
64.584000000000003
 20
-9.0434000000000001
 30
0.0
 10
31.156500000000001
 20
-9.0434000000000001
 30
0.0
 10
31.156500000000001
 20
-9.0434000000000001
 30
0.0
  0
SPLINE
  5
71
100
AcDbEntity
  8
Ebene 1
370
    35
100
AcDbSpline
210
0.0
220
0.0
230
1.0
 70
     0
 71
     3
 72
     8
 73
     4
 74
     0
 42
0.0000000001
 43
0.0000000001
 40
0.0
 40
0.0
 40
0.0
 40
0.0
 40
1.0
 40
1.0
 40
1.0
 40
1.0
 10
28.377300000000002
 20
-8.4258000000000006
 30
0.0
 10
28.377300000000002
 20
-9.7049000000000003
 30
0.0
 10
29.414300000000001
 20
-10.741800000000001
 30
0.0
 10
30.693300000000001
 20
-10.741800000000001
 30
0.0
  0
SPLINE
  5
72
100
AcDbEntity
  8
Ebene 1
370
    35
100
AcDbSpline
210
0.0
220
0.0
230
1.0
 70
     0
 71
     3
 72
    12
 73
     8
 74
     0
 42
0.0000000001
 43
0.0000000001
 40
0.0
 40
0.0
 40
0.0
 40
0.0
 40
0.5
 40
0.5
 40
0.5
 40
0.5
 40
1.0
 40
1.0
 40
1.0
 40
1.0
 10
65.047200000000004
 20
-10.741800000000001
 30
0.0
 10
65.661500000000004
 20
-10.741800000000001
 30
0.0
 10
66.250600000000006
 20
-10.4978
 30
0.0
 10
66.684899999999999
 20
-10.0634
 30
0.0
 10
66.684899999999999
 20
-10.0634
 30
0.0
 10
67.119200000000006
 20
-9.6292000000000009
 30
0.0
 10
67.363200000000006
 20
-9.0401000000000007
 30
0.0
 10
67.363200000000006
 20
-8.4258000000000006
 30
0.0
  0
SPLINE
  5
73
100
AcDbEntity
  8
Ebene 1
370
    35
100
AcDbSpline
210
0.0
220
0.0
230
1.0
 70
     0
 71
     3
 72
    12
 73
     8
 74
     0
 42
0.0000000001
 43
0.0000000001
 40
0.0
 40
0.0
 40
0.0
 40
0.0
 40
0.5
 40
0.5
 40
0.5
 40
0.5
 40
1.0
 40
1.0
 40
1.0
 40
1.0
 10
64.584000000000003
 20
-9.0434000000000001
 30
0.0
 10
64.870699999999999
 20
-9.0434000000000001
 30
0.0
 10
65.145499999999998
 20
-8.9296000000000006
 30
0.0
 10
65.348200000000006
 20
-8.7268000000000008
 30
0.0
 10
65.348200000000006
 20
-8.7268000000000008
 30
0.0
 10
65.550899999999999
 20
-8.5242000000000004
 30
0.0
 10
65.6648
 20
-8.2492999999999999
 30
0.0
 10
65.6648
 20
-7.9626000000000001
 30
0.0
  0
SPLINE
  5
74
100
AcDbEntity
  8
Ebene 1
370
    35
100
AcDbSpline
210
0.0
220
0.0
230
1.0
 70
     0
 71
     3
 72
     8
 73
     4
 74
     0
 42
0.0000000001
 43
0.0000000001
 40
0.0
 40
0.0
 40
0.0
 40
0.0
 40
1.0
 40
1.0
 40
1.0
 40
1.0
 10
65.047200000000004
 20
28.2439
 30
0.0
 10
65.047200000000004
 20
28.2439
 30
0.0
 10
30.693300000000001
 20
28.2439
 30
0.0
 10
30.693300000000001
 20
28.2439
 30
0.0
  0
SPLINE
  5
75
100
AcDbEntity
  8
Ebene 1
370
    35
100
AcDbSpline
210
0.0
220
0.0
230
1.0
 70
     0
 71
     3
 72
     8
 73
     4
 74
     0
 42
0.0000000001
 43
0.0000000001
 40
0.0
 40
0.0
 40
0.0
 40
0.0
 40
1.0
 40
1.0
 40
1.0
 40
1.0
 10
64.584000000000003
 20
26.545500000000001
 30
0.0
 10
64.584000000000003
 20
26.545500000000001
 30
0.0
 10
31.156500000000001
 20
26.545500000000001
 30
0.0
 10
31.156500000000001
 20
26.545500000000001
 30
0.0
  0
SPLINE
  5
76
100
AcDbEntity
  8
Ebene 1
370
    35
100
AcDbSpline
210
0.0
220
0.0
230
1.0
 70
     0
 71
     3
 72
     8
 73
     4
 74
     0
 42
0.0000000001
 43
0.0000000001
 40
0.0
 40
0.0
 40
0.0
 40
0.0
 40
1.0
 40
1.0
 40
1.0
 40
1.0
 10
30.693300000000001
 20
28.2439
 30
0.0
 10
29.414300000000001
 20
28.2439
 30
0.0
 10
28.377300000000002
 20
27.207000000000001
 30
0.0
 10
28.377300000000002
 20
25.928000000000001
 30
0.0
  0
SPLINE
  5
77
100
AcDbEntity
  8
Ebene 1
370
    35
100
AcDbSpline
210
0.0
220
0.0
230
1.0
 70
     0
 71
     3
 72
     8
 73
     4
 74
     0
 42
0.0000000001
 43
0.0000000001
 40
0.0
 40
0.0
 40
0.0
 40
0.0
 40
1.0
 40
1.0
 40
1.0
 40
1.0
 10
31.156500000000001
 20
26.545500000000001
 30
0.0
 10
30.559600000000003
 20
26.545500000000001
 30
0.0
 10
30.075600000000001
 20
26.061600000000002
 30
0.0
 10
30.075600000000001
 20
25.464700000000001
 30
0.0
  0
SPLINE
  5
78
100
AcDbEntity
  8
Ebene 1
370
    35
100
AcDbSpline
210
0.0
220
0.0
230
1.0
 70
     0
 71
     3
 72
     8
 73
     4
 74
     0
 42
0.0000000001
 43
0.0000000001
 40
0.0
 40
0.0
 40
0.0
 40
0.0
 40
1.0
 40
1.0
 40
1.0
 40
1.0
 10
67.363200000000006
 20
25.928000000000001
 30
0.0
 10
67.363200000000006
 20
27.207000000000001
 30
0.0
 10
66.3262
 20
28.2439
 30
0.0
 10
65.047200000000004
 20
28.2439
 30
0.0
  0
SPLINE
  5
79
100
AcDbEntity
  8
Ebene 1
370
    35
100
AcDbSpline
210
0.0
220
0.0
230
1.0
 70
     0
 71
     3
 72
     8
 73
     4
 74
     0
 42
0.0000000001
 43
0.0000000001
 40
0.0
 40
0.0
 40
0.0
 40
0.0
 40
1.0
 40
1.0
 40
1.0
 40
1.0
 10
-8.8908000000000005
 20
17.6905
 30
0.0
 10
-8.8908000000000005
 20
17.6905
 30
0.0
 10
-8.8908000000000005
 20
18.7483
 30
0.0
 10
-8.8908000000000005
 20
18.7483
 30
0.0
  0
SPLINE
  5
7A
100
AcDbEntity
  8
Ebene 1
370
    35
100
AcDbSpline
210
0.0
220
0.0
230
1.0
 70
     0
 71
     3
 72
     8
 73
     4
 74
     0
 42
0.0000000001
 43
0.0000000001
 40
0.0
 40
0.0
 40
0.0
 40
0.0
 40
1.0
 40
1.0
 40
1.0
 40
1.0
 10
-9.4697000000000013
 20
19.1343
 30
0.0
 10
-9.6829000000000001
 20
19.1343
 30
0.0
 10
-9.8557000000000006
 20
18.961500000000001
 30
0.0
 10
-9.8557000000000006
 20
18.7483
 30
0.0
  0
SPLINE
  5
7B
100
AcDbEntity
  8
Ebene 1
370
    35
100
AcDbSpline
210
0.0
220
0.0
230
1.0
 70
     0
 71
     3
 72
     8
 73
     4
 74
     0
 42
0.0000000001
 43
0.0000000001
 40
0.0
 40
0.0
 40
0.0
 40
0.0
 40
1.0
 40
1.0
 40
1.0
 40
1.0
 10
-9.4697000000000013
 20
19.1343
 30
0.0
 10
-9.6829000000000001
 20
19.1343
 30
0.0
 10
-9.8557000000000006
 20
18.961500000000001
 30
0.0
 10
-9.8557000000000006
 20
18.7483
 30
0.0
  0
SPLINE
  5
7C
100
AcDbEntity
  8
Ebene 1
370
    35
100
AcDbSpline
210
0.0
220
0.0
230
1.0
 70
     0
 71
     3
 72
     8
 73
     4
 74
     0
 42
0.0000000001
 43
0.0000000001
 40
0.0
 40
0.0
 40
0.0
 40
0.0
 40
1.0
 40
1.0
 40
1.0
 40
1.0
 10
-9.4697000000000013
 20
19.404500000000002
 30
0.0
 10
-9.8322000000000003
 20
19.404500000000002
 30
0.0
 10
-10.1259
 20
19.110800000000001
 30
0.0
 10
-10.1259
 20
18.7483
 30
0.0
  0
SPLINE
  5
7D
100
AcDbEntity
  8
Ebene 1
370
    35
100
AcDbSpline
210
0.0
220
0.0
230
1.0
 70
     0
 71
     3
 72
     8
 73
     4
 74
     0
 42
0.0000000001
 43
0.0000000001
 40
0.0
 40
0.0
 40
0.0
 40
0.0
 40
1.0
 40
1.0
 40
1.0
 40
1.0
 10
-10.1259
 20
19.404500000000002
 30
0.0
 10
-10.1259
 20
19.404500000000002
 30
0.0
 10
-9.4697000000000013
 20
19.404500000000002
 30
0.0
 10
-9.4697000000000013
 20
19.404500000000002
 30
0.0
  0
SPLINE
  5
7E
100
AcDbEntity
  8
Ebene 1
370
    35
100
AcDbSpline
210
0.0
220
0.0
230
1.0
 70
     1
 71
     3
 72
    20
 73
    16
 74
     0
 42
0.0000000001
 43
0.0000000001
 40
0.0
 40
0.0
 40
0.0
 40
0.0
 40
0.25
 40
0.25
 40
0.25
 40
0.25
 40
0.5
 40
0.5
 40
0.5
 40
0.5
 40
0.75
 40
0.75
 40
0.75
 40
0.75
 40
1.0
 40
1.0
 40
1.0
 40
1.0
 10
64.275199999999998
 20
8.7510000000000012
 30
0.0
 10
64.275199999999998
 20
17.811199999999999
 30
0.0
 10
56.930400000000006
 20
25.156000000000002
 30
0.0
 10
47.870200000000004
 20
25.156000000000002
 30
0.0
 10
47.870200000000004
 20
25.156000000000002
 30
0.0
 10
38.810099999999998
 20
25.156000000000002
 30
0.0
 10
31.465300000000003
 20
17.811199999999999
 30
0.0
 10
31.465300000000003
 20
8.7510000000000012
 30
0.0
 10
31.465300000000003
 20
8.7510000000000012
 30
0.0
 10
31.465300000000003
 20
-0.3091
 30
0.0
 10
38.810099999999998
 20
-7.6538000000000004
 30
0.0
 10
47.870200000000004
 20
-7.6538000000000004
 30
0.0
 10
47.870200000000004
 20
-7.6538000000000004
 30
0.0
 10
56.930400000000006
 20
-7.6538000000000004
 30
0.0
 10
64.275199999999998
 20
-0.3091
 30
0.0
 10
64.275199999999998
 20
8.7510000000000012
 30
0.0
  0
SPLINE
  5
7F
100
AcDbEntity
  8
Ebene 1
370
    35
100
AcDbSpline
210
0.0
220
0.0
230
1.0
 70
     1
 71
     3
 72
    20
 73
    16
 74
     0
 42
0.0000000001
 43
0.0000000001
 40
0.0
 40
0.0
 40
0.0
 40
0.0
 40
0.25
 40
0.25
 40
0.25
 40
0.25
 40
0.5
 40
0.5
 40
0.5
 40
0.5
 40
0.75
 40
0.75
 40
0.75
 40
0.75
 40
1.0
 40
1.0
 40
1.0
 40
1.0
 10
33.781300000000002
 20
-6.1097999999999999
 30
0.0
 10
33.781300000000002
 20
-5.6835000000000004
 30
0.0
 10
33.435700000000004
 20
-5.3378000000000005
 30
0.0
 10
33.009300000000003
 20
-5.3378000000000005
 30
0.0
 10
33.009300000000003
 20
-5.3378000000000005
 30
0.0
 10
32.582900000000002
 20
-5.3378000000000005
 30
0.0
 10
32.237300000000005
 20
-5.6835000000000004
 30
0.0
 10
32.237300000000005
 20
-6.1097999999999999
 30
0.0
 10
32.237300000000005
 20
-6.1097999999999999
 30
0.0
 10
32.237300000000005
 20
-6.5362
 30
0.0
 10
32.582900000000002
 20
-6.8818000000000001
 30
0.0
 10
33.009300000000003
 20
-6.8818000000000001
 30
0.0
 10
33.009300000000003
 20
-6.8818000000000001
 30
0.0
 10
33.435700000000004
 20
-6.8818000000000001
 30
0.0
 10
33.781300000000002
 20
-6.5362
 30
0.0
 10
33.781300000000002
 20
-6.1097999999999999
 30
0.0
  0
SPLINE
  5
80
100
AcDbEntity
  8
Ebene 1
370
    20
100
AcDbSpline
210
0.0
220
0.0
230
1.0
 70
     0
 71
     3
 72
    16
 73
    12
 74
     0
 42
0.0000000001
 43
0.0000000001
 40
0.0
 40
0.0
 40
0.0
 40
0.0
 40
0.3333333333333333
 40
0.3333333333333333
 40
0.3333333333333333
 40
0.3333333333333333
 40
0.6666666666666666
 40
0.6666666666666666
 40
0.6666666666666666
 40
0.6666666666666666
 40
1.0
 40
1.0
 40
1.0
 40
1.0
 10
63.696200000000005
 20
23.612000000000002
 30
0.0
 10
63.696200000000005
 20
24.1449
 30
0.0
 10
63.264100000000006
 20
24.577000000000002
 30
0.0
 10
62.731200000000001
 20
24.577000000000002
 30
0.0
 10
62.731200000000001
 20
24.577000000000002
 30
0.0
 10
62.198300000000003
 20
24.577000000000002
 30
0.0
 10
61.766200000000005
 20
24.1449
 30
0.0
 10
61.766200000000005
 20
23.612000000000002
 30
0.0
 10
61.766200000000005
 20
23.612000000000002
 30
0.0
 10
61.766200000000005
 20
23.078900000000001
 30
0.0
 10
62.198300000000003
 20
22.647000000000002
 30
0.0
 10
62.731200000000001
 20
22.647000000000002
 30
0.0
  0
SPLINE
  5
81
100
AcDbEntity
  8
Ebene 1
370
    35
100
AcDbSpline
210
0.0
220
0.0
230
1.0
 70
     1
 71
     3
 72
    20
 73
    16
 74
     0
 42
0.0000000001
 43
0.0000000001
 40
0.0
 40
0.0
 40
0.0
 40
0.0
 40
0.25
 40
0.25
 40
0.25
 40
0.25
 40
0.5
 40
0.5
 40
0.5
 40
0.5
 40
0.75
 40
0.75
 40
0.75
 40
0.75
 40
1.0
 40
1.0
 40
1.0
 40
1.0
 10
63.5032
 20
23.612000000000002
 30
0.0
 10
63.5032
 20
24.0382
 30
0.0
 10
63.157600000000002
 20
24.384
 30
0.0
 10
62.731200000000001
 20
24.384
 30
0.0
 10
62.731200000000001
 20
24.384
 30
0.0
 10
62.3048
 20
24.384
 30
0.0
 10
61.959200000000003
 20
24.0382
 30
0.0
 10
61.959200000000003
 20
23.612000000000002
 30
0.0
 10
61.959200000000003
 20
23.612000000000002
 30
0.0
 10
61.959200000000003
 20
23.185600000000001
 30
0.0
 10
62.3048
 20
22.84
 30
0.0
 10
62.731200000000001
 20
22.84
 30
0.0
 10
62.731200000000001
 20
22.84
 30
0.0
 10
63.157600000000002
 20
22.84
 30
0.0
 10
63.5032
 20
23.185600000000001
 30
0.0
 10
63.5032
 20
23.612000000000002
 30
0.0
  0
SPLINE
  5
82
100
AcDbEntity
  8
Ebene 1
370
    20
100
AcDbSpline
210
0.0
220
0.0
230
1.0
 70
     0
 71
     3
 72
    16
 73
    12
 74
     0
 42
0.0000000001
 43
0.0000000001
 40
0.0
 40
0.0
 40
0.0
 40
0.0
 40
0.3333333333333333
 40
0.3333333333333333
 40
0.3333333333333333
 40
0.3333333333333333
 40
0.6666666666666666
 40
0.6666666666666666
 40
0.6666666666666666
 40
0.6666666666666666
 40
1.0
 40
1.0
 40
1.0
 40
1.0
 10
33.974299999999999
 20
-6.1097999999999999
 30
0.0
 10
33.974299999999999
 20
-5.5769000000000002
 30
0.0
 10
33.542200000000001
 20
-5.1448
 30
0.0
 10
33.009300000000003
 20
-5.1448
 30
0.0
 10
33.009300000000003
 20
-5.1448
 30
0.0
 10
32.476399999999998
 20
-5.1448
 30
0.0
 10
32.0443
 20
-5.5769000000000002
 30
0.0
 10
32.0443
 20
-6.1097999999999999
 30
0.0
 10
32.0443
 20
-6.1097999999999999
 30
0.0
 10
32.0443
 20
-6.6428000000000003
 30
0.0
 10
32.476399999999998
 20
-7.0748000000000006
 30
0.0
 10
33.009300000000003
 20
-7.0748000000000006
 30
0.0
  0
SPLINE
  5
83
100
AcDbEntity
  8
Ebene 1
370
    35
100
AcDbSpline
210
0.0
220
0.0
230
1.0
 70
     0
 71
     3
 72
     8
 73
     4
 74
     0
 42
0.0000000001
 43
0.0000000001
 40
0.0
 40
0.0
 40
0.0
 40
0.0
 40
1.0
 40
1.0
 40
1.0
 40
1.0
 10
65.047200000000004
 20
28.050900000000002
 30
0.0
 10
65.047200000000004
 20
28.050900000000002
 30
0.0
 10
30.693300000000001
 20
28.050900000000002
 30
0.0
 10
30.693300000000001
 20
28.050900000000002
 30
0.0
  0
SPLINE
  5
84
100
AcDbEntity
  8
Ebene 1
370
    35
100
AcDbSpline
210
0.0
220
0.0
230
1.0
 70
     0
 71
     3
 72
     8
 73
     4
 74
     0
 42
0.0000000001
 43
0.0000000001
 40
0.0
 40
0.0
 40
0.0
 40
0.0
 40
1.0
 40
1.0
 40
1.0
 40
1.0
 10
30.693300000000001
 20
28.050900000000002
 30
0.0
 10
29.520800000000001
 20
28.050900000000002
 30
0.0
 10
28.570300000000003
 20
27.1005
 30
0.0
 10
28.570300000000003
 20
25.928000000000001
 30
0.0
  0
SPLINE
  5
85
100
AcDbEntity
  8
Ebene 1
370
    35
100
AcDbSpline
210
0.0
220
0.0
230
1.0
 70
     0
 71
     3
 72
     8
 73
     4
 74
     0
 42
0.0000000001
 43
0.0000000001
 40
0.0
 40
0.0
 40
0.0
 40
0.0
 40
1.0
 40
1.0
 40
1.0
 40
1.0
 10
-44.190300000000001
 20
11.8354
 30
0.0
 10
-44.190300000000001
 20
11.8354
 30
0.0
 10
-27.920500000000001
 20
11.8354
 30
0.0
 10
-27.920500000000001
 20
11.8354
 30
0.0
  0
SPLINE
  5
86
100
AcDbEntity
  8
Ebene 1
370
    35
100
AcDbSpline
210
0.0
220
0.0
230
1.0
 70
     0
 71
     3
 72
     8
 73
     4
 74
     0
 42
0.0000000001
 43
0.0000000001
 40
0.0
 40
0.0
 40
0.0
 40
0.0
 40
1.0
 40
1.0
 40
1.0
 40
1.0
 10
-44.427399999999999
 20
11.6966
 30
0.0
 10
-44.427399999999999
 20
11.6966
 30
0.0
 10
-27.920500000000001
 20
11.6966
 30
0.0
 10
-27.920500000000001
 20
11.6966
 30
0.0
  0
SPLINE
  5
87
100
AcDbEntity
  8
Ebene 1
370
    35
100
AcDbSpline
210
0.0
220
0.0
230
1.0
 70
     0
 71
     3
 72
    12
 73
     8
 74
     0
 42
0.0000000001
 43
0.0000000001
 40
0.0
 40
0.0
 40
0.0
 40
0.0
 40
0.5
 40
0.5
 40
0.5
 40
0.5
 40
1.0
 40
1.0
 40
1.0
 40
1.0
 10
-44.586000000000006
 20
13.3444
 30
0.0
 10
-44.686800000000005
 20
13.3444
 30
0.0
 10
-44.781200000000005
 20
13.295300000000001
 30
0.0
 10
-44.838999999999999
 20
13.2126
 30
0.0
 10
-44.838999999999999
 20
13.2126
 30
0.0
 10
-44.896799999999999
 20
13.130100000000001
 30
0.0
 10
-44.910600000000002
 20
13.024600000000001
 30
0.0
 10
-44.876200000000004
 20
12.9299
 30
0.0
  0
SPLINE
  5
88
100
AcDbEntity
  8
Ebene 1
370
    35
100
AcDbSpline
210
0.0
220
0.0
230
1.0
 70
     0
 71
     3
 72
     8
 73
     4
 74
     0
 42
0.0000000001
 43
0.0000000001
 40
0.0
 40
0.0
 40
0.0
 40
0.0
 40
1.0
 40
1.0
 40
1.0
 40
1.0
 10
-27.920500000000001
 20
13.074200000000001
 30
0.0
 10
-27.920500000000001
 20
13.074200000000001
 30
0.0
 10
-44.641100000000002
 20
13.074200000000001
 30
0.0
 10
-44.641100000000002
 20
13.074200000000001
 30
0.0
  0
SPLINE
  5
89
100
AcDbEntity
  8
Ebene 1
370
    35
100
AcDbSpline
210
0.0
220
0.0
230
1.0
 70
     0
 71
     3
 72
     8
 73
     4
 74
     0
 42
0.0000000001
 43
0.0000000001
 40
0.0
 40
0.0
 40
0.0
 40
0.0
 40
1.0
 40
1.0
 40
1.0
 40
1.0
 10
-47.413499999999999
 20
17.259
 30
0.0
 10
-47.413499999999999
 20
17.259
 30
0.0
 10
-47.413499999999999
 20
16.934200000000001
 30
0.0
 10
-47.413499999999999
 20
16.934200000000001
 30
0.0
  0
SPLINE
  5
8A
100
AcDbEntity
  8
Ebene 1
370
    35
100
AcDbSpline
210
0.0
220
0.0
230
1.0
 70
     0
 71
     3
 72
     8
 73
     4
 74
     0
 42
0.0000000001
 43
0.0000000001
 40
0.0
 40
0.0
 40
0.0
 40
0.0
 40
1.0
 40
1.0
 40
1.0
 40
1.0
 10
-11.6508
 20
11.8354
 30
0.0
 10
-11.6508
 20
11.8354
 30
0.0
 10
-27.920500000000001
 20
11.8354
 30
0.0
 10
-27.920500000000001
 20
11.8354
 30
0.0
  0
SPLINE
  5
8B
100
AcDbEntity
  8
Ebene 1
370
    35
100
AcDbSpline
210
0.0
220
0.0
230
1.0
 70
     0
 71
     3
 72
     8
 73
     4
 74
     0
 42
0.0000000001
 43
0.0000000001
 40
0.0
 40
0.0
 40
0.0
 40
0.0
 40
1.0
 40
1.0
 40
1.0
 40
1.0
 10
-11.4138
 20
11.6966
 30
0.0
 10
-11.4138
 20
11.6966
 30
0.0
 10
-27.920500000000001
 20
11.6966
 30
0.0
 10
-27.920500000000001
 20
11.6966
 30
0.0
  0
SPLINE
  5
8C
100
AcDbEntity
  8
Ebene 1
370
    35
100
AcDbSpline
210
0.0
220
0.0
230
1.0
 70
     0
 71
     3
 72
    12
 73
     8
 74
     0
 42
0.0000000001
 43
0.0000000001
 40
0.0
 40
0.0
 40
0.0
 40
0.0
 40
0.5
 40
0.5
 40
0.5
 40
0.5
 40
1.0
 40
1.0
 40
1.0
 40
1.0
 10
-10.9649
 20
12.9299
 30
0.0
 10
-10.931000000000001
 20
13.023000000000001
 30
0.0
 10
-10.943800000000001
 20
13.1266
 30
0.0
 10
-10.999400000000001
 20
13.2087
 30
0.0
 10
-10.999400000000001
 20
13.2087
 30
0.0
 10
-11.0548
 20
13.290700000000001
 30
0.0
 10
-11.1464
 20
13.341100000000001
 30
0.0
 10
-11.2454
 20
13.344200000000001
 30
0.0
  0
SPLINE
  5
8D
100
AcDbEntity
  8
Ebene 1
370
    35
100
AcDbSpline
210
0.0
220
0.0
230
1.0
 70
     0
 71
     3
 72
     8
 73
     4
 74
     0
 42
0.0000000001
 43
0.0000000001
 40
0.0
 40
0.0
 40
0.0
 40
0.0
 40
1.0
 40
1.0
 40
1.0
 40
1.0
 10
-27.920500000000001
 20
13.074200000000001
 30
0.0
 10
-27.920500000000001
 20
13.074200000000001
 30
0.0
 10
-11.199900000000001
 20
13.074200000000001
 30
0.0
 10
-11.199900000000001
 20
13.074200000000001
 30
0.0
  0
SPLINE
  5
8E
100
AcDbEntity
  8
Ebene 1
370
    35
100
AcDbSpline
210
0.0
220
0.0
230
1.0
 70
     0
 71
     3
 72
     8
 73
     4
 74
     0
 42
0.0000000001
 43
0.0000000001
 40
0.0
 40
0.0
 40
0.0
 40
0.0
 40
1.0
 40
1.0
 40
1.0
 40
1.0
 10
-8.4276
 20
17.259
 30
0.0
 10
-8.4276
 20
17.259
 30
0.0
 10
-8.4276
 20
16.934200000000001
 30
0.0
 10
-8.4276
 20
16.934200000000001
 30
0.0
  0
SPLINE
  5
8F
100
AcDbEntity
  8
Ebene 1
370
    35
100
AcDbSpline
210
0.0
220
0.0
230
1.0
 70
     0
 71
     3
 72
     8
 73
     4
 74
     0
 42
0.0000000001
 43
0.0000000001
 40
0.0
 40
0.0
 40
0.0
 40
0.0
 40
1.0
 40
1.0
 40
1.0
 40
1.0
 10
28.570300000000003
 20
25.928000000000001
 30
0.0
 10
28.570300000000003
 20
25.928000000000001
 30
0.0
 10
28.570300000000003
 20
-8.4258000000000006
 30
0.0
 10
28.570300000000003
 20
-8.4258000000000006
 30
0.0
  0
SPLINE
  5
90
100
AcDbEntity
  8
Ebene 1
370
    35
100
AcDbSpline
210
0.0
220
0.0
230
1.0
 70
     0
 71
     3
 72
     8
 73
     4
 74
     0
 42
0.0000000001
 43
0.0000000001
 40
0.0
 40
0.0
 40
0.0
 40
0.0
 40
1.0
 40
1.0
 40
1.0
 40
1.0
 10
28.570300000000003
 20
-8.4258000000000006
 30
0.0
 10
28.570300000000003
 20
-9.5983000000000001
 30
0.0
 10
29.520800000000001
 20
-10.5488
 30
0.0
 10
30.693300000000001
 20
-10.5488
 30
0.0
  0
SPLINE
  5
91
100
AcDbEntity
  8
Ebene 1
370
    35
100
AcDbSpline
210
0.0
220
0.0
230
1.0
 70
     0
 71
     3
 72
     8
 73
     4
 74
     0
 42
0.0000000001
 43
0.0000000001
 40
0.0
 40
0.0
 40
0.0
 40
0.0
 40
1.0
 40
1.0
 40
1.0
 40
1.0
 10
30.693300000000001
 20
-10.5488
 30
0.0
 10
30.693300000000001
 20
-10.5488
 30
0.0
 10
65.047200000000004
 20
-10.5488
 30
0.0
 10
65.047200000000004
 20
-10.5488
 30
0.0
  0
SPLINE
  5
92
100
AcDbEntity
  8
Ebene 1
370
    35
100
AcDbSpline
210
0.0
220
0.0
230
1.0
 70
     0
 71
     3
 72
    12
 73
     8
 74
     0
 42
0.0000000001
 43
0.0000000001
 40
0.0
 40
0.0
 40
0.0
 40
0.0
 40
0.5
 40
0.5
 40
0.5
 40
0.5
 40
1.0
 40
1.0
 40
1.0
 40
1.0
 10
65.047200000000004
 20
-10.5488
 30
0.0
 10
65.610300000000009
 20
-10.5488
 30
0.0
 10
66.150300000000001
 20
-10.325100000000001
 30
0.0
 10
66.548400000000001
 20
-9.9269999999999996
 30
0.0
 10
66.548400000000001
 20
-9.9269999999999996
 30
0.0
 10
66.946600000000004
 20
-9.5289000000000001
 30
0.0
 10
67.170200000000008
 20
-8.988900000000001
 30
0.0
 10
67.170200000000008
 20
-8.4258000000000006
 30
0.0
  0
SPLINE
  5
93
100
AcDbEntity
  8
Ebene 1
370
    35
100
AcDbSpline
210
0.0
220
0.0
230
1.0
 70
     0
 71
     3
 72
     8
 73
     4
 74
     0
 42
0.0000000001
 43
0.0000000001
 40
0.0
 40
0.0
 40
0.0
 40
0.0
 40
1.0
 40
1.0
 40
1.0
 40
1.0
 10
67.170200000000008
 20
-8.4258000000000006
 30
0.0
 10
67.170200000000008
 20
-8.4258000000000006
 30
0.0
 10
67.170200000000008
 20
25.928000000000001
 30
0.0
 10
67.170200000000008
 20
25.928000000000001
 30
0.0
  0
SPLINE
  5
94
100
AcDbEntity
  8
Ebene 1
370
    35
100
AcDbSpline
210
0.0
220
0.0
230
1.0
 70
     0
 71
     3
 72
     8
 73
     4
 74
     0
 42
0.0000000001
 43
0.0000000001
 40
0.0
 40
0.0
 40
0.0
 40
0.0
 40
1.0
 40
1.0
 40
1.0
 40
1.0
 10
67.170200000000008
 20
25.928000000000001
 30
0.0
 10
67.170200000000008
 20
27.1005
 30
0.0
 10
66.219700000000003
 20
28.050900000000002
 30
0.0
 10
65.047200000000004
 20
28.050900000000002
 30
0.0
  0
SPLINE
  5
95
100
AcDbEntity
  8
Ebene 1
370
    35
100
AcDbSpline
210
0.0
220
0.0
230
1.0
 70
     0
 71
     3
 72
     8
 73
     4
 74
     0
 42
0.0000000001
 43
0.0000000001
 40
0.0
 40
0.0
 40
0.0
 40
0.0
 40
1.0
 40
1.0
 40
1.0
 40
1.0
 10
-47.413499999999999
 20
17.259
 30
0.0
 10
-47.290700000000001
 20
17.3688
 30
0.0
 10
-47.220500000000001
 20
17.5258
 30
0.0
 10
-47.220500000000001
 20
17.6905
 30
0.0
  0
SPLINE
  5
96
100
AcDbEntity
  8
Ebene 1
370
    35
100
AcDbSpline
210
0.0
220
0.0
230
1.0
 70
     0
 71
     3
 72
     8
 73
     4
 74
     0
 42
0.0000000001
 43
0.0000000001
 40
0.0
 40
0.0
 40
0.0
 40
0.0
 40
1.0
 40
1.0
 40
1.0
 40
1.0
 10
-47.413499999999999
 20
16.934200000000001
 30
0.0
 10
-47.129300000000001
 20
17.0792
 30
0.0
 10
-46.950300000000006
 20
17.371500000000001
 30
0.0
 10
-46.950300000000006
 20
17.6905
 30
0.0
  0
SPLINE
  5
97
100
AcDbEntity
  8
Ebene 1
370
    35
100
AcDbSpline
210
0.0
220
0.0
230
1.0
 70
     0
 71
     3
 72
     8
 73
     4
 74
     0
 42
0.0000000001
 43
0.0000000001
 40
0.0
 40
0.0
 40
0.0
 40
0.0
 40
1.0
 40
1.0
 40
1.0
 40
1.0
 10
-44.427399999999999
 20
11.6966
 30
0.0
 10
-44.427399999999999
 20
11.6966
 30
0.0
 10
-44.190300000000001
 20
11.8354
 30
0.0
 10
-44.190300000000001
 20
11.8354
 30
0.0
  0
SPLINE
  5
98
100
AcDbEntity
  8
Ebene 1
370
    35
100
AcDbSpline
210
0.0
220
0.0
230
1.0
 70
     0
 71
     3
 72
     8
 73
     4
 74
     0
 42
0.0000000001
 43
0.0000000001
 40
0.0
 40
0.0
 40
0.0
 40
0.0
 40
1.0
 40
1.0
 40
1.0
 40
1.0
 10
-44.876200000000004
 20
12.9299
 30
0.0
 10
-44.876200000000004
 20
12.9299
 30
0.0
 10
-44.427399999999999
 20
11.6966
 30
0.0
 10
-44.427399999999999
 20
11.6966
 30
0.0
  0
SPLINE
  5
99
100
AcDbEntity
  8
Ebene 1
370
    35
100
AcDbSpline
210
0.0
220
0.0
230
1.0
 70
     0
 71
     3
 72
     8
 73
     4
 74
     0
 42
0.0000000001
 43
0.0000000001
 40
0.0
 40
0.0
 40
0.0
 40
0.0
 40
1.0
 40
1.0
 40
1.0
 40
1.0
 10
-44.641100000000002
 20
13.074200000000001
 30
0.0
 10
-44.641100000000002
 20
13.074200000000001
 30
0.0
 10
-44.190300000000001
 20
11.8354
 30
0.0
 10
-44.190300000000001
 20
11.8354
 30
0.0
  0
SPLINE
  5
9A
100
AcDbEntity
  8
Ebene 1
370
    35
100
AcDbSpline
210
0.0
220
0.0
230
1.0
 70
     0
 71
     3
 72
     8
 73
     4
 74
     0
 42
0.0000000001
 43
0.0000000001
 40
0.0
 40
0.0
 40
0.0
 40
0.0
 40
1.0
 40
1.0
 40
1.0
 40
1.0
 10
-8.6205999999999996
 20
17.6905
 30
0.0
 10
-8.6205999999999996
 20
17.5258
 30
0.0
 10
-8.5503999999999998
 20
17.3688
 30
0.0
 10
-8.4276
 20
17.259
 30
0.0
  0
SPLINE
  5
9B
100
AcDbEntity
  8
Ebene 1
370
    35
100
AcDbSpline
210
0.0
220
0.0
230
1.0
 70
     0
 71
     3
 72
     8
 73
     4
 74
     0
 42
0.0000000001
 43
0.0000000001
 40
0.0
 40
0.0
 40
0.0
 40
0.0
 40
1.0
 40
1.0
 40
1.0
 40
1.0
 10
-8.8908000000000005
 20
17.6905
 30
0.0
 10
-8.8908000000000005
 20
17.371500000000001
 30
0.0
 10
-8.7118000000000002
 20
17.0792
 30
0.0
 10
-8.4276
 20
16.934200000000001
 30
0.0
  0
SPLINE
  5
9C
100
AcDbEntity
  8
Ebene 1
370
    35
100
AcDbSpline
210
0.0
220
0.0
230
1.0
 70
     0
 71
     3
 72
     8
 73
     4
 74
     0
 42
0.0000000001
 43
0.0000000001
 40
0.0
 40
0.0
 40
0.0
 40
0.0
 40
1.0
 40
1.0
 40
1.0
 40
1.0
 10
-11.4138
 20
11.6966
 30
0.0
 10
-11.4138
 20
11.6966
 30
0.0
 10
-11.6508
 20
11.8354
 30
0.0
 10
-11.6508
 20
11.8354
 30
0.0
  0
SPLINE
  5
9D
100
AcDbEntity
  8
Ebene 1
370
    35
100
AcDbSpline
210
0.0
220
0.0
230
1.0
 70
     0
 71
     3
 72
     8
 73
     4
 74
     0
 42
0.0000000001
 43
0.0000000001
 40
0.0
 40
0.0
 40
0.0
 40
0.0
 40
1.0
 40
1.0
 40
1.0
 40
1.0
 10
-10.9649
 20
12.9299
 30
0.0
 10
-10.9649
 20
12.9299
 30
0.0
 10
-11.4138
 20
11.6966
 30
0.0
 10
-11.4138
 20
11.6966
 30
0.0
  0
SPLINE
  5
9E
100
AcDbEntity
  8
Ebene 1
370
    35
100
AcDbSpline
210
0.0
220
0.0
230
1.0
 70
     0
 71
     3
 72
     8
 73
     4
 74
     0
 42
0.0000000001
 43
0.0000000001
 40
0.0
 40
0.0
 40
0.0
 40
0.0
 40
1.0
 40
1.0
 40
1.0
 40
1.0
 10
-11.199900000000001
 20
13.074200000000001
 30
0.0
 10
-11.199900000000001
 20
13.074200000000001
 30
0.0
 10
-11.6508
 20
11.8354
 30
0.0
 10
-11.6508
 20
11.8354
 30
0.0
  0
SPLINE
  5
9F
100
AcDbEntity
  8
Ebene 1
370
    35
100
AcDbSpline
210
0.0
220
0.0
230
1.0
 70
     0
 71
     3
 72
     8
 73
     4
 74
     0
 42
0.0000000001
 43
0.0000000001
 40
0.0
 40
0.0
 40
0.0
 40
0.0
 40
1.0
 40
1.0
 40
1.0
 40
1.0
 10
-10.2225
 20
15.2743
 30
0.0
 10
-10.2225
 20
15.2743
 30
0.0
 10
-10.2225
 20
-1.1305000000000001
 30
0.0
 10
-10.2225
 20
-1.1305000000000001
 30
0.0
  0
SPLINE
  5
A0
100
AcDbEntity
  8
Ebene 1
370
    35
100
AcDbSpline
210
0.0
220
0.0
230
1.0
 70
     0
 71
     3
 72
     8
 73
     4
 74
     0
 42
0.0000000001
 43
0.0000000001
 40
0.0
 40
0.0
 40
0.0
 40
0.0
 40
1.0
 40
1.0
 40
1.0
 40
1.0
 10
-10.2225
 20
-1.1305000000000001
 30
0.0
 10
-10.2225
 20
-1.1305000000000001
 30
0.0
 10
-10.429300000000001
 20
-1.9025000000000001
 30
0.0
 10
-10.429300000000001
 20
-1.9025000000000001
 30
0.0
  0
SPLINE
  5
A1
100
AcDbEntity
  8
Ebene 1
370
    35
100
AcDbSpline
210
0.0
220
0.0
230
1.0
 70
     0
 71
     3
 72
     8
 73
     4
 74
     0
 42
0.0000000001
 43
0.0000000001
 40
0.0
 40
0.0
 40
0.0
 40
0.0
 40
1.0
 40
1.0
 40
1.0
 40
1.0
 10
-10.9945
 20
15.2743
 30
0.0
 10
-10.9945
 20
15.2743
 30
0.0
 10
-10.2225
 20
15.2743
 30
0.0
 10
-10.2225
 20
15.2743
 30
0.0
  0
SPLINE
  5
A2
100
AcDbEntity
  8
Ebene 1
370
    35
100
AcDbSpline
210
0.0
220
0.0
230
1.0
 70
     0
 71
     3
 72
     8
 73
     4
 74
     0
 42
0.0000000001
 43
0.0000000001
 40
0.0
 40
0.0
 40
0.0
 40
0.0
 40
1.0
 40
1.0
 40
1.0
 40
1.0
 10
-44.846600000000002
 20
15.2743
 30
0.0
 10
-44.846600000000002
 20
15.2743
 30
0.0
 10
-44.846600000000002
 20
14.695400000000001
 30
0.0
 10
-44.846600000000002
 20
14.695400000000001
 30
0.0
  0
SPLINE
  5
A3
100
AcDbEntity
  8
Ebene 1
370
    35
100
AcDbSpline
210
0.0
220
0.0
230
1.0
 70
     0
 71
     3
 72
     8
 73
     4
 74
     0
 42
0.0000000001
 43
0.0000000001
 40
0.0
 40
0.0
 40
0.0
 40
0.0
 40
1.0
 40
1.0
 40
1.0
 40
1.0
 10
-44.846600000000002
 20
15.2743
 30
0.0
 10
-44.846600000000002
 20
15.2743
 30
0.0
 10
-45.580000000000005
 20
15.2743
 30
0.0
 10
-45.580000000000005
 20
15.2743
 30
0.0
  0
SPLINE
  5
A4
100
AcDbEntity
  8
Ebene 1
370
    35
100
AcDbSpline
210
0.0
220
0.0
230
1.0
 70
     0
 71
     3
 72
     8
 73
     4
 74
     0
 42
0.0000000001
 43
0.0000000001
 40
0.0
 40
0.0
 40
0.0
 40
0.0
 40
1.0
 40
1.0
 40
1.0
 40
1.0
 10
-45.411799999999999
 20
-1.9025000000000001
 30
0.0
 10
-45.411799999999999
 20
-1.9025000000000001
 30
0.0
 10
-10.429300000000001
 20
-1.9025000000000001
 30
0.0
 10
-10.429300000000001
 20
-1.9025000000000001
 30
0.0
  0
SPLINE
  5
A5
100
AcDbEntity
  8
Ebene 1
370
    35
100
AcDbSpline
210
0.0
220
0.0
230
1.0
 70
     0
 71
     3
 72
     8
 73
     4
 74
     0
 42
0.0000000001
 43
0.0000000001
 40
0.0
 40
0.0
 40
0.0
 40
0.0
 40
1.0
 40
1.0
 40
1.0
 40
1.0
 10
-45.069700000000005
 20
-1.9025000000000001
 30
0.0
 10
-45.069700000000005
 20
-1.9025000000000001
 30
0.0
 10
-44.904499999999999
 20
-1.9025000000000001
 30
0.0
 10
-44.904499999999999
 20
-1.9025000000000001
 30
0.0
  0
SPLINE
  5
A6
100
AcDbEntity
  8
Ebene 1
370
    35
100
AcDbSpline
210
0.0
220
0.0
230
1.0
 70
     0
 71
     3
 72
     8
 73
     4
 74
     0
 42
0.0000000001
 43
0.0000000001
 40
0.0
 40
0.0
 40
0.0
 40
0.0
 40
1.0
 40
1.0
 40
1.0
 40
1.0
 10
-10.9945
 20
15.2743
 30
0.0
 10
-10.9945
 20
15.2743
 30
0.0
 10
-10.9945
 20
14.695400000000001
 30
0.0
 10
-10.9945
 20
14.695400000000001
 30
0.0
  0
SPLINE
  5
A7
100
AcDbEntity
  8
Ebene 1
370
    35
100
AcDbSpline
210
0.0
220
0.0
230
1.0
 70
     0
 71
     3
 72
     8
 73
     4
 74
     0
 42
0.0000000001
 43
0.0000000001
 40
0.0
 40
0.0
 40
0.0
 40
0.0
 40
1.0
 40
1.0
 40
1.0
 40
1.0
 10
-45.618600000000001
 20
-1.1305000000000001
 30
0.0
 10
-45.618600000000001
 20
-1.1305000000000001
 30
0.0
 10
-45.411799999999999
 20
-1.9025000000000001
 30
0.0
 10
-45.411799999999999
 20
-1.9025000000000001
 30
0.0
  0
SPLINE
  5
A8
100
AcDbEntity
  8
Ebene 1
370
    35
100
AcDbSpline
210
0.0
220
0.0
230
1.0
 70
     0
 71
     3
 72
     8
 73
     4
 74
     0
 42
0.0000000001
 43
0.0000000001
 40
0.0
 40
0.0
 40
0.0
 40
0.0
 40
1.0
 40
1.0
 40
1.0
 40
1.0
 10
-11.226100000000001
 20
13.5374
 30
0.0
 10
-11.226100000000001
 20
13.5374
 30
0.0
 10
-10.9945
 20
13.5374
 30
0.0
 10
-10.9945
 20
13.5374
 30
0.0
  0
SPLINE
  5
A9
100
AcDbEntity
  8
Ebene 1
370
    35
100
AcDbSpline
210
0.0
220
0.0
230
1.0
 70
     0
 71
     3
 72
     8
 73
     4
 74
     0
 42
0.0000000001
 43
0.0000000001
 40
0.0
 40
0.0
 40
0.0
 40
0.0
 40
1.0
 40
1.0
 40
1.0
 40
1.0
 10
-10.9945
 20
14.695400000000001
 30
0.0
 10
-10.9945
 20
14.695400000000001
 30
0.0
 10
-11.226100000000001
 20
13.5374
 30
0.0
 10
-11.226100000000001
 20
13.5374
 30
0.0
  0
SPLINE
  5
AA
100
AcDbEntity
  8
Ebene 1
370
    35
100
AcDbSpline
210
0.0
220
0.0
230
1.0
 70
     0
 71
     3
 72
     8
 73
     4
 74
     0
 42
0.0000000001
 43
0.0000000001
 40
0.0
 40
0.0
 40
0.0
 40
0.0
 40
1.0
 40
1.0
 40
1.0
 40
1.0
 10
-10.9945
 20
13.5374
 30
0.0
 10
-10.9945
 20
13.5374
 30
0.0
 10
-10.9945
 20
-1.9025000000000001
 30
0.0
 10
-10.9945
 20
-1.9025000000000001
 30
0.0
  0
SPLINE
  5
AB
100
AcDbEntity
  8
Ebene 1
370
    35
100
AcDbSpline
210
0.0
220
0.0
230
1.0
 70
     0
 71
     3
 72
     8
 73
     4
 74
     0
 42
0.0000000001
 43
0.0000000001
 40
0.0
 40
0.0
 40
0.0
 40
0.0
 40
1.0
 40
1.0
 40
1.0
 40
1.0
 10
-44.615000000000002
 20
13.5374
 30
0.0
 10
-44.615000000000002
 20
13.5374
 30
0.0
 10
-44.846600000000002
 20
13.5374
 30
0.0
 10
-44.846600000000002
 20
13.5374
 30
0.0
  0
SPLINE
  5
AC
100
AcDbEntity
  8
Ebene 1
370
    35
100
AcDbSpline
210
0.0
220
0.0
230
1.0
 70
     0
 71
     3
 72
     8
 73
     4
 74
     0
 42
0.0000000001
 43
0.0000000001
 40
0.0
 40
0.0
 40
0.0
 40
0.0
 40
1.0
 40
1.0
 40
1.0
 40
1.0
 10
-44.846600000000002
 20
14.695400000000001
 30
0.0
 10
-44.846600000000002
 20
14.695400000000001
 30
0.0
 10
-44.615000000000002
 20
13.5374
 30
0.0
 10
-44.615000000000002
 20
13.5374
 30
0.0
  0
SPLINE
  5
AD
100
AcDbEntity
  8
Ebene 1
370
    35
100
AcDbSpline
210
0.0
220
0.0
230
1.0
 70
     0
 71
     3
 72
     8
 73
     4
 74
     0
 42
0.0000000001
 43
0.0000000001
 40
0.0
 40
0.0
 40
0.0
 40
0.0
 40
1.0
 40
1.0
 40
1.0
 40
1.0
 10
-45.618600000000001
 20
15.2743
 30
0.0
 10
-45.618600000000001
 20
15.2743
 30
0.0
 10
-45.618600000000001
 20
-1.1305000000000001
 30
0.0
 10
-45.618600000000001
 20
-1.1305000000000001
 30
0.0
  0
SPLINE
  5
AE
100
AcDbEntity
  8
Ebene 1
370
    35
100
AcDbSpline
210
0.0
220
0.0
230
1.0
 70
     0
 71
     3
 72
     8
 73
     4
 74
     0
 42
0.0000000001
 43
0.0000000001
 40
0.0
 40
0.0
 40
0.0
 40
0.0
 40
1.0
 40
1.0
 40
1.0
 40
1.0
 10
-44.846600000000002
 20
13.5374
 30
0.0
 10
-44.846600000000002
 20
13.5374
 30
0.0
 10
-44.846600000000002
 20
-1.9025000000000001
 30
0.0
 10
-44.846600000000002
 20
-1.9025000000000001
 30
0.0
  0
SPLINE
  5
AF
100
AcDbEntity
  8
Ebene 1
370
    20
  6
New Line1
100
AcDbSpline
210
0.0
220
0.0
230
1.0
 70
     0
 71
     3
 72
     8
 73
     4
 74
     0
 42
0.0000000001
 43
0.0000000001
 40
0.0
 40
0.0
 40
0.0
 40
0.0
 40
1.0
 40
1.0
 40
1.0
 40
1.0
 10
-27.920500000000001
 20
19.404500000000002
 30
0.0
 10
-27.920500000000001
 20
19.404500000000002
 30
0.0
 10
-27.920500000000001
 20
-1.9025000000000001
 30
0.0
 10
-27.920500000000001
 20
-1.9025000000000001
 30
0.0
  0
SPLINE
  5
B1
100
AcDbEntity
  8
Ebene 1
370
    20
100
AcDbSpline
210
0.0
220
0.0
230
1.0
 70
     0
 71
     3
 72
     8
 73
     4
 74
     0
 42
0.0000000001
 43
0.0000000001
 40
0.0
 40
0.0
 40
0.0
 40
0.0
 40
1.0
 40
1.0
 40
1.0
 40
1.0
 10
-43.713799999999999
 20
33.222700000000003
 30
0.0
 10
-43.713799999999999
 20
33.222700000000003
 30
0.0
 10
-37.9238
 20
33.222700000000003
 30
0.0
 10
-37.9238
 20
33.222700000000003
 30
0.0
  0
SPLINE
  5
B2
100
AcDbEntity
  8
Ebene 1
370
    20
100
AcDbSpline
210
0.0
220
0.0
230
1.0
 70
     0
 71
     3
 72
     8
 73
     4
 74
     0
 42
0.0000000001
 43
0.0000000001
 40
0.0
 40
0.0
 40
0.0
 40
0.0
 40
1.0
 40
1.0
 40
1.0
 40
1.0
 10
-37.9238
 20
33.222700000000003
 30
0.0
 10
-37.9238
 20
33.222700000000003
 30
0.0
 10
-37.9238
 20
39.012700000000002
 30
0.0
 10
-37.9238
 20
39.012700000000002
 30
0.0
  0
SPLINE
  5
B3
100
AcDbEntity
  8
Ebene 1
370
    20
100
AcDbSpline
210
0.0
220
0.0
230
1.0
 70
     0
 71
     3
 72
     8
 73
     4
 74
     0
 42
0.0000000001
 43
0.0000000001
 40
0.0
 40
0.0
 40
0.0
 40
0.0
 40
1.0
 40
1.0
 40
1.0
 40
1.0
 10
-43.713799999999999
 20
39.012700000000002
 30
0.0
 10
-43.713799999999999
 20
39.012700000000002
 30
0.0
 10
-37.9238
 20
39.012700000000002
 30
0.0
 10
-37.9238
 20
39.012700000000002
 30
0.0
  0
SPLINE
  5
B4
100
AcDbEntity
  8
Ebene 1
370
    20
100
AcDbSpline
210
0.0
220
0.0
230
1.0
 70
     0
 71
     3
 72
     8
 73
     4
 74
     0
 42
0.0000000001
 43
0.0000000001
 40
0.0
 40
0.0
 40
0.0
 40
0.0
 40
1.0
 40
1.0
 40
1.0
 40
1.0
 10
-43.713799999999999
 20
33.222700000000003
 30
0.0
 10
-43.713799999999999
 20
33.222700000000003
 30
0.0
 10
-43.713799999999999
 20
39.012700000000002
 30
0.0
 10
-43.713799999999999
 20
39.012700000000002
 30
0.0
  0
SPLINE
  5
B5
100
AcDbEntity
  8
Ebene 1
370
    35
100
AcDbSpline
210
0.0
220
0.0
230
1.0
 70
     0
 71
     3
 72
     8
 73
     4
 74
     0
 42
0.0000000001
 43
0.0000000001
 40
0.0
 40
0.0
 40
0.0
 40
0.0
 40
1.0
 40
1.0
 40
1.0
 40
1.0
 10
-44.5869
 20
12.135200000000001
 30
0.0
 10
-44.5869
 20
12.135200000000001
 30
0.0
 10
-44.376100000000001
 20
12.3459
 30
0.0
 10
-44.376100000000001
 20
12.3459
 30
0.0
  0
SPLINE
  5
B6
100
AcDbEntity
  8
Ebene 1
370
    35
100
AcDbSpline
210
0.0
220
0.0
230
1.0
 70
     0
 71
     3
 72
     8
 73
     4
 74
     0
 42
0.0000000001
 43
0.0000000001
 40
0.0
 40
0.0
 40
0.0
 40
0.0
 40
1.0
 40
1.0
 40
1.0
 40
1.0
 10
-44.8782
 20
12.935600000000001
 30
0.0
 10
-44.8782
 20
12.935600000000001
 30
0.0
 10
-44.325500000000005
 20
13.4884
 30
0.0
 10
-44.325500000000005
 20
13.4884
 30
0.0
  0
SPLINE
  5
B7
100
AcDbEntity
  8
Ebene 1
370
    35
100
AcDbSpline
210
0.0
220
0.0
230
1.0
 70
     0
 71
     3
 72
     8
 73
     4
 74
     0
 42
0.0000000001
 43
0.0000000001
 40
0.0
 40
0.0
 40
0.0
 40
0.0
 40
1.0
 40
1.0
 40
1.0
 40
1.0
 10
-44.595700000000001
 20
14.309900000000001
 30
0.0
 10
-44.595700000000001
 20
14.309900000000001
 30
0.0
 10
-44.325500000000005
 20
14.5801
 30
0.0
 10
-44.325500000000005
 20
14.5801
 30
0.0
  0
SPLINE
  5
B8
100
AcDbEntity
  8
Ebene 1
370
    35
100
AcDbSpline
210
0.0
220
0.0
230
1.0
 70
     0
 71
     3
 72
     8
 73
     4
 74
     0
 42
0.0000000001
 43
0.0000000001
 40
0.0
 40
0.0
 40
0.0
 40
0.0
 40
1.0
 40
1.0
 40
1.0
 40
1.0
 10
-44.731700000000004
 20
15.2658
 30
0.0
 10
-44.731700000000004
 20
15.2658
 30
0.0
 10
-44.531100000000002
 20
15.4663
 30
0.0
 10
-44.531100000000002
 20
15.4663
 30
0.0
  0
SPLINE
  5
B9
100
AcDbEntity
  8
Ebene 1
370
    35
100
AcDbSpline
210
0.0
220
0.0
230
1.0
 70
     0
 71
     3
 72
     8
 73
     4
 74
     0
 42
0.0000000001
 43
0.0000000001
 40
0.0
 40
0.0
 40
0.0
 40
0.0
 40
1.0
 40
1.0
 40
1.0
 40
1.0
 10
-45.6999
 20
15.389200000000001
 30
0.0
 10
-45.6999
 20
15.389200000000001
 30
0.0
 10
-45.503100000000003
 20
15.5861
 30
0.0
 10
-45.503100000000003
 20
15.5861
 30
0.0
  0
SPLINE
  5
BA
100
AcDbEntity
  8
Ebene 1
370
    35
100
AcDbSpline
210
0.0
220
0.0
230
1.0
 70
     0
 71
     3
 72
     8
 73
     4
 74
     0
 42
0.0000000001
 43
0.0000000001
 40
0.0
 40
0.0
 40
0.0
 40
0.0
 40
1.0
 40
1.0
 40
1.0
 40
1.0
 10
-45.985300000000002
 20
16.195600000000002
 30
0.0
 10
-45.985300000000002
 20
16.195600000000002
 30
0.0
 10
-45.7151
 20
16.465900000000001
 30
0.0
 10
-45.7151
 20
16.465900000000001
 30
0.0
  0
SPLINE
  5
BB
100
AcDbEntity
  8
Ebene 1
370
    35
100
AcDbSpline
210
0.0
220
0.0
230
1.0
 70
     0
 71
     3
 72
     8
 73
     4
 74
     0
 42
0.0000000001
 43
0.0000000001
 40
0.0
 40
0.0
 40
0.0
 40
0.0
 40
1.0
 40
1.0
 40
1.0
 40
1.0
 10
-45.985300000000002
 20
17.287400000000002
 30
0.0
 10
-45.985300000000002
 20
17.287400000000002
 30
0.0
 10
-45.7151
 20
17.557600000000001
 30
0.0
 10
-45.7151
 20
17.557600000000001
 30
0.0
  0
SPLINE
  5
BC
100
AcDbEntity
  8
Ebene 1
370
    35
100
AcDbSpline
210
0.0
220
0.0
230
1.0
 70
     0
 71
     3
 72
     8
 73
     4
 74
     0
 42
0.0000000001
 43
0.0000000001
 40
0.0
 40
0.0
 40
0.0
 40
0.0
 40
1.0
 40
1.0
 40
1.0
 40
1.0
 10
-47.413499999999999
 20
16.951000000000001
 30
0.0
 10
-47.413499999999999
 20
16.951000000000001
 30
0.0
 10
-47.027200000000001
 20
17.3371
 30
0.0
 10
-47.027200000000001
 20
17.3371
 30
0.0
  0
SPLINE
  5
BD
100
AcDbEntity
  8
Ebene 1
370
    35
100
AcDbSpline
210
0.0
220
0.0
230
1.0
 70
     0
 71
     3
 72
     8
 73
     4
 74
     0
 42
0.0000000001
 43
0.0000000001
 40
0.0
 40
0.0
 40
0.0
 40
0.0
 40
1.0
 40
1.0
 40
1.0
 40
1.0
 10
-45.985300000000002
 20
18.379200000000001
 30
0.0
 10
-45.985300000000002
 20
18.379200000000001
 30
0.0
 10
-45.7151
 20
18.6493
 30
0.0
 10
-45.7151
 20
18.6493
 30
0.0
  0
SPLINE
  5
BE
100
AcDbEntity
  8
Ebene 1
370
    35
100
AcDbSpline
210
0.0
220
0.0
230
1.0
 70
     0
 71
     3
 72
     8
 73
     4
 74
     0
 42
0.0000000001
 43
0.0000000001
 40
0.0
 40
0.0
 40
0.0
 40
0.0
 40
1.0
 40
1.0
 40
1.0
 40
1.0
 10
-47.220500000000001
 20
18.235700000000001
 30
0.0
 10
-47.220500000000001
 20
18.235700000000001
 30
0.0
 10
-46.950300000000006
 20
18.5059
 30
0.0
 10
-46.950300000000006
 20
18.5059
 30
0.0
  0
SPLINE
  5
BF
100
AcDbEntity
  8
Ebene 1
370
    35
100
AcDbSpline
210
0.0
220
0.0
230
1.0
 70
     0
 71
     3
 72
     8
 73
     4
 74
     0
 42
0.0000000001
 43
0.0000000001
 40
0.0
 40
0.0
 40
0.0
 40
0.0
 40
1.0
 40
1.0
 40
1.0
 40
1.0
 10
-46.324800000000003
 20
19.131500000000003
 30
0.0
 10
-46.324800000000003
 20
19.131500000000003
 30
0.0
 10
-46.107199999999999
 20
19.349
 30
0.0
 10
-46.107199999999999
 20
19.349
 30
0.0
  0
SPLINE
  5
C0
100
AcDbEntity
  8
Ebene 1
370
    35
100
AcDbSpline
210
0.0
220
0.0
230
1.0
 70
     0
 71
     3
 72
     8
 73
     4
 74
     0
 42
0.0000000001
 43
0.0000000001
 40
0.0
 40
0.0
 40
0.0
 40
0.0
 40
1.0
 40
1.0
 40
1.0
 40
1.0
 10
-11.374400000000001
 20
12.5945
 30
0.0
 10
-11.374400000000001
 20
12.5945
 30
0.0
 10
-10.9465
 20
13.022400000000001
 30
0.0
 10
-10.9465
 20
13.022400000000001
 30
0.0
  0
SPLINE
  5
C1
100
AcDbEntity
  8
Ebene 1
370
    35
100
AcDbSpline
210
0.0
220
0.0
230
1.0
 70
     0
 71
     3
 72
     8
 73
     4
 74
     0
 42
0.0000000001
 43
0.0000000001
 40
0.0
 40
0.0
 40
0.0
 40
0.0
 40
1.0
 40
1.0
 40
1.0
 40
1.0
 10
-11.515600000000001
 20
13.545100000000001
 30
0.0
 10
-11.515600000000001
 20
13.545100000000001
 30
0.0
 10
-11.2454
 20
13.8154
 30
0.0
 10
-11.2454
 20
13.8154
 30
0.0
  0
SPLINE
  5
C2
100
AcDbEntity
  8
Ebene 1
370
    35
100
AcDbSpline
210
0.0
220
0.0
230
1.0
 70
     0
 71
     3
 72
     8
 73
     4
 74
     0
 42
0.0000000001
 43
0.0000000001
 40
0.0
 40
0.0
 40
0.0
 40
0.0
 40
1.0
 40
1.0
 40
1.0
 40
1.0
 10
-11.515600000000001
 20
14.637
 30
0.0
 10
-11.515600000000001
 20
14.637
 30
0.0
 10
-11.2454
 20
14.907200000000001
 30
0.0
 10
-11.2454
 20
14.907200000000001
 30
0.0
  0
SPLINE
  5
C3
100
AcDbEntity
  8
Ebene 1
370
    35
100
AcDbSpline
210
0.0
220
0.0
230
1.0
 70
     0
 71
     3
 72
     8
 73
     4
 74
     0
 42
0.0000000001
 43
0.0000000001
 40
0.0
 40
0.0
 40
0.0
 40
0.0
 40
1.0
 40
1.0
 40
1.0
 40
1.0
 10
-10.8782
 20
15.2743
 30
0.0
 10
-10.8782
 20
15.2743
 30
0.0
 10
-10.608000000000001
 20
15.544500000000001
 30
0.0
 10
-10.608000000000001
 20
15.544500000000001
 30
0.0
  0
SPLINE
  5
C4
100
AcDbEntity
  8
Ebene 1
370
    35
100
AcDbSpline
210
0.0
220
0.0
230
1.0
 70
     0
 71
     3
 72
     8
 73
     4
 74
     0
 42
0.0000000001
 43
0.0000000001
 40
0.0
 40
0.0
 40
0.0
 40
0.0
 40
1.0
 40
1.0
 40
1.0
 40
1.0
 10
-10.1259
 20
16.026500000000002
 30
0.0
 10
-10.1259
 20
16.026500000000002
 30
0.0
 10
-9.8557000000000006
 20
16.296800000000001
 30
0.0
 10
-9.8557000000000006
 20
16.296800000000001
 30
0.0
  0
SPLINE
  5
C5
100
AcDbEntity
  8
Ebene 1
370
    35
100
AcDbSpline
210
0.0
220
0.0
230
1.0
 70
     0
 71
     3
 72
     8
 73
     4
 74
     0
 42
0.0000000001
 43
0.0000000001
 40
0.0
 40
0.0
 40
0.0
 40
0.0
 40
1.0
 40
1.0
 40
1.0
 40
1.0
 10
-8.8143000000000011
 20
17.3383
 30
0.0
 10
-8.8143000000000011
 20
17.3383
 30
0.0
 10
-8.6032000000000011
 20
17.549400000000002
 30
0.0
 10
-8.6032000000000011
 20
17.549400000000002
 30
0.0
  0
SPLINE
  5
C6
100
AcDbEntity
  8
Ebene 1
370
    35
100
AcDbSpline
210
0.0
220
0.0
230
1.0
 70
     0
 71
     3
 72
     8
 73
     4
 74
     0
 42
0.0000000001
 43
0.0000000001
 40
0.0
 40
0.0
 40
0.0
 40
0.0
 40
1.0
 40
1.0
 40
1.0
 40
1.0
 10
-10.1259
 20
17.118300000000001
 30
0.0
 10
-10.1259
 20
17.118300000000001
 30
0.0
 10
-9.8557000000000006
 20
17.388500000000001
 30
0.0
 10
-9.8557000000000006
 20
17.388500000000001
 30
0.0
  0
SPLINE
  5
C7
100
AcDbEntity
  8
Ebene 1
370
    35
100
AcDbSpline
210
0.0
220
0.0
230
1.0
 70
     0
 71
     3
 72
     8
 73
     4
 74
     0
 42
0.0000000001
 43
0.0000000001
 40
0.0
 40
0.0
 40
0.0
 40
0.0
 40
1.0
 40
1.0
 40
1.0
 40
1.0
 10
-8.8908000000000005
 20
18.3535
 30
0.0
 10
-8.8908000000000005
 20
18.3535
 30
0.0
 10
-8.6205999999999996
 20
18.623699999999999
 30
0.0
 10
-8.6205999999999996
 20
18.623699999999999
 30
0.0
  0
SPLINE
  5
C8
100
AcDbEntity
  8
Ebene 1
370
    35
100
AcDbSpline
210
0.0
220
0.0
230
1.0
 70
     0
 71
     3
 72
     8
 73
     4
 74
     0
 42
0.0000000001
 43
0.0000000001
 40
0.0
 40
0.0
 40
0.0
 40
0.0
 40
1.0
 40
1.0
 40
1.0
 40
1.0
 10
-10.1259
 20
18.210100000000001
 30
0.0
 10
-10.1259
 20
18.210100000000001
 30
0.0
 10
-9.8557000000000006
 20
18.4802
 30
0.0
 10
-9.8557000000000006
 20
18.4802
 30
0.0
  0
SPLINE
  5
C9
100
AcDbEntity
  8
Ebene 1
370
    35
100
AcDbSpline
210
0.0
220
0.0
230
1.0
 70
     0
 71
     3
 72
     8
 73
     4
 74
     0
 42
0.0000000001
 43
0.0000000001
 40
0.0
 40
0.0
 40
0.0
 40
0.0
 40
1.0
 40
1.0
 40
1.0
 40
1.0
 10
-9.2079000000000004
 20
19.1282
 30
0.0
 10
-9.2079000000000004
 20
19.1282
 30
0.0
 10
-8.9951000000000008
 20
19.341000000000001
 30
0.0
 10
-8.9951000000000008
 20
19.341000000000001
 30
0.0
  0
SPLINE
  5
CA
100
AcDbEntity
  8
Ebene 1
370
    20
100
AcDbSpline
210
0.0
220
0.0
230
1.0
 70
     0
 71
     3
 72
     8
 73
     4
 74
     0
 42
0.0000000001
 43
0.0000000001
 40
0.0
 40
0.0
 40
0.0
 40
0.0
 40
1.0
 40
1.0
 40
1.0
 40
1.0
 10
-10.5868
 20
-1.9025000000000001
 30
0.0
 10
-10.5868
 20
-1.9025000000000001
 30
0.0
 10
-10.371700000000001
 20
-1.6874
 30
0.0
 10
-10.371700000000001
 20
-1.6874
 30
0.0
  0
SPLINE
  5
CB
100
AcDbEntity
  8
Ebene 1
370
    20
100
AcDbSpline
210
0.0
220
0.0
230
1.0
 70
     0
 71
     3
 72
     8
 73
     4
 74
     0
 42
0.0000000001
 43
0.0000000001
 40
0.0
 40
0.0
 40
0.0
 40
0.0
 40
1.0
 40
1.0
 40
1.0
 40
1.0
 10
-10.9945
 20
-1.2183000000000002
 30
0.0
 10
-10.9945
 20
-1.2183000000000002
 30
0.0
 10
-10.2225
 20
-0.4463
 30
0.0
 10
-10.2225
 20
-0.4463
 30
0.0
  0
SPLINE
  5
CC
100
AcDbEntity
  8
Ebene 1
370
    20
100
AcDbSpline
210
0.0
220
0.0
230
1.0
 70
     0
 71
     3
 72
     8
 73
     4
 74
     0
 42
0.0000000001
 43
0.0000000001
 40
0.0
 40
0.0
 40
0.0
 40
0.0
 40
1.0
 40
1.0
 40
1.0
 40
1.0
 10
-10.9945
 20
-0.1266
 30
0.0
 10
-10.9945
 20
-0.1266
 30
0.0
 10
-10.2225
 20
0.6453
 30
0.0
 10
-10.2225
 20
0.6453
 30
0.0
  0
SPLINE
  5
CD
100
AcDbEntity
  8
Ebene 1
370
    20
100
AcDbSpline
210
0.0
220
0.0
230
1.0
 70
     0
 71
     3
 72
     8
 73
     4
 74
     0
 42
0.0000000001
 43
0.0000000001
 40
0.0
 40
0.0
 40
0.0
 40
0.0
 40
1.0
 40
1.0
 40
1.0
 40
1.0
 10
-10.9945
 20
0.9650000000000001
 30
0.0
 10
-10.9945
 20
0.9650000000000001
 30
0.0
 10
-10.2225
 20
1.7370000000000001
 30
0.0
 10
-10.2225
 20
1.7370000000000001
 30
0.0
  0
SPLINE
  5
CE
100
AcDbEntity
  8
Ebene 1
370
    20
100
AcDbSpline
210
0.0
220
0.0
230
1.0
 70
     0
 71
     3
 72
     8
 73
     4
 74
     0
 42
0.0000000001
 43
0.0000000001
 40
0.0
 40
0.0
 40
0.0
 40
0.0
 40
1.0
 40
1.0
 40
1.0
 40
1.0
 10
-10.9945
 20
2.0569000000000002
 30
0.0
 10
-10.9945
 20
2.0569000000000002
 30
0.0
 10
-10.2225
 20
2.8289
 30
0.0
 10
-10.2225
 20
2.8289
 30
0.0
  0
SPLINE
  5
CF
100
AcDbEntity
  8
Ebene 1
370
    20
100
AcDbSpline
210
0.0
220
0.0
230
1.0
 70
     0
 71
     3
 72
     8
 73
     4
 74
     0
 42
0.0000000001
 43
0.0000000001
 40
0.0
 40
0.0
 40
0.0
 40
0.0
 40
1.0
 40
1.0
 40
1.0
 40
1.0
 10
-10.9945
 20
3.1486000000000001
 30
0.0
 10
-10.9945
 20
3.1486000000000001
 30
0.0
 10
-10.2225
 20
3.9206000000000003
 30
0.0
 10
-10.2225
 20
3.9206000000000003
 30
0.0
  0
SPLINE
  5
D0
100
AcDbEntity
  8
Ebene 1
370
    20
100
AcDbSpline
210
0.0
220
0.0
230
1.0
 70
     0
 71
     3
 72
     8
 73
     4
 74
     0
 42
0.0000000001
 43
0.0000000001
 40
0.0
 40
0.0
 40
0.0
 40
0.0
 40
1.0
 40
1.0
 40
1.0
 40
1.0
 10
-10.9945
 20
4.2403000000000004
 30
0.0
 10
-10.9945
 20
4.2403000000000004
 30
0.0
 10
-10.2225
 20
5.0123000000000006
 30
0.0
 10
-10.2225
 20
5.0123000000000006
 30
0.0
  0
SPLINE
  5
D1
100
AcDbEntity
  8
Ebene 1
370
    20
100
AcDbSpline
210
0.0
220
0.0
230
1.0
 70
     0
 71
     3
 72
     8
 73
     4
 74
     0
 42
0.0000000001
 43
0.0000000001
 40
0.0
 40
0.0
 40
0.0
 40
0.0
 40
1.0
 40
1.0
 40
1.0
 40
1.0
 10
-10.9945
 20
5.3322000000000003
 30
0.0
 10
-10.9945
 20
5.3322000000000003
 30
0.0
 10
-10.2225
 20
6.1042000000000005
 30
0.0
 10
-10.2225
 20
6.1042000000000005
 30
0.0
  0
SPLINE
  5
D2
100
AcDbEntity
  8
Ebene 1
370
    20
100
AcDbSpline
210
0.0
220
0.0
230
1.0
 70
     0
 71
     3
 72
     8
 73
     4
 74
     0
 42
0.0000000001
 43
0.0000000001
 40
0.0
 40
0.0
 40
0.0
 40
0.0
 40
1.0
 40
1.0
 40
1.0
 40
1.0
 10
-10.9945
 20
6.4239000000000006
 30
0.0
 10
-10.9945
 20
6.4239000000000006
 30
0.0
 10
-10.2225
 20
7.1959
 30
0.0
 10
-10.2225
 20
7.1959
 30
0.0
  0
SPLINE
  5
D3
100
AcDbEntity
  8
Ebene 1
370
    20
100
AcDbSpline
210
0.0
220
0.0
230
1.0
 70
     0
 71
     3
 72
     8
 73
     4
 74
     0
 42
0.0000000001
 43
0.0000000001
 40
0.0
 40
0.0
 40
0.0
 40
0.0
 40
1.0
 40
1.0
 40
1.0
 40
1.0
 10
-10.9945
 20
7.5156000000000001
 30
0.0
 10
-10.9945
 20
7.5156000000000001
 30
0.0
 10
-10.2225
 20
8.2876000000000012
 30
0.0
 10
-10.2225
 20
8.2876000000000012
 30
0.0
  0
SPLINE
  5
D4
100
AcDbEntity
  8
Ebene 1
370
    20
100
AcDbSpline
210
0.0
220
0.0
230
1.0
 70
     0
 71
     3
 72
     8
 73
     4
 74
     0
 42
0.0000000001
 43
0.0000000001
 40
0.0
 40
0.0
 40
0.0
 40
0.0
 40
1.0
 40
1.0
 40
1.0
 40
1.0
 10
-10.9945
 20
8.6074999999999999
 30
0.0
 10
-10.9945
 20
8.6074999999999999
 30
0.0
 10
-10.2225
 20
9.3795000000000002
 30
0.0
 10
-10.2225
 20
9.3795000000000002
 30
0.0
  0
SPLINE
  5
D5
100
AcDbEntity
  8
Ebene 1
370
    20
100
AcDbSpline
210
0.0
220
0.0
230
1.0
 70
     0
 71
     3
 72
     8
 73
     4
 74
     0
 42
0.0000000001
 43
0.0000000001
 40
0.0
 40
0.0
 40
0.0
 40
0.0
 40
1.0
 40
1.0
 40
1.0
 40
1.0
 10
-10.9945
 20
9.6992000000000012
 30
0.0
 10
-10.9945
 20
9.6992000000000012
 30
0.0
 10
-10.2225
 20
10.4712
 30
0.0
 10
-10.2225
 20
10.4712
 30
0.0
  0
SPLINE
  5
D6
100
AcDbEntity
  8
Ebene 1
370
    20
100
AcDbSpline
210
0.0
220
0.0
230
1.0
 70
     0
 71
     3
 72
     8
 73
     4
 74
     0
 42
0.0000000001
 43
0.0000000001
 40
0.0
 40
0.0
 40
0.0
 40
0.0
 40
1.0
 40
1.0
 40
1.0
 40
1.0
 10
-10.9945
 20
10.790900000000001
 30
0.0
 10
-10.9945
 20
10.790900000000001
 30
0.0
 10
-10.2225
 20
11.562900000000001
 30
0.0
 10
-10.2225
 20
11.562900000000001
 30
0.0
  0
SPLINE
  5
D7
100
AcDbEntity
  8
Ebene 1
370
    20
100
AcDbSpline
210
0.0
220
0.0
230
1.0
 70
     0
 71
     3
 72
     8
 73
     4
 74
     0
 42
0.0000000001
 43
0.0000000001
 40
0.0
 40
0.0
 40
0.0
 40
0.0
 40
1.0
 40
1.0
 40
1.0
 40
1.0
 10
-10.9945
 20
11.882800000000001
 30
0.0
 10
-10.9945
 20
11.882800000000001
 30
0.0
 10
-10.2225
 20
12.6548
 30
0.0
 10
-10.2225
 20
12.6548
 30
0.0
  0
SPLINE
  5
D8
100
AcDbEntity
  8
Ebene 1
370
    20
100
AcDbSpline
210
0.0
220
0.0
230
1.0
 70
     0
 71
     3
 72
     8
 73
     4
 74
     0
 42
0.0000000001
 43
0.0000000001
 40
0.0
 40
0.0
 40
0.0
 40
0.0
 40
1.0
 40
1.0
 40
1.0
 40
1.0
 10
-10.9945
 20
12.974500000000001
 30
0.0
 10
-10.9945
 20
12.974500000000001
 30
0.0
 10
-10.2225
 20
13.746500000000001
 30
0.0
 10
-10.2225
 20
13.746500000000001
 30
0.0
  0
SPLINE
  5
D9
100
AcDbEntity
  8
Ebene 1
370
    20
100
AcDbSpline
210
0.0
220
0.0
230
1.0
 70
     0
 71
     3
 72
     8
 73
     4
 74
     0
 42
0.0000000001
 43
0.0000000001
 40
0.0
 40
0.0
 40
0.0
 40
0.0
 40
1.0
 40
1.0
 40
1.0
 40
1.0
 10
-11.1517
 20
13.909000000000001
 30
0.0
 10
-11.1517
 20
13.909000000000001
 30
0.0
 10
-10.2225
 20
14.838200000000001
 30
0.0
 10
-10.2225
 20
14.838200000000001
 30
0.0
  0
SPLINE
  5
DA
100
AcDbEntity
  8
Ebene 1
370
    20
100
AcDbSpline
210
0.0
220
0.0
230
1.0
 70
     0
 71
     3
 72
     8
 73
     4
 74
     0
 42
0.0000000001
 43
0.0000000001
 40
0.0
 40
0.0
 40
0.0
 40
0.0
 40
1.0
 40
1.0
 40
1.0
 40
1.0
 10
-10.9945
 20
15.158100000000001
 30
0.0
 10
-10.9945
 20
15.158100000000001
 30
0.0
 10
-10.8782
 20
15.2743
 30
0.0
 10
-10.8782
 20
15.2743
 30
0.0
  0
SPLINE
  5
DB
100
AcDbEntity
  8
Ebene 1
370
    20
100
AcDbSpline
210
0.0
220
0.0
230
1.0
 70
     0
 71
     3
 72
     8
 73
     4
 74
     0
 42
0.0000000001
 43
0.0000000001
 40
0.0
 40
0.0
 40
0.0
 40
0.0
 40
1.0
 40
1.0
 40
1.0
 40
1.0
 10
-45.435300000000005
 20
-1.8144
 30
0.0
 10
-45.435300000000005
 20
-1.8144
 30
0.0
 10
-44.846600000000002
 20
-1.2256
 30
0.0
 10
-44.846600000000002
 20
-1.2256
 30
0.0
  0
SPLINE
  5
DC
100
AcDbEntity
  8
Ebene 1
370
    20
100
AcDbSpline
210
0.0
220
0.0
230
1.0
 70
     0
 71
     3
 72
     8
 73
     4
 74
     0
 42
0.0000000001
 43
0.0000000001
 40
0.0
 40
0.0
 40
0.0
 40
0.0
 40
1.0
 40
1.0
 40
1.0
 40
1.0
 10
-45.618600000000001
 20
-0.9058000000000001
 30
0.0
 10
-45.618600000000001
 20
-0.9058000000000001
 30
0.0
 10
-44.846600000000002
 20
-0.1338
 30
0.0
 10
-44.846600000000002
 20
-0.1338
 30
0.0
  0
SPLINE
  5
DD
100
AcDbEntity
  8
Ebene 1
370
    20
100
AcDbSpline
210
0.0
220
0.0
230
1.0
 70
     0
 71
     3
 72
     8
 73
     4
 74
     0
 42
0.0000000001
 43
0.0000000001
 40
0.0
 40
0.0
 40
0.0
 40
0.0
 40
1.0
 40
1.0
 40
1.0
 40
1.0
 10
-45.618600000000001
 20
0.1859
 30
0.0
 10
-45.618600000000001
 20
0.1859
 30
0.0
 10
-44.846600000000002
 20
0.9578000000000001
 30
0.0
 10
-44.846600000000002
 20
0.9578000000000001
 30
0.0
  0
SPLINE
  5
DE
100
AcDbEntity
  8
Ebene 1
370
    20
100
AcDbSpline
210
0.0
220
0.0
230
1.0
 70
     0
 71
     3
 72
     8
 73
     4
 74
     0
 42
0.0000000001
 43
0.0000000001
 40
0.0
 40
0.0
 40
0.0
 40
0.0
 40
1.0
 40
1.0
 40
1.0
 40
1.0
 10
-45.618600000000001
 20
1.2776000000000001
 30
0.0
 10
-45.618600000000001
 20
1.2776000000000001
 30
0.0
 10
-44.846600000000002
 20
2.0496000000000003
 30
0.0
 10
-44.846600000000002
 20
2.0496000000000003
 30
0.0
  0
SPLINE
  5
DF
100
AcDbEntity
  8
Ebene 1
370
    20
100
AcDbSpline
210
0.0
220
0.0
230
1.0
 70
     0
 71
     3
 72
     8
 73
     4
 74
     0
 42
0.0000000001
 43
0.0000000001
 40
0.0
 40
0.0
 40
0.0
 40
0.0
 40
1.0
 40
1.0
 40
1.0
 40
1.0
 10
-45.618600000000001
 20
2.3694000000000002
 30
0.0
 10
-45.618600000000001
 20
2.3694000000000002
 30
0.0
 10
-44.846600000000002
 20
3.1414
 30
0.0
 10
-44.846600000000002
 20
3.1414
 30
0.0
  0
SPLINE
  5
E0
100
AcDbEntity
  8
Ebene 1
370
    20
100
AcDbSpline
210
0.0
220
0.0
230
1.0
 70
     0
 71
     3
 72
     8
 73
     4
 74
     0
 42
0.0000000001
 43
0.0000000001
 40
0.0
 40
0.0
 40
0.0
 40
0.0
 40
1.0
 40
1.0
 40
1.0
 40
1.0
 10
-45.618600000000001
 20
3.4611000000000001
 30
0.0
 10
-45.618600000000001
 20
3.4611000000000001
 30
0.0
 10
-44.846600000000002
 20
4.2331000000000003
 30
0.0
 10
-44.846600000000002
 20
4.2331000000000003
 30
0.0
  0
SPLINE
  5
E1
100
AcDbEntity
  8
Ebene 1
370
    20
100
AcDbSpline
210
0.0
220
0.0
230
1.0
 70
     0
 71
     3
 72
     8
 73
     4
 74
     0
 42
0.0000000001
 43
0.0000000001
 40
0.0
 40
0.0
 40
0.0
 40
0.0
 40
1.0
 40
1.0
 40
1.0
 40
1.0
 10
-45.618600000000001
 20
4.5529000000000002
 30
0.0
 10
-45.618600000000001
 20
4.5529000000000002
 30
0.0
 10
-44.846600000000002
 20
5.3249000000000004
 30
0.0
 10
-44.846600000000002
 20
5.3249000000000004
 30
0.0
  0
SPLINE
  5
E2
100
AcDbEntity
  8
Ebene 1
370
    20
100
AcDbSpline
210
0.0
220
0.0
230
1.0
 70
     0
 71
     3
 72
     8
 73
     4
 74
     0
 42
0.0000000001
 43
0.0000000001
 40
0.0
 40
0.0
 40
0.0
 40
0.0
 40
1.0
 40
1.0
 40
1.0
 40
1.0
 10
-45.618600000000001
 20
5.6447000000000003
 30
0.0
 10
-45.618600000000001
 20
5.6447000000000003
 30
0.0
 10
-44.846600000000002
 20
6.4167000000000005
 30
0.0
 10
-44.846600000000002
 20
6.4167000000000005
 30
0.0
  0
SPLINE
  5
E3
100
AcDbEntity
  8
Ebene 1
370
    20
100
AcDbSpline
210
0.0
220
0.0
230
1.0
 70
     0
 71
     3
 72
     8
 73
     4
 74
     0
 42
0.0000000001
 43
0.0000000001
 40
0.0
 40
0.0
 40
0.0
 40
0.0
 40
1.0
 40
1.0
 40
1.0
 40
1.0
 10
-45.618600000000001
 20
6.7364000000000006
 30
0.0
 10
-45.618600000000001
 20
6.7364000000000006
 30
0.0
 10
-44.846600000000002
 20
7.5084
 30
0.0
 10
-44.846600000000002
 20
7.5084
 30
0.0
  0
SPLINE
  5
E4
100
AcDbEntity
  8
Ebene 1
370
    20
100
AcDbSpline
210
0.0
220
0.0
230
1.0
 70
     0
 71
     3
 72
     8
 73
     4
 74
     0
 42
0.0000000001
 43
0.0000000001
 40
0.0
 40
0.0
 40
0.0
 40
0.0
 40
1.0
 40
1.0
 40
1.0
 40
1.0
 10
-45.618600000000001
 20
7.8282000000000007
 30
0.0
 10
-45.618600000000001
 20
7.8282000000000007
 30
0.0
 10
-44.846600000000002
 20
8.600200000000001
 30
0.0
 10
-44.846600000000002
 20
8.600200000000001
 30
0.0
  0
SPLINE
  5
E5
100
AcDbEntity
  8
Ebene 1
370
    20
100
AcDbSpline
210
0.0
220
0.0
230
1.0
 70
     0
 71
     3
 72
     8
 73
     4
 74
     0
 42
0.0000000001
 43
0.0000000001
 40
0.0
 40
0.0
 40
0.0
 40
0.0
 40
1.0
 40
1.0
 40
1.0
 40
1.0
 10
-45.618600000000001
 20
8.9199999999999999
 30
0.0
 10
-45.618600000000001
 20
8.9199999999999999
 30
0.0
 10
-44.846600000000002
 20
9.6920000000000002
 30
0.0
 10
-44.846600000000002
 20
9.6920000000000002
 30
0.0
  0
SPLINE
  5
E6
100
AcDbEntity
  8
Ebene 1
370
    20
100
AcDbSpline
210
0.0
220
0.0
230
1.0
 70
     0
 71
     3
 72
     8
 73
     4
 74
     0
 42
0.0000000001
 43
0.0000000001
 40
0.0
 40
0.0
 40
0.0
 40
0.0
 40
1.0
 40
1.0
 40
1.0
 40
1.0
 10
-45.618600000000001
 20
10.011700000000001
 30
0.0
 10
-45.618600000000001
 20
10.011700000000001
 30
0.0
 10
-44.846600000000002
 20
10.783700000000001
 30
0.0
 10
-44.846600000000002
 20
10.783700000000001
 30
0.0
  0
SPLINE
  5
E7
100
AcDbEntity
  8
Ebene 1
370
    20
100
AcDbSpline
210
0.0
220
0.0
230
1.0
 70
     0
 71
     3
 72
     8
 73
     4
 74
     0
 42
0.0000000001
 43
0.0000000001
 40
0.0
 40
0.0
 40
0.0
 40
0.0
 40
1.0
 40
1.0
 40
1.0
 40
1.0
 10
-45.618600000000001
 20
11.1035
 30
0.0
 10
-45.618600000000001
 20
11.1035
 30
0.0
 10
-44.846600000000002
 20
11.875500000000001
 30
0.0
 10
-44.846600000000002
 20
11.875500000000001
 30
0.0
  0
SPLINE
  5
E8
100
AcDbEntity
  8
Ebene 1
370
    20
100
AcDbSpline
210
0.0
220
0.0
230
1.0
 70
     0
 71
     3
 72
     8
 73
     4
 74
     0
 42
0.0000000001
 43
0.0000000001
 40
0.0
 40
0.0
 40
0.0
 40
0.0
 40
1.0
 40
1.0
 40
1.0
 40
1.0
 10
-45.618600000000001
 20
12.195300000000001
 30
0.0
 10
-45.618600000000001
 20
12.195300000000001
 30
0.0
 10
-44.846600000000002
 20
12.9673
 30
0.0
 10
-44.846600000000002
 20
12.9673
 30
0.0
  0
SPLINE
  5
E9
100
AcDbEntity
  8
Ebene 1
370
    20
100
AcDbSpline
210
0.0
220
0.0
230
1.0
 70
     0
 71
     3
 72
     8
 73
     4
 74
     0
 42
0.0000000001
 43
0.0000000001
 40
0.0
 40
0.0
 40
0.0
 40
0.0
 40
1.0
 40
1.0
 40
1.0
 40
1.0
 10
-45.618600000000001
 20
13.287000000000001
 30
0.0
 10
-45.618600000000001
 20
13.287000000000001
 30
0.0
 10
-44.740500000000004
 20
14.165100000000001
 30
0.0
 10
-44.740500000000004
 20
14.165100000000001
 30
0.0
  0
SPLINE
  5
EA
100
AcDbEntity
  8
Ebene 1
370
    20
100
AcDbSpline
210
0.0
220
0.0
230
1.0
 70
     0
 71
     3
 72
     8
 73
     4
 74
     0
 42
0.0000000001
 43
0.0000000001
 40
0.0
 40
0.0
 40
0.0
 40
0.0
 40
1.0
 40
1.0
 40
1.0
 40
1.0
 10
-45.618600000000001
 20
14.3788
 30
0.0
 10
-45.618600000000001
 20
14.3788
 30
0.0
 10
-44.846600000000002
 20
15.1508
 30
0.0
 10
-44.846600000000002
 20
15.1508
 30
0.0
  0
SPLINE
  5
EB
100
AcDbEntity
  8
Ebene 1
370
    35
100
AcDbSpline
210
0.0
220
0.0
230
1.0
 70
     0
 71
     3
 72
     8
 73
     4
 74
     0
 42
0.0000000001
 43
0.0000000001
 40
0.0
 40
0.0
 40
0.0
 40
0.0
 40
1.0
 40
1.0
 40
1.0
 40
1.0
 10
30.075600000000001
 20
-7.9626000000000001
 30
0.0
 10
30.075600000000001
 20
-8.5595999999999997
 30
0.0
 10
30.559600000000003
 20
-9.0434000000000001
 30
0.0
 10
31.156500000000001
 20
-9.0434000000000001
 30
0.0
  0
SPLINE
  5
EC
100
AcDbEntity
  8
Ebene 1
370
    35
100
AcDbSpline
210
0.0
220
0.0
230
1.0
 70
     0
 71
     3
 72
     8
 73
     4
 74
     0
 42
0.0000000001
 43
0.0000000001
 40
0.0
 40
0.0
 40
0.0
 40
0.0
 40
1.0
 40
1.0
 40
1.0
 40
1.0
 10
65.6648
 20
25.464700000000001
 30
0.0
 10
65.6648
 20
26.061600000000002
 30
0.0
 10
65.180900000000008
 20
26.545500000000001
 30
0.0
 10
64.584000000000003
 20
26.545500000000001
 30
0.0
  0
SPLINE
  5
ED
100
AcDbEntity
  8
Ebene 1
370
    20
100
AcDbSpline
210
0.0
220
0.0
230
1.0
 70
     0
 71
     3
 72
     8
 73
     4
 74
     0
 42
0.0000000001
 43
0.0000000001
 40
0.0
 40
0.0
 40
0.0
 40
0.0
 40
1.0
 40
1.0
 40
1.0
 40
1.0
 10
-47.413499999999999
 20
16.934200000000001
 30
0.0
 10
-47.413499999999999
 20
16.934200000000001
 30
0.0
 10
-65.886899999999997
 20
16.934200000000001
 30
0.0
 10
-65.886899999999997
 20
16.934200000000001
 30
0.0
  0
SPLINE
  5
EE
100
AcDbEntity
  8
Ebene 1
370
    20
100
AcDbSpline
210
0.0
220
0.0
230
1.0
 70
     0
 71
     3
 72
     8
 73
     4
 74
     0
 42
0.0000000001
 43
0.0000000001
 40
0.0
 40
0.0
 40
0.0
 40
0.0
 40
1.0
 40
1.0
 40
1.0
 40
1.0
 10
-46.564300000000003
 20
19.404500000000002
 30
0.0
 10
-46.564300000000003
 20
19.404500000000002
 30
0.0
 10
-65.886899999999997
 20
19.404500000000002
 30
0.0
 10
-65.886899999999997
 20
19.404500000000002
 30
0.0
  0
SPLINE
  5
EF
100
AcDbEntity
  8
Ebene 1
370
    20
100
AcDbSpline
210
0.0
220
0.0
230
1.0
 70
     0
 71
     3
 72
     8
 73
     4
 74
     0
 42
0.0000000001
 43
0.0000000001
 40
0.0
 40
0.0
 40
0.0
 40
0.0
 40
1.0
 40
1.0
 40
1.0
 40
1.0
 10
-57.991400000000006
 20
6.2187000000000001
 30
0.0
 10
-57.991400000000006
 20
6.2187000000000001
 30
0.0
 10
-59.402100000000004
 20
16.934200000000001
 30
0.0
 10
-59.402100000000004
 20
16.934200000000001
 30
0.0
  0
SPLINE
  5
F0
100
AcDbEntity
  8
Ebene 1
370
    20
100
AcDbSpline
210
0.0
220
0.0
230
1.0
 70
     0
 71
     3
 72
     8
 73
     4
 74
     0
 42
0.0000000001
 43
0.0000000001
 40
0.0
 40
0.0
 40
0.0
 40
0.0
 40
1.0
 40
1.0
 40
1.0
 40
1.0
 10
-59.402100000000004
 20
16.934200000000001
 30
0.0
 10
-59.402100000000004
 20
16.934200000000001
 30
0.0
 10
-60.812800000000003
 20
6.2187000000000001
 30
0.0
 10
-60.812800000000003
 20
6.2187000000000001
 30
0.0
  0
SPLINE
  5
F1
100
AcDbEntity
  8
Ebene 1
370
    20
100
AcDbSpline
210
0.0
220
0.0
230
1.0
 70
     0
 71
     3
 72
     8
 73
     4
 74
     0
 42
0.0000000001
 43
0.0000000001
 40
0.0
 40
0.0
 40
0.0
 40
0.0
 40
1.0
 40
1.0
 40
1.0
 40
1.0
 10
-60.812800000000003
 20
6.2187000000000001
 30
0.0
 10
-60.812800000000003
 20
6.2187000000000001
 30
0.0
 10
-57.991400000000006
 20
6.2187000000000001
 30
0.0
 10
-57.991400000000006
 20
6.2187000000000001
 30
0.0
  0
SPLINE
  5
F2
100
AcDbEntity
  8
Ebene 1
370
    20
100
AcDbSpline
210
0.0
220
0.0
230
1.0
 70
     0
 71
     3
 72
     8
 73
     4
 74
     0
 42
0.0000000001
 43
0.0000000001
 40
0.0
 40
0.0
 40
0.0
 40
0.0
 40
1.0
 40
1.0
 40
1.0
 40
1.0
 10
-58.358200000000004
 20
6.1946000000000003
 30
0.0
 10
-58.358200000000004
 20
6.1946000000000003
 30
0.0
 10
-59.402100000000004
 20
14.1241
 30
0.0
 10
-59.402100000000004
 20
14.1241
 30
0.0
  0
SPLINE
  5
F3
100
AcDbEntity
  8
Ebene 1
370
    20
100
AcDbSpline
210
0.0
220
0.0
230
1.0
 70
     0
 71
     3
 72
     8
 73
     4
 74
     0
 42
0.0000000001
 43
0.0000000001
 40
0.0
 40
0.0
 40
0.0
 40
0.0
 40
1.0
 40
1.0
 40
1.0
 40
1.0
 10
-59.402100000000004
 20
14.1241
 30
0.0
 10
-59.402100000000004
 20
14.1241
 30
0.0
 10
-60.446000000000005
 20
6.1946000000000003
 30
0.0
 10
-60.446000000000005
 20
6.1946000000000003
 30
0.0
  0
SPLINE
  5
F4
100
AcDbEntity
  8
Ebene 1
370
    20
100
AcDbSpline
210
0.0
220
0.0
230
1.0
 70
     0
 71
     3
 72
     8
 73
     4
 74
     0
 42
0.0000000001
 43
0.0000000001
 40
0.0
 40
0.0
 40
0.0
 40
0.0
 40
1.0
 40
1.0
 40
1.0
 40
1.0
 10
-58.725000000000001
 20
6.1705000000000005
 30
0.0
 10
-58.725000000000001
 20
6.1705000000000005
 30
0.0
 10
-59.402100000000004
 20
11.314
 30
0.0
 10
-59.402100000000004
 20
11.314
 30
0.0
  0
SPLINE
  5
F5
100
AcDbEntity
  8
Ebene 1
370
    20
100
AcDbSpline
210
0.0
220
0.0
230
1.0
 70
     0
 71
     3
 72
     8
 73
     4
 74
     0
 42
0.0000000001
 43
0.0000000001
 40
0.0
 40
0.0
 40
0.0
 40
0.0
 40
1.0
 40
1.0
 40
1.0
 40
1.0
 10
-59.402100000000004
 20
11.314
 30
0.0
 10
-59.402100000000004
 20
11.314
 30
0.0
 10
-60.0792
 20
6.1705000000000005
 30
0.0
 10
-60.0792
 20
6.1705000000000005
 30
0.0
  0
SPLINE
  5
F6
100
AcDbEntity
  8
Ebene 1
370
    20
100
AcDbSpline
210
0.0
220
0.0
230
1.0
 70
     0
 71
     3
 72
     8
 73
     4
 74
     0
 42
0.0000000001
 43
0.0000000001
 40
0.0
 40
0.0
 40
0.0
 40
0.0
 40
1.0
 40
1.0
 40
1.0
 40
1.0
 10
-59.091700000000003
 20
6.1465000000000005
 30
0.0
 10
-59.091700000000003
 20
6.1465000000000005
 30
0.0
 10
-59.402100000000004
 20
8.5038999999999998
 30
0.0
 10
-59.402100000000004
 20
8.5038999999999998
 30
0.0
  0
SPLINE
  5
F7
100
AcDbEntity
  8
Ebene 1
370
    20
100
AcDbSpline
210
0.0
220
0.0
230
1.0
 70
     0
 71
     3
 72
     8
 73
     4
 74
     0
 42
0.0000000001
 43
0.0000000001
 40
0.0
 40
0.0
 40
0.0
 40
0.0
 40
1.0
 40
1.0
 40
1.0
 40
1.0
 10
-59.402100000000004
 20
8.5038999999999998
 30
0.0
 10
-59.402100000000004
 20
8.5038999999999998
 30
0.0
 10
-59.712500000000006
 20
6.1465000000000005
 30
0.0
 10
-59.712500000000006
 20
6.1465000000000005
 30
0.0
  0
SPLINE
  5
F8
100
AcDbEntity
  8
Ebene 1
370
    20
100
AcDbSpline
210
0.0
220
0.0
230
1.0
 70
     0
 71
     3
 72
     8
 73
     4
 74
     0
 42
0.0000000001
 43
0.0000000001
 40
0.0
 40
0.0
 40
0.0
 40
0.0
 40
1.0
 40
1.0
 40
1.0
 40
1.0
 10
-60.812800000000003
 20
30.120000000000001
 30
0.0
 10
-60.812800000000003
 20
30.120000000000001
 30
0.0
 10
-59.402100000000004
 20
19.404500000000002
 30
0.0
 10
-59.402100000000004
 20
19.404500000000002
 30
0.0
  0
SPLINE
  5
F9
100
AcDbEntity
  8
Ebene 1
370
    20
100
AcDbSpline
210
0.0
220
0.0
230
1.0
 70
     0
 71
     3
 72
     8
 73
     4
 74
     0
 42
0.0000000001
 43
0.0000000001
 40
0.0
 40
0.0
 40
0.0
 40
0.0
 40
1.0
 40
1.0
 40
1.0
 40
1.0
 10
-59.402100000000004
 20
19.404500000000002
 30
0.0
 10
-59.402100000000004
 20
19.404500000000002
 30
0.0
 10
-57.991400000000006
 20
30.120000000000001
 30
0.0
 10
-57.991400000000006
 20
30.120000000000001
 30
0.0
  0
SPLINE
  5
FA
100
AcDbEntity
  8
Ebene 1
370
    20
100
AcDbSpline
210
0.0
220
0.0
230
1.0
 70
     0
 71
     3
 72
     8
 73
     4
 74
     0
 42
0.0000000001
 43
0.0000000001
 40
0.0
 40
0.0
 40
0.0
 40
0.0
 40
1.0
 40
1.0
 40
1.0
 40
1.0
 10
-57.991400000000006
 20
30.120000000000001
 30
0.0
 10
-57.991400000000006
 20
30.120000000000001
 30
0.0
 10
-60.812800000000003
 20
30.120000000000001
 30
0.0
 10
-60.812800000000003
 20
30.120000000000001
 30
0.0
  0
SPLINE
  5
FB
100
AcDbEntity
  8
Ebene 1
370
    20
100
AcDbSpline
210
0.0
220
0.0
230
1.0
 70
     0
 71
     3
 72
     8
 73
     4
 74
     0
 42
0.0000000001
 43
0.0000000001
 40
0.0
 40
0.0
 40
0.0
 40
0.0
 40
1.0
 40
1.0
 40
1.0
 40
1.0
 10
-60.446000000000005
 20
30.144100000000002
 30
0.0
 10
-60.446000000000005
 20
30.144100000000002
 30
0.0
 10
-59.402100000000004
 20
22.214500000000001
 30
0.0
 10
-59.402100000000004
 20
22.214500000000001
 30
0.0
  0
SPLINE
  5
FC
100
AcDbEntity
  8
Ebene 1
370
    20
100
AcDbSpline
210
0.0
220
0.0
230
1.0
 70
     0
 71
     3
 72
     8
 73
     4
 74
     0
 42
0.0000000001
 43
0.0000000001
 40
0.0
 40
0.0
 40
0.0
 40
0.0
 40
1.0
 40
1.0
 40
1.0
 40
1.0
 10
-59.402100000000004
 20
22.214500000000001
 30
0.0
 10
-59.402100000000004
 20
22.214500000000001
 30
0.0
 10
-58.358200000000004
 20
30.144100000000002
 30
0.0
 10
-58.358200000000004
 20
30.144100000000002
 30
0.0
  0
SPLINE
  5
FD
100
AcDbEntity
  8
Ebene 1
370
    20
100
AcDbSpline
210
0.0
220
0.0
230
1.0
 70
     0
 71
     3
 72
     8
 73
     4
 74
     0
 42
0.0000000001
 43
0.0000000001
 40
0.0
 40
0.0
 40
0.0
 40
0.0
 40
1.0
 40
1.0
 40
1.0
 40
1.0
 10
-60.0792
 20
30.168100000000003
 30
0.0
 10
-60.0792
 20
30.168100000000003
 30
0.0
 10
-59.402100000000004
 20
25.024700000000003
 30
0.0
 10
-59.402100000000004
 20
25.024700000000003
 30
0.0
  0
SPLINE
  5
FE
100
AcDbEntity
  8
Ebene 1
370
    20
100
AcDbSpline
210
0.0
220
0.0
230
1.0
 70
     0
 71
     3
 72
     8
 73
     4
 74
     0
 42
0.0000000001
 43
0.0000000001
 40
0.0
 40
0.0
 40
0.0
 40
0.0
 40
1.0
 40
1.0
 40
1.0
 40
1.0
 10
-59.402100000000004
 20
25.024700000000003
 30
0.0
 10
-59.402100000000004
 20
25.024700000000003
 30
0.0
 10
-58.725000000000001
 20
30.168100000000003
 30
0.0
 10
-58.725000000000001
 20
30.168100000000003
 30
0.0
  0
SPLINE
  5
FF
100
AcDbEntity
  8
Ebene 1
370
    20
100
AcDbSpline
210
0.0
220
0.0
230
1.0
 70
     0
 71
     3
 72
     8
 73
     4
 74
     0
 42
0.0000000001
 43
0.0000000001
 40
0.0
 40
0.0
 40
0.0
 40
0.0
 40
1.0
 40
1.0
 40
1.0
 40
1.0
 10
-59.712500000000006
 20
30.1922
 30
0.0
 10
-59.712500000000006
 20
30.1922
 30
0.0
 10
-59.402100000000004
 20
27.834700000000002
 30
0.0
 10
-59.402100000000004
 20
27.834700000000002
 30
0.0
  0
SPLINE
  5
100
100
AcDbEntity
  8
Ebene 1
370
    20
100
AcDbSpline
210
0.0
220
0.0
230
1.0
 70
     0
 71
     3
 72
     8
 73
     4
 74
     0
 42
0.0000000001
 43
0.0000000001
 40
0.0
 40
0.0
 40
0.0
 40
0.0
 40
1.0
 40
1.0
 40
1.0
 40
1.0
 10
-59.402100000000004
 20
27.834700000000002
 30
0.0
 10
-59.402100000000004
 20
27.834700000000002
 30
0.0
 10
-59.091700000000003
 20
30.1922
 30
0.0
 10
-59.091700000000003
 20
30.1922
 30
0.0
  0
SPLINE
  5
101
100
AcDbEntity
  8
Ebene 1
370
    20
100
AcDbSpline
210
0.0
220
0.0
230
1.0
 70
     0
 71
     3
 72
     8
 73
     4
 74
     0
 42
0.0000000001
 43
0.0000000001
 40
0.0
 40
0.0
 40
0.0
 40
0.0
 40
1.0
 40
1.0
 40
1.0
 40
1.0
 10
-59.402100000000004
 20
-9.372300000000001
 30
0.0
 10
-59.402100000000004
 20
-9.372300000000001
 30
0.0
 10
-59.402100000000004
 20
34.535600000000002
 30
0.0
 10
-59.402100000000004
 20
34.535600000000002
 30
0.0
  0
SPLINE
  5
102
100
AcDbEntity
  8
Ebene 1
370
    20
100
AcDbSpline
210
0.0
220
0.0
230
1.0
 70
     0
 71
     3
 72
     8
 73
     4
 74
     0
 42
0.0000000001
 43
0.0000000001
 40
0.0
 40
0.0
 40
0.0
 40
0.0
 40
1.0
 40
1.0
 40
1.0
 40
1.0
 10
-45.618600000000001
 20
-1.1305000000000001
 30
0.0
 10
-45.618600000000001
 20
-1.1305000000000001
 30
0.0
 10
-45.618600000000001
 20
-25.771600000000003
 30
0.0
 10
-45.618600000000001
 20
-25.771600000000003
 30
0.0
  0
SPLINE
  5
103
100
AcDbEntity
  8
Ebene 1
370
    20
100
AcDbSpline
210
0.0
220
0.0
230
1.0
 70
     0
 71
     3
 72
     8
 73
     4
 74
     0
 42
0.0000000001
 43
0.0000000001
 40
0.0
 40
0.0
 40
0.0
 40
0.0
 40
1.0
 40
1.0
 40
1.0
 40
1.0
 10
-10.2225
 20
-1.1305000000000001
 30
0.0
 10
-10.2225
 20
-1.1305000000000001
 30
0.0
 10
-10.2225
 20
-25.771600000000003
 30
0.0
 10
-10.2225
 20
-25.771600000000003
 30
0.0
  0
SPLINE
  5
104
100
AcDbEntity
  8
Ebene 1
370
    20
100
AcDbSpline
210
0.0
220
0.0
230
1.0
 70
     0
 71
     3
 72
     8
 73
     4
 74
     0
 42
0.0000000001
 43
0.0000000001
 40
0.0
 40
0.0
 40
0.0
 40
0.0
 40
1.0
 40
1.0
 40
1.0
 40
1.0
 10
-56.334000000000003
 20
-20.697500000000002
 30
0.0
 10
-56.334000000000003
 20
-20.697500000000002
 30
0.0
 10
-45.618600000000001
 20
-19.286899999999999
 30
0.0
 10
-45.618600000000001
 20
-19.286899999999999
 30
0.0
  0
SPLINE
  5
105
100
AcDbEntity
  8
Ebene 1
370
    20
100
AcDbSpline
210
0.0
220
0.0
230
1.0
 70
     0
 71
     3
 72
     8
 73
     4
 74
     0
 42
0.0000000001
 43
0.0000000001
 40
0.0
 40
0.0
 40
0.0
 40
0.0
 40
1.0
 40
1.0
 40
1.0
 40
1.0
 10
-45.618600000000001
 20
-19.286899999999999
 30
0.0
 10
-45.618600000000001
 20
-19.286899999999999
 30
0.0
 10
-56.334000000000003
 20
-17.876100000000001
 30
0.0
 10
-56.334000000000003
 20
-17.876100000000001
 30
0.0
  0
SPLINE
  5
106
100
AcDbEntity
  8
Ebene 1
370
    20
100
AcDbSpline
210
0.0
220
0.0
230
1.0
 70
     0
 71
     3
 72
     8
 73
     4
 74
     0
 42
0.0000000001
 43
0.0000000001
 40
0.0
 40
0.0
 40
0.0
 40
0.0
 40
1.0
 40
1.0
 40
1.0
 40
1.0
 10
-56.334000000000003
 20
-17.876100000000001
 30
0.0
 10
-56.334000000000003
 20
-17.876100000000001
 30
0.0
 10
-56.334000000000003
 20
-20.697500000000002
 30
0.0
 10
-56.334000000000003
 20
-20.697500000000002
 30
0.0
  0
SPLINE
  5
107
100
AcDbEntity
  8
Ebene 1
370
    20
100
AcDbSpline
210
0.0
220
0.0
230
1.0
 70
     0
 71
     3
 72
     8
 73
     4
 74
     0
 42
0.0000000001
 43
0.0000000001
 40
0.0
 40
0.0
 40
0.0
 40
0.0
 40
1.0
 40
1.0
 40
1.0
 40
1.0
 10
-56.358200000000004
 20
-20.3308
 30
0.0
 10
-56.358200000000004
 20
-20.3308
 30
0.0
 10
-48.428600000000003
 20
-19.286899999999999
 30
0.0
 10
-48.428600000000003
 20
-19.286899999999999
 30
0.0
  0
SPLINE
  5
108
100
AcDbEntity
  8
Ebene 1
370
    20
100
AcDbSpline
210
0.0
220
0.0
230
1.0
 70
     0
 71
     3
 72
     8
 73
     4
 74
     0
 42
0.0000000001
 43
0.0000000001
 40
0.0
 40
0.0
 40
0.0
 40
0.0
 40
1.0
 40
1.0
 40
1.0
 40
1.0
 10
-48.428600000000003
 20
-19.286899999999999
 30
0.0
 10
-48.428600000000003
 20
-19.286899999999999
 30
0.0
 10
-56.358200000000004
 20
-18.242900000000002
 30
0.0
 10
-56.358200000000004
 20
-18.242900000000002
 30
0.0
  0
SPLINE
  5
109
100
AcDbEntity
  8
Ebene 1
370
    20
100
AcDbSpline
210
0.0
220
0.0
230
1.0
 70
     0
 71
     3
 72
     8
 73
     4
 74
     0
 42
0.0000000001
 43
0.0000000001
 40
0.0
 40
0.0
 40
0.0
 40
0.0
 40
1.0
 40
1.0
 40
1.0
 40
1.0
 10
-56.382200000000005
 20
-19.964000000000002
 30
0.0
 10
-56.382200000000005
 20
-19.964000000000002
 30
0.0
 10
-51.238800000000005
 20
-19.286899999999999
 30
0.0
 10
-51.238800000000005
 20
-19.286899999999999
 30
0.0
  0
SPLINE
  5
10A
100
AcDbEntity
  8
Ebene 1
370
    20
100
AcDbSpline
210
0.0
220
0.0
230
1.0
 70
     0
 71
     3
 72
     8
 73
     4
 74
     0
 42
0.0000000001
 43
0.0000000001
 40
0.0
 40
0.0
 40
0.0
 40
0.0
 40
1.0
 40
1.0
 40
1.0
 40
1.0
 10
-51.238800000000005
 20
-19.286899999999999
 30
0.0
 10
-51.238800000000005
 20
-19.286899999999999
 30
0.0
 10
-56.382200000000005
 20
-18.6097
 30
0.0
 10
-56.382200000000005
 20
-18.6097
 30
0.0
  0
SPLINE
  5
10B
100
AcDbEntity
  8
Ebene 1
370
    20
100
AcDbSpline
210
0.0
220
0.0
230
1.0
 70
     0
 71
     3
 72
     8
 73
     4
 74
     0
 42
0.0000000001
 43
0.0000000001
 40
0.0
 40
0.0
 40
0.0
 40
0.0
 40
1.0
 40
1.0
 40
1.0
 40
1.0
 10
-56.406200000000005
 20
-19.597200000000001
 30
0.0
 10
-56.406200000000005
 20
-19.597200000000001
 30
0.0
 10
-54.0488
 20
-19.286899999999999
 30
0.0
 10
-54.0488
 20
-19.286899999999999
 30
0.0
  0
SPLINE
  5
10C
100
AcDbEntity
  8
Ebene 1
370
    20
100
AcDbSpline
210
0.0
220
0.0
230
1.0
 70
     0
 71
     3
 72
     8
 73
     4
 74
     0
 42
0.0000000001
 43
0.0000000001
 40
0.0
 40
0.0
 40
0.0
 40
0.0
 40
1.0
 40
1.0
 40
1.0
 40
1.0
 10
-54.0488
 20
-19.286899999999999
 30
0.0
 10
-54.0488
 20
-19.286899999999999
 30
0.0
 10
-56.406200000000005
 20
-18.976500000000001
 30
0.0
 10
-56.406200000000005
 20
-18.976500000000001
 30
0.0
  0
SPLINE
  5
10D
100
AcDbEntity
  8
Ebene 1
370
    20
100
AcDbSpline
210
0.0
220
0.0
230
1.0
 70
     0
 71
     3
 72
     8
 73
     4
 74
     0
 42
0.0000000001
 43
0.0000000001
 40
0.0
 40
0.0
 40
0.0
 40
0.0
 40
1.0
 40
1.0
 40
1.0
 40
1.0
 10
0.4930000000000001
 20
-17.876100000000001
 30
0.0
 10
0.4930000000000001
 20
-17.876100000000001
 30
0.0
 10
-10.2225
 20
-19.286899999999999
 30
0.0
 10
-10.2225
 20
-19.286899999999999
 30
0.0
  0
SPLINE
  5
10E
100
AcDbEntity
  8
Ebene 1
370
    20
100
AcDbSpline
210
0.0
220
0.0
230
1.0
 70
     0
 71
     3
 72
     8
 73
     4
 74
     0
 42
0.0000000001
 43
0.0000000001
 40
0.0
 40
0.0
 40
0.0
 40
0.0
 40
1.0
 40
1.0
 40
1.0
 40
1.0
 10
-10.2225
 20
-19.286899999999999
 30
0.0
 10
-10.2225
 20
-19.286899999999999
 30
0.0
 10
0.4930000000000001
 20
-20.697500000000002
 30
0.0
 10
0.4930000000000001
 20
-20.697500000000002
 30
0.0
  0
SPLINE
  5
10F
100
AcDbEntity
  8
Ebene 1
370
    20
100
AcDbSpline
210
0.0
220
0.0
230
1.0
 70
     0
 71
     3
 72
     8
 73
     4
 74
     0
 42
0.0000000001
 43
0.0000000001
 40
0.0
 40
0.0
 40
0.0
 40
0.0
 40
1.0
 40
1.0
 40
1.0
 40
1.0
 10
0.4930000000000001
 20
-20.697500000000002
 30
0.0
 10
0.4930000000000001
 20
-20.697500000000002
 30
0.0
 10
0.4930000000000001
 20
-17.876100000000001
 30
0.0
 10
0.4930000000000001
 20
-17.876100000000001
 30
0.0
  0
SPLINE
  5
110
100
AcDbEntity
  8
Ebene 1
370
    20
100
AcDbSpline
210
0.0
220
0.0
230
1.0
 70
     0
 71
     3
 72
     8
 73
     4
 74
     0
 42
0.0000000001
 43
0.0000000001
 40
0.0
 40
0.0
 40
0.0
 40
0.0
 40
1.0
 40
1.0
 40
1.0
 40
1.0
 10
0.517
 20
-18.242900000000002
 30
0.0
 10
0.517
 20
-18.242900000000002
 30
0.0
 10
-7.4124000000000008
 20
-19.286899999999999
 30
0.0
 10
-7.4124000000000008
 20
-19.286899999999999
 30
0.0
  0
SPLINE
  5
111
100
AcDbEntity
  8
Ebene 1
370
    20
100
AcDbSpline
210
0.0
220
0.0
230
1.0
 70
     0
 71
     3
 72
     8
 73
     4
 74
     0
 42
0.0000000001
 43
0.0000000001
 40
0.0
 40
0.0
 40
0.0
 40
0.0
 40
1.0
 40
1.0
 40
1.0
 40
1.0
 10
-7.4124000000000008
 20
-19.286899999999999
 30
0.0
 10
-7.4124000000000008
 20
-19.286899999999999
 30
0.0
 10
0.517
 20
-20.3308
 30
0.0
 10
0.517
 20
-20.3308
 30
0.0
  0
SPLINE
  5
112
100
AcDbEntity
  8
Ebene 1
370
    20
100
AcDbSpline
210
0.0
220
0.0
230
1.0
 70
     0
 71
     3
 72
     8
 73
     4
 74
     0
 42
0.0000000001
 43
0.0000000001
 40
0.0
 40
0.0
 40
0.0
 40
0.0
 40
1.0
 40
1.0
 40
1.0
 40
1.0
 10
0.5412
 20
-18.6097
 30
0.0
 10
0.5412
 20
-18.6097
 30
0.0
 10
-4.6023000000000005
 20
-19.286899999999999
 30
0.0
 10
-4.6023000000000005
 20
-19.286899999999999
 30
0.0
  0
SPLINE
  5
113
100
AcDbEntity
  8
Ebene 1
370
    20
100
AcDbSpline
210
0.0
220
0.0
230
1.0
 70
     0
 71
     3
 72
     8
 73
     4
 74
     0
 42
0.0000000001
 43
0.0000000001
 40
0.0
 40
0.0
 40
0.0
 40
0.0
 40
1.0
 40
1.0
 40
1.0
 40
1.0
 10
-4.6023000000000005
 20
-19.286899999999999
 30
0.0
 10
-4.6023000000000005
 20
-19.286899999999999
 30
0.0
 10
0.5412
 20
-19.964000000000002
 30
0.0
 10
0.5412
 20
-19.964000000000002
 30
0.0
  0
SPLINE
  5
114
100
AcDbEntity
  8
Ebene 1
370
    20
100
AcDbSpline
210
0.0
220
0.0
230
1.0
 70
     0
 71
     3
 72
     8
 73
     4
 74
     0
 42
0.0000000001
 43
0.0000000001
 40
0.0
 40
0.0
 40
0.0
 40
0.0
 40
1.0
 40
1.0
 40
1.0
 40
1.0
 10
0.5652
 20
-18.976500000000001
 30
0.0
 10
0.5652
 20
-18.976500000000001
 30
0.0
 10
-1.7922
 20
-19.286899999999999
 30
0.0
 10
-1.7922
 20
-19.286899999999999
 30
0.0
  0
SPLINE
  5
115
100
AcDbEntity
  8
Ebene 1
370
    20
100
AcDbSpline
210
0.0
220
0.0
230
1.0
 70
     0
 71
     3
 72
     8
 73
     4
 74
     0
 42
0.0000000001
 43
0.0000000001
 40
0.0
 40
0.0
 40
0.0
 40
0.0
 40
1.0
 40
1.0
 40
1.0
 40
1.0
 10
-1.7922
 20
-19.286899999999999
 30
0.0
 10
-1.7922
 20
-19.286899999999999
 30
0.0
 10
0.5652
 20
-19.597200000000001
 30
0.0
 10
0.5652
 20
-19.597200000000001
 30
0.0
  0
SPLINE
  5
116
100
AcDbEntity
  8
Ebene 1
370
    20
100
AcDbSpline
210
0.0
220
0.0
230
1.0
 70
     0
 71
     3
 72
     8
 73
     4
 74
     0
 42
0.0000000001
 43
0.0000000001
 40
0.0
 40
0.0
 40
0.0
 40
0.0
 40
1.0
 40
1.0
 40
1.0
 40
1.0
 10
-60.749700000000004
 20
-19.286899999999999
 30
0.0
 10
-60.749700000000004
 20
-19.286899999999999
 30
0.0
 10
6.7556000000000003
 20
-19.286899999999999
 30
0.0
 10
6.7556000000000003
 20
-19.286899999999999
 30
0.0
  0
SPLINE
  5
117
100
AcDbEntity
  8
Ebene 1
370
    20
100
AcDbSpline
210
0.0
220
0.0
230
1.0
 70
     0
 71
     3
 72
     8
 73
     4
 74
     0
 42
0.0000000001
 43
0.0000000001
 40
0.0
 40
0.0
 40
0.0
 40
0.0
 40
1.0
 40
1.0
 40
1.0
 40
1.0
 10
-10.9945
 20
-1.9025000000000001
 30
0.0
 10
-10.9945
 20
-1.9025000000000001
 30
0.0
 10
7.4339000000000004
 20
-1.9025000000000001
 30
0.0
 10
7.4339000000000004
 20
-1.9025000000000001
 30
0.0
  0
SPLINE
  5
118
100
AcDbEntity
  8
Ebene 1
370
    20
100
AcDbSpline
210
0.0
220
0.0
230
1.0
 70
     0
 71
     3
 72
     8
 73
     4
 74
     0
 42
0.0000000001
 43
0.0000000001
 40
0.0
 40
0.0
 40
0.0
 40
0.0
 40
1.0
 40
1.0
 40
1.0
 40
1.0
 10
-9.2766999999999999
 20
19.404500000000002
 30
0.0
 10
-9.2766999999999999
 20
19.404500000000002
 30
0.0
 10
22.738400000000002
 20
19.404500000000002
 30
0.0
 10
22.738400000000002
 20
19.404500000000002
 30
0.0
  0
SPLINE
  5
119
100
AcDbEntity
  8
Ebene 1
370
    20
100
AcDbSpline
210
0.0
220
0.0
230
1.0
 70
     0
 71
     3
 72
     8
 73
     4
 74
     0
 42
0.0000000001
 43
0.0000000001
 40
0.0
 40
0.0
 40
0.0
 40
0.0
 40
1.0
 40
1.0
 40
1.0
 40
1.0
 10
17.664300000000001
 20
-11.126700000000001
 30
0.0
 10
17.664300000000001
 20
-11.126700000000001
 30
0.0
 10
16.253600000000002
 20
-0.4113
 30
0.0
 10
16.253600000000002
 20
-0.4113
 30
0.0
  0
SPLINE
  5
11A
100
AcDbEntity
  8
Ebene 1
370
    20
100
AcDbSpline
210
0.0
220
0.0
230
1.0
 70
     0
 71
     3
 72
     8
 73
     4
 74
     0
 42
0.0000000001
 43
0.0000000001
 40
0.0
 40
0.0
 40
0.0
 40
0.0
 40
1.0
 40
1.0
 40
1.0
 40
1.0
 10
16.253600000000002
 20
-0.4113
 30
0.0
 10
16.253600000000002
 20
-0.4113
 30
0.0
 10
14.8428
 20
-11.126700000000001
 30
0.0
 10
14.8428
 20
-11.126700000000001
 30
0.0
  0
SPLINE
  5
11B
100
AcDbEntity
  8
Ebene 1
370
    20
100
AcDbSpline
210
0.0
220
0.0
230
1.0
 70
     0
 71
     3
 72
     8
 73
     4
 74
     0
 42
0.0000000001
 43
0.0000000001
 40
0.0
 40
0.0
 40
0.0
 40
0.0
 40
1.0
 40
1.0
 40
1.0
 40
1.0
 10
14.8428
 20
-11.126700000000001
 30
0.0
 10
14.8428
 20
-11.126700000000001
 30
0.0
 10
17.664300000000001
 20
-11.126700000000001
 30
0.0
 10
17.664300000000001
 20
-11.126700000000001
 30
0.0
  0
SPLINE
  5
11C
100
AcDbEntity
  8
Ebene 1
370
    20
100
AcDbSpline
210
0.0
220
0.0
230
1.0
 70
     0
 71
     3
 72
     8
 73
     4
 74
     0
 42
0.0000000001
 43
0.0000000001
 40
0.0
 40
0.0
 40
0.0
 40
0.0
 40
1.0
 40
1.0
 40
1.0
 40
1.0
 10
17.297499999999999
 20
-11.150700000000001
 30
0.0
 10
17.297499999999999
 20
-11.150700000000001
 30
0.0
 10
16.253600000000002
 20
-3.2213000000000003
 30
0.0
 10
16.253600000000002
 20
-3.2213000000000003
 30
0.0
  0
SPLINE
  5
11D
100
AcDbEntity
  8
Ebene 1
370
    20
100
AcDbSpline
210
0.0
220
0.0
230
1.0
 70
     0
 71
     3
 72
     8
 73
     4
 74
     0
 42
0.0000000001
 43
0.0000000001
 40
0.0
 40
0.0
 40
0.0
 40
0.0
 40
1.0
 40
1.0
 40
1.0
 40
1.0
 10
16.253600000000002
 20
-3.2213000000000003
 30
0.0
 10
16.253600000000002
 20
-3.2213000000000003
 30
0.0
 10
15.209700000000002
 20
-11.150700000000001
 30
0.0
 10
15.209700000000002
 20
-11.150700000000001
 30
0.0
  0
SPLINE
  5
11E
100
AcDbEntity
  8
Ebene 1
370
    20
100
AcDbSpline
210
0.0
220
0.0
230
1.0
 70
     0
 71
     3
 72
     8
 73
     4
 74
     0
 42
0.0000000001
 43
0.0000000001
 40
0.0
 40
0.0
 40
0.0
 40
0.0
 40
1.0
 40
1.0
 40
1.0
 40
1.0
 10
16.930700000000002
 20
-11.174900000000001
 30
0.0
 10
16.930700000000002
 20
-11.174900000000001
 30
0.0
 10
16.253600000000002
 20
-6.0315000000000003
 30
0.0
 10
16.253600000000002
 20
-6.0315000000000003
 30
0.0
  0
SPLINE
  5
11F
100
AcDbEntity
  8
Ebene 1
370
    20
100
AcDbSpline
210
0.0
220
0.0
230
1.0
 70
     0
 71
     3
 72
     8
 73
     4
 74
     0
 42
0.0000000001
 43
0.0000000001
 40
0.0
 40
0.0
 40
0.0
 40
0.0
 40
1.0
 40
1.0
 40
1.0
 40
1.0
 10
16.253600000000002
 20
-6.0315000000000003
 30
0.0
 10
16.253600000000002
 20
-6.0315000000000003
 30
0.0
 10
15.576400000000001
 20
-11.174900000000001
 30
0.0
 10
15.576400000000001
 20
-11.174900000000001
 30
0.0
  0
SPLINE
  5
120
100
AcDbEntity
  8
Ebene 1
370
    20
100
AcDbSpline
210
0.0
220
0.0
230
1.0
 70
     0
 71
     3
 72
     8
 73
     4
 74
     0
 42
0.0000000001
 43
0.0000000001
 40
0.0
 40
0.0
 40
0.0
 40
0.0
 40
1.0
 40
1.0
 40
1.0
 40
1.0
 10
16.5639
 20
-11.1989
 30
0.0
 10
16.5639
 20
-11.1989
 30
0.0
 10
16.253600000000002
 20
-8.8414999999999999
 30
0.0
 10
16.253600000000002
 20
-8.8414999999999999
 30
0.0
  0
SPLINE
  5
121
100
AcDbEntity
  8
Ebene 1
370
    20
100
AcDbSpline
210
0.0
220
0.0
230
1.0
 70
     0
 71
     3
 72
     8
 73
     4
 74
     0
 42
0.0000000001
 43
0.0000000001
 40
0.0
 40
0.0
 40
0.0
 40
0.0
 40
1.0
 40
1.0
 40
1.0
 40
1.0
 10
16.253600000000002
 20
-8.8414999999999999
 30
0.0
 10
16.253600000000002
 20
-8.8414999999999999
 30
0.0
 10
15.943200000000001
 20
-11.1989
 30
0.0
 10
15.943200000000001
 20
-11.1989
 30
0.0
  0
SPLINE
  5
122
100
AcDbEntity
  8
Ebene 1
370
    20
100
AcDbSpline
210
0.0
220
0.0
230
1.0
 70
     0
 71
     3
 72
     8
 73
     4
 74
     0
 42
0.0000000001
 43
0.0000000001
 40
0.0
 40
0.0
 40
0.0
 40
0.0
 40
1.0
 40
1.0
 40
1.0
 40
1.0
 10
14.8428
 20
30.120000000000001
 30
0.0
 10
14.8428
 20
30.120000000000001
 30
0.0
 10
16.253600000000002
 20
19.404500000000002
 30
0.0
 10
16.253600000000002
 20
19.404500000000002
 30
0.0
  0
SPLINE
  5
123
100
AcDbEntity
  8
Ebene 1
370
    20
100
AcDbSpline
210
0.0
220
0.0
230
1.0
 70
     0
 71
     3
 72
     8
 73
     4
 74
     0
 42
0.0000000001
 43
0.0000000001
 40
0.0
 40
0.0
 40
0.0
 40
0.0
 40
1.0
 40
1.0
 40
1.0
 40
1.0
 10
16.253600000000002
 20
19.404500000000002
 30
0.0
 10
16.253600000000002
 20
19.404500000000002
 30
0.0
 10
17.664300000000001
 20
30.120000000000001
 30
0.0
 10
17.664300000000001
 20
30.120000000000001
 30
0.0
  0
SPLINE
  5
124
100
AcDbEntity
  8
Ebene 1
370
    20
100
AcDbSpline
210
0.0
220
0.0
230
1.0
 70
     0
 71
     3
 72
     8
 73
     4
 74
     0
 42
0.0000000001
 43
0.0000000001
 40
0.0
 40
0.0
 40
0.0
 40
0.0
 40
1.0
 40
1.0
 40
1.0
 40
1.0
 10
17.664300000000001
 20
30.120000000000001
 30
0.0
 10
17.664300000000001
 20
30.120000000000001
 30
0.0
 10
14.8428
 20
30.120000000000001
 30
0.0
 10
14.8428
 20
30.120000000000001
 30
0.0
  0
SPLINE
  5
125
100
AcDbEntity
  8
Ebene 1
370
    20
100
AcDbSpline
210
0.0
220
0.0
230
1.0
 70
     0
 71
     3
 72
     8
 73
     4
 74
     0
 42
0.0000000001
 43
0.0000000001
 40
0.0
 40
0.0
 40
0.0
 40
0.0
 40
1.0
 40
1.0
 40
1.0
 40
1.0
 10
15.209700000000002
 20
30.144100000000002
 30
0.0
 10
15.209700000000002
 20
30.144100000000002
 30
0.0
 10
16.253600000000002
 20
22.214500000000001
 30
0.0
 10
16.253600000000002
 20
22.214500000000001
 30
0.0
  0
SPLINE
  5
126
100
AcDbEntity
  8
Ebene 1
370
    20
100
AcDbSpline
210
0.0
220
0.0
230
1.0
 70
     0
 71
     3
 72
     8
 73
     4
 74
     0
 42
0.0000000001
 43
0.0000000001
 40
0.0
 40
0.0
 40
0.0
 40
0.0
 40
1.0
 40
1.0
 40
1.0
 40
1.0
 10
16.253600000000002
 20
22.214500000000001
 30
0.0
 10
16.253600000000002
 20
22.214500000000001
 30
0.0
 10
17.297499999999999
 20
30.144100000000002
 30
0.0
 10
17.297499999999999
 20
30.144100000000002
 30
0.0
  0
SPLINE
  5
127
100
AcDbEntity
  8
Ebene 1
370
    20
100
AcDbSpline
210
0.0
220
0.0
230
1.0
 70
     0
 71
     3
 72
     8
 73
     4
 74
     0
 42
0.0000000001
 43
0.0000000001
 40
0.0
 40
0.0
 40
0.0
 40
0.0
 40
1.0
 40
1.0
 40
1.0
 40
1.0
 10
15.576400000000001
 20
30.168100000000003
 30
0.0
 10
15.576400000000001
 20
30.168100000000003
 30
0.0
 10
16.253600000000002
 20
25.024700000000003
 30
0.0
 10
16.253600000000002
 20
25.024700000000003
 30
0.0
  0
SPLINE
  5
128
100
AcDbEntity
  8
Ebene 1
370
    20
100
AcDbSpline
210
0.0
220
0.0
230
1.0
 70
     0
 71
     3
 72
     8
 73
     4
 74
     0
 42
0.0000000001
 43
0.0000000001
 40
0.0
 40
0.0
 40
0.0
 40
0.0
 40
1.0
 40
1.0
 40
1.0
 40
1.0
 10
16.253600000000002
 20
25.024700000000003
 30
0.0
 10
16.253600000000002
 20
25.024700000000003
 30
0.0
 10
16.930700000000002
 20
30.168100000000003
 30
0.0
 10
16.930700000000002
 20
30.168100000000003
 30
0.0
  0
SPLINE
  5
129
100
AcDbEntity
  8
Ebene 1
370
    20
100
AcDbSpline
210
0.0
220
0.0
230
1.0
 70
     0
 71
     3
 72
     8
 73
     4
 74
     0
 42
0.0000000001
 43
0.0000000001
 40
0.0
 40
0.0
 40
0.0
 40
0.0
 40
1.0
 40
1.0
 40
1.0
 40
1.0
 10
15.943200000000001
 20
30.1922
 30
0.0
 10
15.943200000000001
 20
30.1922
 30
0.0
 10
16.253600000000002
 20
27.834700000000002
 30
0.0
 10
16.253600000000002
 20
27.834700000000002
 30
0.0
  0
SPLINE
  5
12A
100
AcDbEntity
  8
Ebene 1
370
    20
100
AcDbSpline
210
0.0
220
0.0
230
1.0
 70
     0
 71
     3
 72
     8
 73
     4
 74
     0
 42
0.0000000001
 43
0.0000000001
 40
0.0
 40
0.0
 40
0.0
 40
0.0
 40
1.0
 40
1.0
 40
1.0
 40
1.0
 10
16.253600000000002
 20
27.834700000000002
 30
0.0
 10
16.253600000000002
 20
27.834700000000002
 30
0.0
 10
16.5639
 20
30.1922
 30
0.0
 10
16.5639
 20
30.1922
 30
0.0
  0
SPLINE
  5
12B
100
AcDbEntity
  8
Ebene 1
370
    20
100
AcDbSpline
210
0.0
220
0.0
230
1.0
 70
     0
 71
     3
 72
     8
 73
     4
 74
     0
 42
0.0000000001
 43
0.0000000001
 40
0.0
 40
0.0
 40
0.0
 40
0.0
 40
1.0
 40
1.0
 40
1.0
 40
1.0
 10
16.253600000000002
 20
-17.0336
 30
0.0
 10
16.253600000000002
 20
-17.0336
 30
0.0
 10
16.253600000000002
 20
34.535600000000002
 30
0.0
 10
16.253600000000002
 20
34.535600000000002
 30
0.0
  0
SPLINE
  5
12C
100
AcDbEntity
  8
Ebene 1
370
    20
100
AcDbSpline
210
0.0
220
0.0
230
1.0
 70
     0
 71
     3
 72
     8
 73
     4
 74
     0
 42
0.0000000001
 43
0.0000000001
 40
0.0
 40
0.0
 40
0.0
 40
0.0
 40
1.0
 40
1.0
 40
1.0
 40
1.0
 10
-47.220500000000001
 20
18.2195
 30
0.0
 10
-47.220500000000001
 20
18.2195
 30
0.0
 10
-47.220500000000001
 20
35.833600000000004
 30
0.0
 10
-47.220500000000001
 20
35.833600000000004
 30
0.0
  0
SPLINE
  5
12D
100
AcDbEntity
  8
Ebene 1
370
    20
100
AcDbSpline
210
0.0
220
0.0
230
1.0
 70
     0
 71
     3
 72
     8
 73
     4
 74
     0
 42
0.0000000001
 43
0.0000000001
 40
0.0
 40
0.0
 40
0.0
 40
0.0
 40
1.0
 40
1.0
 40
1.0
 40
1.0
 10
-8.6205999999999996
 20
18.2195
 30
0.0
 10
-8.6205999999999996
 20
18.2195
 30
0.0
 10
-8.6205999999999996
 20
35.833600000000004
 30
0.0
 10
-8.6205999999999996
 20
35.833600000000004
 30
0.0
  0
SPLINE
  5
12E
100
AcDbEntity
  8
Ebene 1
370
    20
100
AcDbSpline
210
0.0
220
0.0
230
1.0
 70
     0
 71
     3
 72
     8
 73
     4
 74
     0
 42
0.0000000001
 43
0.0000000001
 40
0.0
 40
0.0
 40
0.0
 40
0.0
 40
1.0
 40
1.0
 40
1.0
 40
1.0
 10
-47.220500000000001
 20
29.3489
 30
0.0
 10
-47.220500000000001
 20
29.3489
 30
0.0
 10
-8.6205999999999996
 20
29.3489
 30
0.0
 10
-8.6205999999999996
 20
29.3489
 30
0.0
  0
SPLINE
  5
12F
100
AcDbEntity
  8
Ebene 1
370
    20
100
AcDbSpline
210
0.0
220
0.0
230
1.0
 70
     0
 71
     3
 72
     8
 73
     4
 74
     0
 42
0.0000000001
 43
0.0000000001
 40
0.0
 40
0.0
 40
0.0
 40
0.0
 40
1.0
 40
1.0
 40
1.0
 40
1.0
 10
-36.505000000000003
 20
30.759500000000003
 30
0.0
 10
-36.505000000000003
 20
30.759500000000003
 30
0.0
 10
-47.220500000000001
 20
29.3489
 30
0.0
 10
-47.220500000000001
 20
29.3489
 30
0.0
  0
SPLINE
  5
130
100
AcDbEntity
  8
Ebene 1
370
    20
100
AcDbSpline
210
0.0
220
0.0
230
1.0
 70
     0
 71
     3
 72
     8
 73
     4
 74
     0
 42
0.0000000001
 43
0.0000000001
 40
0.0
 40
0.0
 40
0.0
 40
0.0
 40
1.0
 40
1.0
 40
1.0
 40
1.0
 10
-47.220500000000001
 20
29.3489
 30
0.0
 10
-47.220500000000001
 20
29.3489
 30
0.0
 10
-36.505000000000003
 20
27.938100000000002
 30
0.0
 10
-36.505000000000003
 20
27.938100000000002
 30
0.0
  0
SPLINE
  5
131
100
AcDbEntity
  8
Ebene 1
370
    20
100
AcDbSpline
210
0.0
220
0.0
230
1.0
 70
     0
 71
     3
 72
     8
 73
     4
 74
     0
 42
0.0000000001
 43
0.0000000001
 40
0.0
 40
0.0
 40
0.0
 40
0.0
 40
1.0
 40
1.0
 40
1.0
 40
1.0
 10
-36.505000000000003
 20
27.938100000000002
 30
0.0
 10
-36.505000000000003
 20
27.938100000000002
 30
0.0
 10
-36.505000000000003
 20
30.759500000000003
 30
0.0
 10
-36.505000000000003
 20
30.759500000000003
 30
0.0
  0
SPLINE
  5
132
100
AcDbEntity
  8
Ebene 1
370
    20
100
AcDbSpline
210
0.0
220
0.0
230
1.0
 70
     0
 71
     3
 72
     8
 73
     4
 74
     0
 42
0.0000000001
 43
0.0000000001
 40
0.0
 40
0.0
 40
0.0
 40
0.0
 40
1.0
 40
1.0
 40
1.0
 40
1.0
 10
-36.481000000000002
 20
30.392800000000001
 30
0.0
 10
-36.481000000000002
 20
30.392800000000001
 30
0.0
 10
-44.410400000000003
 20
29.3489
 30
0.0
 10
-44.410400000000003
 20
29.3489
 30
0.0
  0
SPLINE
  5
133
100
AcDbEntity
  8
Ebene 1
370
    20
100
AcDbSpline
210
0.0
220
0.0
230
1.0
 70
     0
 71
     3
 72
     8
 73
     4
 74
     0
 42
0.0000000001
 43
0.0000000001
 40
0.0
 40
0.0
 40
0.0
 40
0.0
 40
1.0
 40
1.0
 40
1.0
 40
1.0
 10
-44.410400000000003
 20
29.3489
 30
0.0
 10
-44.410400000000003
 20
29.3489
 30
0.0
 10
-36.481000000000002
 20
28.3049
 30
0.0
 10
-36.481000000000002
 20
28.3049
 30
0.0
  0
SPLINE
  5
134
100
AcDbEntity
  8
Ebene 1
370
    20
100
AcDbSpline
210
0.0
220
0.0
230
1.0
 70
     0
 71
     3
 72
     8
 73
     4
 74
     0
 42
0.0000000001
 43
0.0000000001
 40
0.0
 40
0.0
 40
0.0
 40
0.0
 40
1.0
 40
1.0
 40
1.0
 40
1.0
 10
-36.456800000000001
 20
30.026
 30
0.0
 10
-36.456800000000001
 20
30.026
 30
0.0
 10
-41.6004
 20
29.3489
 30
0.0
 10
-41.6004
 20
29.3489
 30
0.0
  0
SPLINE
  5
135
100
AcDbEntity
  8
Ebene 1
370
    20
100
AcDbSpline
210
0.0
220
0.0
230
1.0
 70
     0
 71
     3
 72
     8
 73
     4
 74
     0
 42
0.0000000001
 43
0.0000000001
 40
0.0
 40
0.0
 40
0.0
 40
0.0
 40
1.0
 40
1.0
 40
1.0
 40
1.0
 10
-41.6004
 20
29.3489
 30
0.0
 10
-41.6004
 20
29.3489
 30
0.0
 10
-36.456800000000001
 20
28.671700000000001
 30
0.0
 10
-36.456800000000001
 20
28.671700000000001
 30
0.0
  0
SPLINE
  5
136
100
AcDbEntity
  8
Ebene 1
370
    20
100
AcDbSpline
210
0.0
220
0.0
230
1.0
 70
     0
 71
     3
 72
     8
 73
     4
 74
     0
 42
0.0000000001
 43
0.0000000001
 40
0.0
 40
0.0
 40
0.0
 40
0.0
 40
1.0
 40
1.0
 40
1.0
 40
1.0
 10
-36.4328
 20
29.659200000000002
 30
0.0
 10
-36.4328
 20
29.659200000000002
 30
0.0
 10
-38.790199999999999
 20
29.3489
 30
0.0
 10
-38.790199999999999
 20
29.3489
 30
0.0
  0
SPLINE
  5
137
100
AcDbEntity
  8
Ebene 1
370
    20
100
AcDbSpline
210
0.0
220
0.0
230
1.0
 70
     0
 71
     3
 72
     8
 73
     4
 74
     0
 42
0.0000000001
 43
0.0000000001
 40
0.0
 40
0.0
 40
0.0
 40
0.0
 40
1.0
 40
1.0
 40
1.0
 40
1.0
 10
-38.790199999999999
 20
29.3489
 30
0.0
 10
-38.790199999999999
 20
29.3489
 30
0.0
 10
-36.4328
 20
29.038500000000003
 30
0.0
 10
-36.4328
 20
29.038500000000003
 30
0.0
  0
SPLINE
  5
138
100
AcDbEntity
  8
Ebene 1
370
    20
100
AcDbSpline
210
0.0
220
0.0
230
1.0
 70
     0
 71
     3
 72
     8
 73
     4
 74
     0
 42
0.0000000001
 43
0.0000000001
 40
0.0
 40
0.0
 40
0.0
 40
0.0
 40
1.0
 40
1.0
 40
1.0
 40
1.0
 10
-19.336000000000002
 20
27.938100000000002
 30
0.0
 10
-19.336000000000002
 20
27.938100000000002
 30
0.0
 10
-8.6205999999999996
 20
29.3489
 30
0.0
 10
-8.6205999999999996
 20
29.3489
 30
0.0
  0
SPLINE
  5
139
100
AcDbEntity
  8
Ebene 1
370
    20
100
AcDbSpline
210
0.0
220
0.0
230
1.0
 70
     0
 71
     3
 72
     8
 73
     4
 74
     0
 42
0.0000000001
 43
0.0000000001
 40
0.0
 40
0.0
 40
0.0
 40
0.0
 40
1.0
 40
1.0
 40
1.0
 40
1.0
 10
-8.6205999999999996
 20
29.3489
 30
0.0
 10
-8.6205999999999996
 20
29.3489
 30
0.0
 10
-19.336000000000002
 20
30.759500000000003
 30
0.0
 10
-19.336000000000002
 20
30.759500000000003
 30
0.0
  0
SPLINE
  5
13A
100
AcDbEntity
  8
Ebene 1
370
    20
100
AcDbSpline
210
0.0
220
0.0
230
1.0
 70
     0
 71
     3
 72
     8
 73
     4
 74
     0
 42
0.0000000001
 43
0.0000000001
 40
0.0
 40
0.0
 40
0.0
 40
0.0
 40
1.0
 40
1.0
 40
1.0
 40
1.0
 10
-19.336000000000002
 20
30.759500000000003
 30
0.0
 10
-19.336000000000002
 20
30.759500000000003
 30
0.0
 10
-19.336000000000002
 20
27.938100000000002
 30
0.0
 10
-19.336000000000002
 20
27.938100000000002
 30
0.0
  0
SPLINE
  5
13B
100
AcDbEntity
  8
Ebene 1
370
    20
100
AcDbSpline
210
0.0
220
0.0
230
1.0
 70
     0
 71
     3
 72
     8
 73
     4
 74
     0
 42
0.0000000001
 43
0.0000000001
 40
0.0
 40
0.0
 40
0.0
 40
0.0
 40
1.0
 40
1.0
 40
1.0
 40
1.0
 10
-19.360099999999999
 20
28.3049
 30
0.0
 10
-19.360099999999999
 20
28.3049
 30
0.0
 10
-11.4306
 20
29.3489
 30
0.0
 10
-11.4306
 20
29.3489
 30
0.0
  0
SPLINE
  5
13C
100
AcDbEntity
  8
Ebene 1
370
    20
100
AcDbSpline
210
0.0
220
0.0
230
1.0
 70
     0
 71
     3
 72
     8
 73
     4
 74
     0
 42
0.0000000001
 43
0.0000000001
 40
0.0
 40
0.0
 40
0.0
 40
0.0
 40
1.0
 40
1.0
 40
1.0
 40
1.0
 10
-11.4306
 20
29.3489
 30
0.0
 10
-11.4306
 20
29.3489
 30
0.0
 10
-19.360099999999999
 20
30.392800000000001
 30
0.0
 10
-19.360099999999999
 20
30.392800000000001
 30
0.0
  0
SPLINE
  5
13D
100
AcDbEntity
  8
Ebene 1
370
    20
100
AcDbSpline
210
0.0
220
0.0
230
1.0
 70
     0
 71
     3
 72
     8
 73
     4
 74
     0
 42
0.0000000001
 43
0.0000000001
 40
0.0
 40
0.0
 40
0.0
 40
0.0
 40
1.0
 40
1.0
 40
1.0
 40
1.0
 10
-19.3842
 20
28.671700000000001
 30
0.0
 10
-19.3842
 20
28.671700000000001
 30
0.0
 10
-14.2408
 20
29.3489
 30
0.0
 10
-14.2408
 20
29.3489
 30
0.0
  0
SPLINE
  5
13E
100
AcDbEntity
  8
Ebene 1
370
    20
100
AcDbSpline
210
0.0
220
0.0
230
1.0
 70
     0
 71
     3
 72
     8
 73
     4
 74
     0
 42
0.0000000001
 43
0.0000000001
 40
0.0
 40
0.0
 40
0.0
 40
0.0
 40
1.0
 40
1.0
 40
1.0
 40
1.0
 10
-14.2408
 20
29.3489
 30
0.0
 10
-14.2408
 20
29.3489
 30
0.0
 10
-19.3842
 20
30.026
 30
0.0
 10
-19.3842
 20
30.026
 30
0.0
  0
SPLINE
  5
13F
100
AcDbEntity
  8
Ebene 1
370
    20
100
AcDbSpline
210
0.0
220
0.0
230
1.0
 70
     0
 71
     3
 72
     8
 73
     4
 74
     0
 42
0.0000000001
 43
0.0000000001
 40
0.0
 40
0.0
 40
0.0
 40
0.0
 40
1.0
 40
1.0
 40
1.0
 40
1.0
 10
-19.408200000000001
 20
29.038500000000003
 30
0.0
 10
-19.408200000000001
 20
29.038500000000003
 30
0.0
 10
-17.050800000000002
 20
29.3489
 30
0.0
 10
-17.050800000000002
 20
29.3489
 30
0.0
  0
SPLINE
  5
140
100
AcDbEntity
  8
Ebene 1
370
    20
100
AcDbSpline
210
0.0
220
0.0
230
1.0
 70
     0
 71
     3
 72
     8
 73
     4
 74
     0
 42
0.0000000001
 43
0.0000000001
 40
0.0
 40
0.0
 40
0.0
 40
0.0
 40
1.0
 40
1.0
 40
1.0
 40
1.0
 10
-17.050800000000002
 20
29.3489
 30
0.0
 10
-17.050800000000002
 20
29.3489
 30
0.0
 10
-19.408200000000001
 20
29.659200000000002
 30
0.0
 10
-19.408200000000001
 20
29.659200000000002
 30
0.0
  0
SPLINE
  5
142
100
AcDbEntity
  8
LC-006-003-----0
370
    20
100
AcDbSpline
210
0.0
220
0.0
230
1.0
 70
     0
 71
     3
 72
     8
 73
     4
 74
     0
 42
0.0000000001
 43
0.0000000001
 40
0.0
 40
0.0
 40
0.0
 40
0.0
 40
1.0
 40
1.0
 40
1.0
 40
1.0
 10
3.5812000000000004
 20
0.0873
 30
0.0
 10
3.5812000000000004
 20
0.0873
 30
0.0
 10
-44.722700000000003
 20
0.0873
 30
0.0
 10
-44.722700000000003
 20
0.0873
 30
0.0
  0
SPLINE
  5
143
100
AcDbEntity
  8
LC-006-003-----0
370
    20
100
AcDbSpline
210
0.0
220
0.0
230
1.0
 70
     0
 71
     3
 72
     8
 73
     4
 74
     0
 42
0.0000000001
 43
0.0000000001
 40
0.0
 40
0.0
 40
0.0
 40
0.0
 40
1.0
 40
1.0
 40
1.0
 40
1.0
 10
3.5812000000000004
 20
0.0873
 30
0.0
 10
3.5812000000000004
 20
0.0873
 30
0.0
 10
22.866300000000003
 20
0.0873
 30
0.0
 10
22.866300000000003
 20
0.0873
 30
0.0
  0
SPLINE
  5
144
100
AcDbEntity
  8
LC-006-003-----0
370
    20
100
AcDbSpline
210
0.0
220
0.0
230
1.0
 70
     0
 71
     3
 72
     8
 73
     4
 74
     0
 42
0.0000000001
 43
0.0000000001
 40
0.0
 40
0.0
 40
0.0
 40
0.0
 40
1.0
 40
1.0
 40
1.0
 40
1.0
 10
3.4435000000000002
 20
-12.558200000000001
 30
0.0
 10
3.4435000000000002
 20
-12.558200000000001
 30
0.0
 10
2.0327999999999999
 20
-1.8427
 30
0.0
 10
2.0327999999999999
 20
-1.8427
 30
0.0
  0
SPLINE
  5
145
100
AcDbEntity
  8
LC-006-003-----0
370
    20
100
AcDbSpline
210
0.0
220
0.0
230
1.0
 70
     0
 71
     3
 72
     8
 73
     4
 74
     0
 42
0.0000000001
 43
0.0000000001
 40
0.0
 40
0.0
 40
0.0
 40
0.0
 40
1.0
 40
1.0
 40
1.0
 40
1.0
 10
2.0327999999999999
 20
-1.8427
 30
0.0
 10
2.0327999999999999
 20
-1.8427
 30
0.0
 10
0.622
 20
-12.558200000000001
 30
0.0
 10
0.622
 20
-12.558200000000001
 30
0.0
  0
SPLINE
  5
146
100
AcDbEntity
  8
LC-006-003-----0
370
    20
100
AcDbSpline
210
0.0
220
0.0
230
1.0
 70
     0
 71
     3
 72
     8
 73
     4
 74
     0
 42
0.0000000001
 43
0.0000000001
 40
0.0
 40
0.0
 40
0.0
 40
0.0
 40
1.0
 40
1.0
 40
1.0
 40
1.0
 10
0.622
 20
-12.558200000000001
 30
0.0
 10
0.622
 20
-12.558200000000001
 30
0.0
 10
3.4435000000000002
 20
-12.558200000000001
 30
0.0
 10
3.4435000000000002
 20
-12.558200000000001
 30
0.0
  0
SPLINE
  5
147
100
AcDbEntity
  8
LC-006-003-----0
370
    20
100
AcDbSpline
210
0.0
220
0.0
230
1.0
 70
     0
 71
     3
 72
     8
 73
     4
 74
     0
 42
0.0000000001
 43
0.0000000001
 40
0.0
 40
0.0
 40
0.0
 40
0.0
 40
1.0
 40
1.0
 40
1.0
 40
1.0
 10
3.0767000000000002
 20
-12.5822
 30
0.0
 10
3.0767000000000002
 20
-12.5822
 30
0.0
 10
2.0327999999999999
 20
-4.6528
 30
0.0
 10
2.0327999999999999
 20
-4.6528
 30
0.0
  0
SPLINE
  5
148
100
AcDbEntity
  8
LC-006-003-----0
370
    20
100
AcDbSpline
210
0.0
220
0.0
230
1.0
 70
     0
 71
     3
 72
     8
 73
     4
 74
     0
 42
0.0000000001
 43
0.0000000001
 40
0.0
 40
0.0
 40
0.0
 40
0.0
 40
1.0
 40
1.0
 40
1.0
 40
1.0
 10
2.0327999999999999
 20
-4.6528
 30
0.0
 10
2.0327999999999999
 20
-4.6528
 30
0.0
 10
0.9889
 20
-12.5822
 30
0.0
 10
0.9889
 20
-12.5822
 30
0.0
  0
SPLINE
  5
149
100
AcDbEntity
  8
LC-006-003-----0
370
    20
100
AcDbSpline
210
0.0
220
0.0
230
1.0
 70
     0
 71
     3
 72
     8
 73
     4
 74
     0
 42
0.0000000001
 43
0.0000000001
 40
0.0
 40
0.0
 40
0.0
 40
0.0
 40
1.0
 40
1.0
 40
1.0
 40
1.0
 10
2.71
 20
-12.606200000000001
 30
0.0
 10
2.71
 20
-12.606200000000001
 30
0.0
 10
2.0327999999999999
 20
-7.4628000000000005
 30
0.0
 10
2.0327999999999999
 20
-7.4628000000000005
 30
0.0
  0
SPLINE
  5
14A
100
AcDbEntity
  8
LC-006-003-----0
370
    20
100
AcDbSpline
210
0.0
220
0.0
230
1.0
 70
     0
 71
     3
 72
     8
 73
     4
 74
     0
 42
0.0000000001
 43
0.0000000001
 40
0.0
 40
0.0
 40
0.0
 40
0.0
 40
1.0
 40
1.0
 40
1.0
 40
1.0
 10
2.0327999999999999
 20
-7.4628000000000005
 30
0.0
 10
2.0327999999999999
 20
-7.4628000000000005
 30
0.0
 10
1.3556000000000001
 20
-12.606200000000001
 30
0.0
 10
1.3556000000000001
 20
-12.606200000000001
 30
0.0
  0
SPLINE
  5
14B
100
AcDbEntity
  8
LC-006-003-----0
370
    20
100
AcDbSpline
210
0.0
220
0.0
230
1.0
 70
     0
 71
     3
 72
     8
 73
     4
 74
     0
 42
0.0000000001
 43
0.0000000001
 40
0.0
 40
0.0
 40
0.0
 40
0.0
 40
1.0
 40
1.0
 40
1.0
 40
1.0
 10
2.3431000000000002
 20
-12.6304
 30
0.0
 10
2.3431000000000002
 20
-12.6304
 30
0.0
 10
2.0327999999999999
 20
-10.273
 30
0.0
 10
2.0327999999999999
 20
-10.273
 30
0.0
  0
SPLINE
  5
14C
100
AcDbEntity
  8
LC-006-003-----0
370
    20
100
AcDbSpline
210
0.0
220
0.0
230
1.0
 70
     0
 71
     3
 72
     8
 73
     4
 74
     0
 42
0.0000000001
 43
0.0000000001
 40
0.0
 40
0.0
 40
0.0
 40
0.0
 40
1.0
 40
1.0
 40
1.0
 40
1.0
 10
2.0327999999999999
 20
-10.273
 30
0.0
 10
2.0327999999999999
 20
-10.273
 30
0.0
 10
1.7224000000000002
 20
-12.6304
 30
0.0
 10
1.7224000000000002
 20
-12.6304
 30
0.0
  0
SPLINE
  5
14D
100
AcDbEntity
  8
LC-006-003-----0
370
    20
100
AcDbSpline
210
0.0
220
0.0
230
1.0
 70
     0
 71
     3
 72
     8
 73
     4
 74
     0
 42
0.0000000001
 43
0.0000000001
 40
0.0
 40
0.0
 40
0.0
 40
0.0
 40
1.0
 40
1.0
 40
1.0
 40
1.0
 10
0.622
 20
10.8027
 30
0.0
 10
0.622
 20
10.8027
 30
0.0
 10
2.0327999999999999
 20
0.0873
 30
0.0
 10
2.0327999999999999
 20
0.0873
 30
0.0
  0
SPLINE
  5
14E
100
AcDbEntity
  8
LC-006-003-----0
370
    20
100
AcDbSpline
210
0.0
220
0.0
230
1.0
 70
     0
 71
     3
 72
     8
 73
     4
 74
     0
 42
0.0000000001
 43
0.0000000001
 40
0.0
 40
0.0
 40
0.0
 40
0.0
 40
1.0
 40
1.0
 40
1.0
 40
1.0
 10
2.0327999999999999
 20
0.0873
 30
0.0
 10
2.0327999999999999
 20
0.0873
 30
0.0
 10
3.4435000000000002
 20
10.8027
 30
0.0
 10
3.4435000000000002
 20
10.8027
 30
0.0
  0
SPLINE
  5
14F
100
AcDbEntity
  8
LC-006-003-----0
370
    20
100
AcDbSpline
210
0.0
220
0.0
230
1.0
 70
     0
 71
     3
 72
     8
 73
     4
 74
     0
 42
0.0000000001
 43
0.0000000001
 40
0.0
 40
0.0
 40
0.0
 40
0.0
 40
1.0
 40
1.0
 40
1.0
 40
1.0
 10
3.4435000000000002
 20
10.8027
 30
0.0
 10
3.4435000000000002
 20
10.8027
 30
0.0
 10
0.622
 20
10.8027
 30
0.0
 10
0.622
 20
10.8027
 30
0.0
  0
SPLINE
  5
150
100
AcDbEntity
  8
LC-006-003-----0
370
    20
100
AcDbSpline
210
0.0
220
0.0
230
1.0
 70
     0
 71
     3
 72
     8
 73
     4
 74
     0
 42
0.0000000001
 43
0.0000000001
 40
0.0
 40
0.0
 40
0.0
 40
0.0
 40
1.0
 40
1.0
 40
1.0
 40
1.0
 10
0.9889
 20
10.8269
 30
0.0
 10
0.9889
 20
10.8269
 30
0.0
 10
2.0327999999999999
 20
2.8973
 30
0.0
 10
2.0327999999999999
 20
2.8973
 30
0.0
  0
SPLINE
  5
151
100
AcDbEntity
  8
LC-006-003-----0
370
    20
100
AcDbSpline
210
0.0
220
0.0
230
1.0
 70
     0
 71
     3
 72
     8
 73
     4
 74
     0
 42
0.0000000001
 43
0.0000000001
 40
0.0
 40
0.0
 40
0.0
 40
0.0
 40
1.0
 40
1.0
 40
1.0
 40
1.0
 10
2.0327999999999999
 20
2.8973
 30
0.0
 10
2.0327999999999999
 20
2.8973
 30
0.0
 10
3.0767000000000002
 20
10.8269
 30
0.0
 10
3.0767000000000002
 20
10.8269
 30
0.0
  0
SPLINE
  5
152
100
AcDbEntity
  8
LC-006-003-----0
370
    20
100
AcDbSpline
210
0.0
220
0.0
230
1.0
 70
     0
 71
     3
 72
     8
 73
     4
 74
     0
 42
0.0000000001
 43
0.0000000001
 40
0.0
 40
0.0
 40
0.0
 40
0.0
 40
1.0
 40
1.0
 40
1.0
 40
1.0
 10
1.3556000000000001
 20
10.850900000000001
 30
0.0
 10
1.3556000000000001
 20
10.850900000000001
 30
0.0
 10
2.0327999999999999
 20
5.7075000000000005
 30
0.0
 10
2.0327999999999999
 20
5.7075000000000005
 30
0.0
  0
SPLINE
  5
153
100
AcDbEntity
  8
LC-006-003-----0
370
    20
100
AcDbSpline
210
0.0
220
0.0
230
1.0
 70
     0
 71
     3
 72
     8
 73
     4
 74
     0
 42
0.0000000001
 43
0.0000000001
 40
0.0
 40
0.0
 40
0.0
 40
0.0
 40
1.0
 40
1.0
 40
1.0
 40
1.0
 10
2.0327999999999999
 20
5.7075000000000005
 30
0.0
 10
2.0327999999999999
 20
5.7075000000000005
 30
0.0
 10
2.71
 20
10.850900000000001
 30
0.0
 10
2.71
 20
10.850900000000001
 30
0.0
  0
SPLINE
  5
154
100
AcDbEntity
  8
LC-006-003-----0
370
    20
100
AcDbSpline
210
0.0
220
0.0
230
1.0
 70
     0
 71
     3
 72
     8
 73
     4
 74
     0
 42
0.0000000001
 43
0.0000000001
 40
0.0
 40
0.0
 40
0.0
 40
0.0
 40
1.0
 40
1.0
 40
1.0
 40
1.0
 10
1.7224000000000002
 20
10.8749
 30
0.0
 10
1.7224000000000002
 20
10.8749
 30
0.0
 10
2.0327999999999999
 20
8.5175000000000001
 30
0.0
 10
2.0327999999999999
 20
8.5175000000000001
 30
0.0
  0
SPLINE
  5
155
100
AcDbEntity
  8
LC-006-003-----0
370
    20
100
AcDbSpline
210
0.0
220
0.0
230
1.0
 70
     0
 71
     3
 72
     8
 73
     4
 74
     0
 42
0.0000000001
 43
0.0000000001
 40
0.0
 40
0.0
 40
0.0
 40
0.0
 40
1.0
 40
1.0
 40
1.0
 40
1.0
 10
2.0327999999999999
 20
8.5175000000000001
 30
0.0
 10
2.0327999999999999
 20
8.5175000000000001
 30
0.0
 10
2.3431000000000002
 20
10.8749
 30
0.0
 10
2.3431000000000002
 20
10.8749
 30
0.0
  0
SPLINE
  5
156
100
AcDbEntity
  8
LC-006-003-----0
370
    20
100
AcDbSpline
210
0.0
220
0.0
230
1.0
 70
     0
 71
     3
 72
     8
 73
     4
 74
     0
 42
0.0000000001
 43
0.0000000001
 40
0.0
 40
0.0
 40
0.0
 40
0.0
 40
1.0
 40
1.0
 40
1.0
 40
1.0
 10
2.0327999999999999
 20
-16.973800000000001
 30
0.0
 10
2.0327999999999999
 20
-16.973800000000001
 30
0.0
 10
2.0327999999999999
 20
18.579499999999999
 30
0.0
 10
2.0327999999999999
 20
18.579499999999999
 30
0.0
  0
SPLINE
  5
157
100
AcDbEntity
  8
LC-006-003-----0
370
    20
100
AcDbSpline
210
0.0
220
0.0
230
1.0
 70
     0
 71
     3
 72
     8
 73
     4
 74
     0
 42
0.0000000001
 43
0.0000000001
 40
0.0
 40
0.0
 40
0.0
 40
0.0
 40
1.0
 40
1.0
 40
1.0
 40
1.0
 10
-21.2043
 20
-1.8427
 30
0.0
 10
-21.2043
 20
-1.8427
 30
0.0
 10
-20.570800000000002
 20
-1.2092000000000001
 30
0.0
 10
-20.570800000000002
 20
-1.2092000000000001
 30
0.0
  0
SPLINE
  5
158
100
AcDbEntity
  8
LC-006-003-----0
370
    20
100
AcDbSpline
210
0.0
220
0.0
230
1.0
 70
     0
 71
     3
 72
     8
 73
     4
 74
     0
 42
0.0000000001
 43
0.0000000001
 40
0.0
 40
0.0
 40
0.0
 40
0.0
 40
1.0
 40
1.0
 40
1.0
 40
1.0
 10
-22.296100000000003
 20
-1.8427
 30
0.0
 10
-22.296100000000003
 20
-1.8427
 30
0.0
 10
-20.570800000000002
 20
-0.1174
 30
0.0
 10
-20.570800000000002
 20
-0.1174
 30
0.0
  0
SPLINE
  5
159
100
AcDbEntity
  8
LC-006-003-----0
370
    20
100
AcDbSpline
210
0.0
220
0.0
230
1.0
 70
     0
 71
     3
 72
     8
 73
     4
 74
     0
 42
0.0000000001
 43
0.0000000001
 40
0.0
 40
0.0
 40
0.0
 40
0.0
 40
1.0
 40
1.0
 40
1.0
 40
1.0
 10
-23.387800000000002
 20
-1.8427
 30
0.0
 10
-23.387800000000002
 20
-1.8427
 30
0.0
 10
-21.457800000000002
 20
0.0873
 30
0.0
 10
-21.457800000000002
 20
0.0873
 30
0.0
  0
SPLINE
  5
15A
100
AcDbEntity
  8
LC-006-003-----0
370
    20
100
AcDbSpline
210
0.0
220
0.0
230
1.0
 70
     0
 71
     3
 72
     8
 73
     4
 74
     0
 42
0.0000000001
 43
0.0000000001
 40
0.0
 40
0.0
 40
0.0
 40
0.0
 40
1.0
 40
1.0
 40
1.0
 40
1.0
 10
-24.479600000000001
 20
-1.8427
 30
0.0
 10
-24.479600000000001
 20
-1.8427
 30
0.0
 10
-22.549600000000002
 20
0.0873
 30
0.0
 10
-22.549600000000002
 20
0.0873
 30
0.0
  0
SPLINE
  5
15B
100
AcDbEntity
  8
LC-006-003-----0
370
    20
100
AcDbSpline
210
0.0
220
0.0
230
1.0
 70
     0
 71
     3
 72
     8
 73
     4
 74
     0
 42
0.0000000001
 43
0.0000000001
 40
0.0
 40
0.0
 40
0.0
 40
0.0
 40
1.0
 40
1.0
 40
1.0
 40
1.0
 10
-25.571400000000001
 20
-1.8427
 30
0.0
 10
-25.571400000000001
 20
-1.8427
 30
0.0
 10
-23.641400000000001
 20
0.0873
 30
0.0
 10
-23.641400000000001
 20
0.0873
 30
0.0
  0
SPLINE
  5
15C
100
AcDbEntity
  8
LC-006-003-----0
370
    20
100
AcDbSpline
210
0.0
220
0.0
230
1.0
 70
     0
 71
     3
 72
     8
 73
     4
 74
     0
 42
0.0000000001
 43
0.0000000001
 40
0.0
 40
0.0
 40
0.0
 40
0.0
 40
1.0
 40
1.0
 40
1.0
 40
1.0
 10
-26.6631
 20
-1.8427
 30
0.0
 10
-26.6631
 20
-1.8427
 30
0.0
 10
-24.7331
 20
0.0873
 30
0.0
 10
-24.7331
 20
0.0873
 30
0.0
  0
SPLINE
  5
15D
100
AcDbEntity
  8
LC-006-003-----0
370
    20
100
AcDbSpline
210
0.0
220
0.0
230
1.0
 70
     0
 71
     3
 72
     8
 73
     4
 74
     0
 42
0.0000000001
 43
0.0000000001
 40
0.0
 40
0.0
 40
0.0
 40
0.0
 40
1.0
 40
1.0
 40
1.0
 40
1.0
 10
-27.754900000000003
 20
-1.8427
 30
0.0
 10
-27.754900000000003
 20
-1.8427
 30
0.0
 10
-25.8249
 20
0.0873
 30
0.0
 10
-25.8249
 20
0.0873
 30
0.0
  0
SPLINE
  5
15E
100
AcDbEntity
  8
LC-006-003-----0
370
    20
100
AcDbSpline
210
0.0
220
0.0
230
1.0
 70
     0
 71
     3
 72
     8
 73
     4
 74
     0
 42
0.0000000001
 43
0.0000000001
 40
0.0
 40
0.0
 40
0.0
 40
0.0
 40
1.0
 40
1.0
 40
1.0
 40
1.0
 10
-28.846700000000002
 20
-1.8427
 30
0.0
 10
-28.846700000000002
 20
-1.8427
 30
0.0
 10
-26.916700000000002
 20
0.0873
 30
0.0
 10
-26.916700000000002
 20
0.0873
 30
0.0
  0
SPLINE
  5
15F
100
AcDbEntity
  8
LC-006-003-----0
370
    20
100
AcDbSpline
210
0.0
220
0.0
230
1.0
 70
     0
 71
     3
 72
     8
 73
     4
 74
     0
 42
0.0000000001
 43
0.0000000001
 40
0.0
 40
0.0
 40
0.0
 40
0.0
 40
1.0
 40
1.0
 40
1.0
 40
1.0
 10
-29.938400000000001
 20
-1.8427
 30
0.0
 10
-29.938400000000001
 20
-1.8427
 30
0.0
 10
-28.008400000000002
 20
0.0873
 30
0.0
 10
-28.008400000000002
 20
0.0873
 30
0.0
  0
SPLINE
  5
160
100
AcDbEntity
  8
LC-006-003-----0
370
    20
100
AcDbSpline
210
0.0
220
0.0
230
1.0
 70
     0
 71
     3
 72
     8
 73
     4
 74
     0
 42
0.0000000001
 43
0.0000000001
 40
0.0
 40
0.0
 40
0.0
 40
0.0
 40
1.0
 40
1.0
 40
1.0
 40
1.0
 10
-31.030200000000001
 20
-1.8427
 30
0.0
 10
-31.030200000000001
 20
-1.8427
 30
0.0
 10
-29.100300000000001
 20
0.0873
 30
0.0
 10
-29.100300000000001
 20
0.0873
 30
0.0
  0
SPLINE
  5
161
100
AcDbEntity
  8
LC-006-003-----0
370
    20
100
AcDbSpline
210
0.0
220
0.0
230
1.0
 70
     0
 71
     3
 72
     8
 73
     4
 74
     0
 42
0.0000000001
 43
0.0000000001
 40
0.0
 40
0.0
 40
0.0
 40
0.0
 40
1.0
 40
1.0
 40
1.0
 40
1.0
 10
-32.122
 20
-1.8427
 30
0.0
 10
-32.122
 20
-1.8427
 30
0.0
 10
-30.192
 20
0.0873
 30
0.0
 10
-30.192
 20
0.0873
 30
0.0
  0
SPLINE
  5
162
100
AcDbEntity
  8
LC-006-003-----0
370
    20
100
AcDbSpline
210
0.0
220
0.0
230
1.0
 70
     0
 71
     3
 72
     8
 73
     4
 74
     0
 42
0.0000000001
 43
0.0000000001
 40
0.0
 40
0.0
 40
0.0
 40
0.0
 40
1.0
 40
1.0
 40
1.0
 40
1.0
 10
-33.213700000000003
 20
-1.8427
 30
0.0
 10
-33.213700000000003
 20
-1.8427
 30
0.0
 10
-31.283700000000003
 20
0.0873
 30
0.0
 10
-31.283700000000003
 20
0.0873
 30
0.0
  0
SPLINE
  5
163
100
AcDbEntity
  8
LC-006-003-----0
370
    20
100
AcDbSpline
210
0.0
220
0.0
230
1.0
 70
     0
 71
     3
 72
     8
 73
     4
 74
     0
 42
0.0000000001
 43
0.0000000001
 40
0.0
 40
0.0
 40
0.0
 40
0.0
 40
1.0
 40
1.0
 40
1.0
 40
1.0
 10
-34.305599999999998
 20
-1.8427
 30
0.0
 10
-34.305599999999998
 20
-1.8427
 30
0.0
 10
-32.375599999999999
 20
0.0873
 30
0.0
 10
-32.375599999999999
 20
0.0873
 30
0.0
  0
SPLINE
  5
164
100
AcDbEntity
  8
LC-006-003-----0
370
    20
100
AcDbSpline
210
0.0
220
0.0
230
1.0
 70
     0
 71
     3
 72
     8
 73
     4
 74
     0
 42
0.0000000001
 43
0.0000000001
 40
0.0
 40
0.0
 40
0.0
 40
0.0
 40
1.0
 40
1.0
 40
1.0
 40
1.0
 10
-35.397300000000001
 20
-1.8427
 30
0.0
 10
-35.397300000000001
 20
-1.8427
 30
0.0
 10
-33.467300000000002
 20
0.0873
 30
0.0
 10
-33.467300000000002
 20
0.0873
 30
0.0
  0
SPLINE
  5
165
100
AcDbEntity
  8
LC-006-003-----0
370
    20
100
AcDbSpline
210
0.0
220
0.0
230
1.0
 70
     0
 71
     3
 72
     8
 73
     4
 74
     0
 42
0.0000000001
 43
0.0000000001
 40
0.0
 40
0.0
 40
0.0
 40
0.0
 40
1.0
 40
1.0
 40
1.0
 40
1.0
 10
-36.489100000000001
 20
-1.8427
 30
0.0
 10
-36.489100000000001
 20
-1.8427
 30
0.0
 10
-34.559100000000001
 20
0.0873
 30
0.0
 10
-34.559100000000001
 20
0.0873
 30
0.0
  0
SPLINE
  5
166
100
AcDbEntity
  8
LC-006-003-----0
370
    20
100
AcDbSpline
210
0.0
220
0.0
230
1.0
 70
     0
 71
     3
 72
     8
 73
     4
 74
     0
 42
0.0000000001
 43
0.0000000001
 40
0.0
 40
0.0
 40
0.0
 40
0.0
 40
1.0
 40
1.0
 40
1.0
 40
1.0
 10
-37.5809
 20
-1.8427
 30
0.0
 10
-37.5809
 20
-1.8427
 30
0.0
 10
-35.6509
 20
0.0873
 30
0.0
 10
-35.6509
 20
0.0873
 30
0.0
  0
SPLINE
  5
167
100
AcDbEntity
  8
LC-006-003-----0
370
    20
100
AcDbSpline
210
0.0
220
0.0
230
1.0
 70
     0
 71
     3
 72
     8
 73
     4
 74
     0
 42
0.0000000001
 43
0.0000000001
 40
0.0
 40
0.0
 40
0.0
 40
0.0
 40
1.0
 40
1.0
 40
1.0
 40
1.0
 10
-38.672600000000003
 20
-1.8427
 30
0.0
 10
-38.672600000000003
 20
-1.8427
 30
0.0
 10
-36.742600000000003
 20
0.0873
 30
0.0
 10
-36.742600000000003
 20
0.0873
 30
0.0
  0
SPLINE
  5
168
100
AcDbEntity
  8
LC-006-003-----0
370
    20
100
AcDbSpline
210
0.0
220
0.0
230
1.0
 70
     0
 71
     3
 72
     8
 73
     4
 74
     0
 42
0.0000000001
 43
0.0000000001
 40
0.0
 40
0.0
 40
0.0
 40
0.0
 40
1.0
 40
1.0
 40
1.0
 40
1.0
 10
-39.764400000000002
 20
-1.8427
 30
0.0
 10
-39.764400000000002
 20
-1.8427
 30
0.0
 10
-37.834400000000002
 20
0.0873
 30
0.0
 10
-37.834400000000002
 20
0.0873
 30
0.0
  0
SPLINE
  5
169
100
AcDbEntity
  8
LC-006-003-----0
370
    20
100
AcDbSpline
210
0.0
220
0.0
230
1.0
 70
     0
 71
     3
 72
     8
 73
     4
 74
     0
 42
0.0000000001
 43
0.0000000001
 40
0.0
 40
0.0
 40
0.0
 40
0.0
 40
1.0
 40
1.0
 40
1.0
 40
1.0
 10
-40.856200000000001
 20
-1.8427
 30
0.0
 10
-40.856200000000001
 20
-1.8427
 30
0.0
 10
-38.926200000000001
 20
0.0873
 30
0.0
 10
-38.926200000000001
 20
0.0873
 30
0.0
  0
SPLINE
  5
16A
100
AcDbEntity
  8
LC-006-003-----0
370
    20
100
AcDbSpline
210
0.0
220
0.0
230
1.0
 70
     0
 71
     3
 72
     8
 73
     4
 74
     0
 42
0.0000000001
 43
0.0000000001
 40
0.0
 40
0.0
 40
0.0
 40
0.0
 40
1.0
 40
1.0
 40
1.0
 40
1.0
 10
-41.947900000000004
 20
-1.8427
 30
0.0
 10
-41.947900000000004
 20
-1.8427
 30
0.0
 10
-40.017900000000004
 20
0.0873
 30
0.0
 10
-40.017900000000004
 20
0.0873
 30
0.0
  0
SPLINE
  5
16B
100
AcDbEntity
  8
LC-006-003-----0
370
    20
100
AcDbSpline
210
0.0
220
0.0
230
1.0
 70
     0
 71
     3
 72
     8
 73
     4
 74
     0
 42
0.0000000001
 43
0.0000000001
 40
0.0
 40
0.0
 40
0.0
 40
0.0
 40
1.0
 40
1.0
 40
1.0
 40
1.0
 10
-43.039700000000003
 20
-1.8427
 30
0.0
 10
-43.039700000000003
 20
-1.8427
 30
0.0
 10
-41.1098
 20
0.0873
 30
0.0
 10
-41.1098
 20
0.0873
 30
0.0
  0
SPLINE
  5
16C
100
AcDbEntity
  8
LC-006-003-----0
370
    20
100
AcDbSpline
210
0.0
220
0.0
230
1.0
 70
     0
 71
     3
 72
     8
 73
     4
 74
     0
 42
0.0000000001
 43
0.0000000001
 40
0.0
 40
0.0
 40
0.0
 40
0.0
 40
1.0
 40
1.0
 40
1.0
 40
1.0
 10
-44.131500000000003
 20
-1.8427
 30
0.0
 10
-44.131500000000003
 20
-1.8427
 30
0.0
 10
-42.201500000000003
 20
0.0873
 30
0.0
 10
-42.201500000000003
 20
0.0873
 30
0.0
  0
SPLINE
  5
16D
100
AcDbEntity
  8
LC-006-003-----0
370
    20
100
AcDbSpline
210
0.0
220
0.0
230
1.0
 70
     0
 71
     3
 72
     8
 73
     4
 74
     0
 42
0.0000000001
 43
0.0000000001
 40
0.0
 40
0.0
 40
0.0
 40
0.0
 40
1.0
 40
1.0
 40
1.0
 40
1.0
 10
-44.722700000000003
 20
-1.3422000000000001
 30
0.0
 10
-44.722700000000003
 20
-1.3422000000000001
 30
0.0
 10
-43.293199999999999
 20
0.0873
 30
0.0
 10
-43.293199999999999
 20
0.0873
 30
0.0
  0
SPLINE
  5
16E
100
AcDbEntity
  8
LC-006-003-----0
370
    20
100
AcDbSpline
210
0.0
220
0.0
230
1.0
 70
     0
 71
     3
 72
     8
 73
     4
 74
     0
 42
0.0000000001
 43
0.0000000001
 40
0.0
 40
0.0
 40
0.0
 40
0.0
 40
1.0
 40
1.0
 40
1.0
 40
1.0
 10
-44.722700000000003
 20
-0.2504
 30
0.0
 10
-44.722700000000003
 20
-0.2504
 30
0.0
 10
-44.385100000000001
 20
0.0873
 30
0.0
 10
-44.385100000000001
 20
0.0873
 30
0.0
  0
SPLINE
  5
16F
100
AcDbEntity
  8
LC-006-003-----0
370
    20
100
AcDbSpline
210
0.0
220
0.0
230
1.0
 70
     0
 71
     3
 72
     8
 73
     4
 74
     0
 42
0.0000000001
 43
0.0000000001
 40
0.0
 40
0.0
 40
0.0
 40
0.0
 40
1.0
 40
1.0
 40
1.0
 40
1.0
 10
-20.570800000000002
 20
-0.5886
 30
0.0
 10
-20.570800000000002
 20
-0.5886
 30
0.0
 10
-21.246600000000001
 20
0.0873
 30
0.0
 10
-21.246600000000001
 20
0.0873
 30
0.0
  0
SPLINE
  5
170
100
AcDbEntity
  8
LC-006-003-----0
370
    20
100
AcDbSpline
210
0.0
220
0.0
230
1.0
 70
     0
 71
     3
 72
     8
 73
     4
 74
     0
 42
0.0000000001
 43
0.0000000001
 40
0.0
 40
0.0
 40
0.0
 40
0.0
 40
1.0
 40
1.0
 40
1.0
 40
1.0
 10
-20.570800000000002
 20
-1.6804000000000001
 30
0.0
 10
-20.570800000000002
 20
-1.6804000000000001
 30
0.0
 10
-22.3384
 20
0.0873
 30
0.0
 10
-22.3384
 20
0.0873
 30
0.0
  0
SPLINE
  5
171
100
AcDbEntity
  8
LC-006-003-----0
370
    20
100
AcDbSpline
210
0.0
220
0.0
230
1.0
 70
     0
 71
     3
 72
     8
 73
     4
 74
     0
 42
0.0000000001
 43
0.0000000001
 40
0.0
 40
0.0
 40
0.0
 40
0.0
 40
1.0
 40
1.0
 40
1.0
 40
1.0
 10
-21.5002
 20
-1.8427
 30
0.0
 10
-21.5002
 20
-1.8427
 30
0.0
 10
-23.430099999999999
 20
0.0873
 30
0.0
 10
-23.430099999999999
 20
0.0873
 30
0.0
  0
SPLINE
  5
172
100
AcDbEntity
  8
LC-006-003-----0
370
    20
100
AcDbSpline
210
0.0
220
0.0
230
1.0
 70
     0
 71
     3
 72
     8
 73
     4
 74
     0
 42
0.0000000001
 43
0.0000000001
 40
0.0
 40
0.0
 40
0.0
 40
0.0
 40
1.0
 40
1.0
 40
1.0
 40
1.0
 10
-22.591900000000003
 20
-1.8427
 30
0.0
 10
-22.591900000000003
 20
-1.8427
 30
0.0
 10
-24.521900000000002
 20
0.0873
 30
0.0
 10
-24.521900000000002
 20
0.0873
 30
0.0
  0
SPLINE
  5
173
100
AcDbEntity
  8
LC-006-003-----0
370
    20
100
AcDbSpline
210
0.0
220
0.0
230
1.0
 70
     0
 71
     3
 72
     8
 73
     4
 74
     0
 42
0.0000000001
 43
0.0000000001
 40
0.0
 40
0.0
 40
0.0
 40
0.0
 40
1.0
 40
1.0
 40
1.0
 40
1.0
 10
-23.683700000000002
 20
-1.8427
 30
0.0
 10
-23.683700000000002
 20
-1.8427
 30
0.0
 10
-25.613700000000001
 20
0.0873
 30
0.0
 10
-25.613700000000001
 20
0.0873
 30
0.0
  0
SPLINE
  5
174
100
AcDbEntity
  8
LC-006-003-----0
370
    20
100
AcDbSpline
210
0.0
220
0.0
230
1.0
 70
     0
 71
     3
 72
     8
 73
     4
 74
     0
 42
0.0000000001
 43
0.0000000001
 40
0.0
 40
0.0
 40
0.0
 40
0.0
 40
1.0
 40
1.0
 40
1.0
 40
1.0
 10
-24.775500000000001
 20
-1.8427
 30
0.0
 10
-24.775500000000001
 20
-1.8427
 30
0.0
 10
-26.705500000000001
 20
0.0873
 30
0.0
 10
-26.705500000000001
 20
0.0873
 30
0.0
  0
SPLINE
  5
175
100
AcDbEntity
  8
LC-006-003-----0
370
    20
100
AcDbSpline
210
0.0
220
0.0
230
1.0
 70
     0
 71
     3
 72
     8
 73
     4
 74
     0
 42
0.0000000001
 43
0.0000000001
 40
0.0
 40
0.0
 40
0.0
 40
0.0
 40
1.0
 40
1.0
 40
1.0
 40
1.0
 10
-25.8672
 20
-1.8427
 30
0.0
 10
-25.8672
 20
-1.8427
 30
0.0
 10
-27.7972
 20
0.0873
 30
0.0
 10
-27.7972
 20
0.0873
 30
0.0
  0
SPLINE
  5
176
100
AcDbEntity
  8
LC-006-003-----0
370
    20
100
AcDbSpline
210
0.0
220
0.0
230
1.0
 70
     0
 71
     3
 72
     8
 73
     4
 74
     0
 42
0.0000000001
 43
0.0000000001
 40
0.0
 40
0.0
 40
0.0
 40
0.0
 40
1.0
 40
1.0
 40
1.0
 40
1.0
 10
-26.959
 20
-1.8427
 30
0.0
 10
-26.959
 20
-1.8427
 30
0.0
 10
-28.889000000000003
 20
0.0873
 30
0.0
 10
-28.889000000000003
 20
0.0873
 30
0.0
  0
SPLINE
  5
177
100
AcDbEntity
  8
LC-006-003-----0
370
    20
100
AcDbSpline
210
0.0
220
0.0
230
1.0
 70
     0
 71
     3
 72
     8
 73
     4
 74
     0
 42
0.0000000001
 43
0.0000000001
 40
0.0
 40
0.0
 40
0.0
 40
0.0
 40
1.0
 40
1.0
 40
1.0
 40
1.0
 10
-28.050800000000002
 20
-1.8427
 30
0.0
 10
-28.050800000000002
 20
-1.8427
 30
0.0
 10
-29.980800000000002
 20
0.0873
 30
0.0
 10
-29.980800000000002
 20
0.0873
 30
0.0
  0
SPLINE
  5
178
100
AcDbEntity
  8
LC-006-003-----0
370
    20
100
AcDbSpline
210
0.0
220
0.0
230
1.0
 70
     0
 71
     3
 72
     8
 73
     4
 74
     0
 42
0.0000000001
 43
0.0000000001
 40
0.0
 40
0.0
 40
0.0
 40
0.0
 40
1.0
 40
1.0
 40
1.0
 40
1.0
 10
-29.142500000000002
 20
-1.8427
 30
0.0
 10
-29.142500000000002
 20
-1.8427
 30
0.0
 10
-31.072500000000002
 20
0.0873
 30
0.0
 10
-31.072500000000002
 20
0.0873
 30
0.0
  0
SPLINE
  5
179
100
AcDbEntity
  8
LC-006-003-----0
370
    20
100
AcDbSpline
210
0.0
220
0.0
230
1.0
 70
     0
 71
     3
 72
     8
 73
     4
 74
     0
 42
0.0000000001
 43
0.0000000001
 40
0.0
 40
0.0
 40
0.0
 40
0.0
 40
1.0
 40
1.0
 40
1.0
 40
1.0
 10
-30.234300000000001
 20
-1.8427
 30
0.0
 10
-30.234300000000001
 20
-1.8427
 30
0.0
 10
-32.164300000000004
 20
0.0873
 30
0.0
 10
-32.164300000000004
 20
0.0873
 30
0.0
  0
SPLINE
  5
17A
100
AcDbEntity
  8
LC-006-003-----0
370
    20
100
AcDbSpline
210
0.0
220
0.0
230
1.0
 70
     0
 71
     3
 72
     8
 73
     4
 74
     0
 42
0.0000000001
 43
0.0000000001
 40
0.0
 40
0.0
 40
0.0
 40
0.0
 40
1.0
 40
1.0
 40
1.0
 40
1.0
 10
-31.3261
 20
-1.8427
 30
0.0
 10
-31.3261
 20
-1.8427
 30
0.0
 10
-33.256100000000004
 20
0.0873
 30
0.0
 10
-33.256100000000004
 20
0.0873
 30
0.0
  0
SPLINE
  5
17B
100
AcDbEntity
  8
LC-006-003-----0
370
    20
100
AcDbSpline
210
0.0
220
0.0
230
1.0
 70
     0
 71
     3
 72
     8
 73
     4
 74
     0
 42
0.0000000001
 43
0.0000000001
 40
0.0
 40
0.0
 40
0.0
 40
0.0
 40
1.0
 40
1.0
 40
1.0
 40
1.0
 10
-32.4178
 20
-1.8427
 30
0.0
 10
-32.4178
 20
-1.8427
 30
0.0
 10
-34.347799999999999
 20
0.0873
 30
0.0
 10
-34.347799999999999
 20
0.0873
 30
0.0
  0
SPLINE
  5
17C
100
AcDbEntity
  8
LC-006-003-----0
370
    20
100
AcDbSpline
210
0.0
220
0.0
230
1.0
 70
     0
 71
     3
 72
     8
 73
     4
 74
     0
 42
0.0000000001
 43
0.0000000001
 40
0.0
 40
0.0
 40
0.0
 40
0.0
 40
1.0
 40
1.0
 40
1.0
 40
1.0
 10
-33.509700000000002
 20
-1.8427
 30
0.0
 10
-33.509700000000002
 20
-1.8427
 30
0.0
 10
-35.439599999999999
 20
0.0873
 30
0.0
 10
-35.439599999999999
 20
0.0873
 30
0.0
  0
SPLINE
  5
17D
100
AcDbEntity
  8
LC-006-003-----0
370
    20
100
AcDbSpline
210
0.0
220
0.0
230
1.0
 70
     0
 71
     3
 72
     8
 73
     4
 74
     0
 42
0.0000000001
 43
0.0000000001
 40
0.0
 40
0.0
 40
0.0
 40
0.0
 40
1.0
 40
1.0
 40
1.0
 40
1.0
 10
-34.601399999999998
 20
-1.8427
 30
0.0
 10
-34.601399999999998
 20
-1.8427
 30
0.0
 10
-36.531400000000005
 20
0.0873
 30
0.0
 10
-36.531400000000005
 20
0.0873
 30
0.0
  0
SPLINE
  5
17E
100
AcDbEntity
  8
LC-006-003-----0
370
    20
100
AcDbSpline
210
0.0
220
0.0
230
1.0
 70
     0
 71
     3
 72
     8
 73
     4
 74
     0
 42
0.0000000001
 43
0.0000000001
 40
0.0
 40
0.0
 40
0.0
 40
0.0
 40
1.0
 40
1.0
 40
1.0
 40
1.0
 10
-35.693200000000004
 20
-1.8427
 30
0.0
 10
-35.693200000000004
 20
-1.8427
 30
0.0
 10
-37.623200000000004
 20
0.0873
 30
0.0
 10
-37.623200000000004
 20
0.0873
 30
0.0
  0
SPLINE
  5
17F
100
AcDbEntity
  8
LC-006-003-----0
370
    20
100
AcDbSpline
210
0.0
220
0.0
230
1.0
 70
     0
 71
     3
 72
     8
 73
     4
 74
     0
 42
0.0000000001
 43
0.0000000001
 40
0.0
 40
0.0
 40
0.0
 40
0.0
 40
1.0
 40
1.0
 40
1.0
 40
1.0
 10
-36.785000000000004
 20
-1.8427
 30
0.0
 10
-36.785000000000004
 20
-1.8427
 30
0.0
 10
-38.715000000000003
 20
0.0873
 30
0.0
 10
-38.715000000000003
 20
0.0873
 30
0.0
  0
SPLINE
  5
180
100
AcDbEntity
  8
LC-006-003-----0
370
    20
100
AcDbSpline
210
0.0
220
0.0
230
1.0
 70
     0
 71
     3
 72
     8
 73
     4
 74
     0
 42
0.0000000001
 43
0.0000000001
 40
0.0
 40
0.0
 40
0.0
 40
0.0
 40
1.0
 40
1.0
 40
1.0
 40
1.0
 10
-37.8767
 20
-1.8427
 30
0.0
 10
-37.8767
 20
-1.8427
 30
0.0
 10
-39.806699999999999
 20
0.0873
 30
0.0
 10
-39.806699999999999
 20
0.0873
 30
0.0
  0
SPLINE
  5
181
100
AcDbEntity
  8
LC-006-003-----0
370
    20
100
AcDbSpline
210
0.0
220
0.0
230
1.0
 70
     0
 71
     3
 72
     8
 73
     4
 74
     0
 42
0.0000000001
 43
0.0000000001
 40
0.0
 40
0.0
 40
0.0
 40
0.0
 40
1.0
 40
1.0
 40
1.0
 40
1.0
 10
-38.968499999999999
 20
-1.8427
 30
0.0
 10
-38.968499999999999
 20
-1.8427
 30
0.0
 10
-40.898499999999999
 20
0.0873
 30
0.0
 10
-40.898499999999999
 20
0.0873
 30
0.0
  0
SPLINE
  5
182
100
AcDbEntity
  8
LC-006-003-----0
370
    20
100
AcDbSpline
210
0.0
220
0.0
230
1.0
 70
     0
 71
     3
 72
     8
 73
     4
 74
     0
 42
0.0000000001
 43
0.0000000001
 40
0.0
 40
0.0
 40
0.0
 40
0.0
 40
1.0
 40
1.0
 40
1.0
 40
1.0
 10
-40.060300000000005
 20
-1.8427
 30
0.0
 10
-40.060300000000005
 20
-1.8427
 30
0.0
 10
-41.990300000000005
 20
0.0873
 30
0.0
 10
-41.990300000000005
 20
0.0873
 30
0.0
  0
SPLINE
  5
183
100
AcDbEntity
  8
LC-006-003-----0
370
    20
100
AcDbSpline
210
0.0
220
0.0
230
1.0
 70
     0
 71
     3
 72
     8
 73
     4
 74
     0
 42
0.0000000001
 43
0.0000000001
 40
0.0
 40
0.0
 40
0.0
 40
0.0
 40
1.0
 40
1.0
 40
1.0
 40
1.0
 10
-41.152000000000001
 20
-1.8427
 30
0.0
 10
-41.152000000000001
 20
-1.8427
 30
0.0
 10
-43.082000000000001
 20
0.0873
 30
0.0
 10
-43.082000000000001
 20
0.0873
 30
0.0
  0
SPLINE
  5
184
100
AcDbEntity
  8
LC-006-003-----0
370
    20
100
AcDbSpline
210
0.0
220
0.0
230
1.0
 70
     0
 71
     3
 72
     8
 73
     4
 74
     0
 42
0.0000000001
 43
0.0000000001
 40
0.0
 40
0.0
 40
0.0
 40
0.0
 40
1.0
 40
1.0
 40
1.0
 40
1.0
 10
-42.2438
 20
-1.8427
 30
0.0
 10
-42.2438
 20
-1.8427
 30
0.0
 10
-44.1738
 20
0.0873
 30
0.0
 10
-44.1738
 20
0.0873
 30
0.0
  0
SPLINE
  5
185
100
AcDbEntity
  8
LC-006-003-----0
370
    20
100
AcDbSpline
210
0.0
220
0.0
230
1.0
 70
     0
 71
     3
 72
     8
 73
     4
 74
     0
 42
0.0000000001
 43
0.0000000001
 40
0.0
 40
0.0
 40
0.0
 40
0.0
 40
1.0
 40
1.0
 40
1.0
 40
1.0
 10
-43.335599999999999
 20
-1.8427
 30
0.0
 10
-43.335599999999999
 20
-1.8427
 30
0.0
 10
-44.722700000000003
 20
-0.4555
 30
0.0
 10
-44.722700000000003
 20
-0.4555
 30
0.0
  0
SPLINE
  5
186
100
AcDbEntity
  8
LC-006-003-----0
370
    20
100
AcDbSpline
210
0.0
220
0.0
230
1.0
 70
     0
 71
     3
 72
     8
 73
     4
 74
     0
 42
0.0000000001
 43
0.0000000001
 40
0.0
 40
0.0
 40
0.0
 40
0.0
 40
1.0
 40
1.0
 40
1.0
 40
1.0
 10
-44.427300000000002
 20
-1.8427
 30
0.0
 10
-44.427300000000002
 20
-1.8427
 30
0.0
 10
-44.722700000000003
 20
-1.5474000000000001
 30
0.0
 10
-44.722700000000003
 20
-1.5474000000000001
 30
0.0
  0
SPLINE
  5
187
100
AcDbEntity
  8
LC-006-003-----0
370
    20
100
AcDbSpline
210
0.0
220
0.0
230
1.0
 70
     0
 71
     3
 72
     8
 73
     4
 74
     0
 42
0.0000000001
 43
0.0000000001
 40
0.0
 40
0.0
 40
0.0
 40
0.0
 40
1.0
 40
1.0
 40
1.0
 40
1.0
 10
-12.4701
 20
-1.8427
 30
0.0
 10
-12.4701
 20
-1.8427
 30
0.0
 10
-10.540100000000001
 20
0.0873
 30
0.0
 10
-10.540100000000001
 20
0.0873
 30
0.0
  0
SPLINE
  5
188
100
AcDbEntity
  8
LC-006-003-----0
370
    20
100
AcDbSpline
210
0.0
220
0.0
230
1.0
 70
     0
 71
     3
 72
     8
 73
     4
 74
     0
 42
0.0000000001
 43
0.0000000001
 40
0.0
 40
0.0
 40
0.0
 40
0.0
 40
1.0
 40
1.0
 40
1.0
 40
1.0
 10
-13.561900000000001
 20
-1.8427
 30
0.0
 10
-13.561900000000001
 20
-1.8427
 30
0.0
 10
-11.6319
 20
0.0873
 30
0.0
 10
-11.6319
 20
0.0873
 30
0.0
  0
SPLINE
  5
189
100
AcDbEntity
  8
LC-006-003-----0
370
    20
100
AcDbSpline
210
0.0
220
0.0
230
1.0
 70
     0
 71
     3
 72
     8
 73
     4
 74
     0
 42
0.0000000001
 43
0.0000000001
 40
0.0
 40
0.0
 40
0.0
 40
0.0
 40
1.0
 40
1.0
 40
1.0
 40
1.0
 10
-14.653700000000001
 20
-1.8427
 30
0.0
 10
-14.653700000000001
 20
-1.8427
 30
0.0
 10
-12.723700000000001
 20
0.0873
 30
0.0
 10
-12.723700000000001
 20
0.0873
 30
0.0
  0
SPLINE
  5
18A
100
AcDbEntity
  8
LC-006-003-----0
370
    20
100
AcDbSpline
210
0.0
220
0.0
230
1.0
 70
     0
 71
     3
 72
     8
 73
     4
 74
     0
 42
0.0000000001
 43
0.0000000001
 40
0.0
 40
0.0
 40
0.0
 40
0.0
 40
1.0
 40
1.0
 40
1.0
 40
1.0
 10
-15.7454
 20
-1.8427
 30
0.0
 10
-15.7454
 20
-1.8427
 30
0.0
 10
-13.8154
 20
0.0873
 30
0.0
 10
-13.8154
 20
0.0873
 30
0.0
  0
SPLINE
  5
18B
100
AcDbEntity
  8
LC-006-003-----0
370
    20
100
AcDbSpline
210
0.0
220
0.0
230
1.0
 70
     0
 71
     3
 72
     8
 73
     4
 74
     0
 42
0.0000000001
 43
0.0000000001
 40
0.0
 40
0.0
 40
0.0
 40
0.0
 40
1.0
 40
1.0
 40
1.0
 40
1.0
 10
-16.837199999999999
 20
-1.8427
 30
0.0
 10
-16.837199999999999
 20
-1.8427
 30
0.0
 10
-14.907200000000001
 20
0.0873
 30
0.0
 10
-14.907200000000001
 20
0.0873
 30
0.0
  0
SPLINE
  5
18C
100
AcDbEntity
  8
LC-006-003-----0
370
    20
100
AcDbSpline
210
0.0
220
0.0
230
1.0
 70
     0
 71
     3
 72
     8
 73
     4
 74
     0
 42
0.0000000001
 43
0.0000000001
 40
0.0
 40
0.0
 40
0.0
 40
0.0
 40
1.0
 40
1.0
 40
1.0
 40
1.0
 10
-17.929000000000002
 20
-1.8427
 30
0.0
 10
-17.929000000000002
 20
-1.8427
 30
0.0
 10
-15.999000000000001
 20
0.0873
 30
0.0
 10
-15.999000000000001
 20
0.0873
 30
0.0
  0
SPLINE
  5
18D
100
AcDbEntity
  8
LC-006-003-----0
370
    20
100
AcDbSpline
210
0.0
220
0.0
230
1.0
 70
     0
 71
     3
 72
     8
 73
     4
 74
     0
 42
0.0000000001
 43
0.0000000001
 40
0.0
 40
0.0
 40
0.0
 40
0.0
 40
1.0
 40
1.0
 40
1.0
 40
1.0
 10
-19.020800000000001
 20
-1.8427
 30
0.0
 10
-19.020800000000001
 20
-1.8427
 30
0.0
 10
-17.090800000000002
 20
0.0873
 30
0.0
 10
-17.090800000000002
 20
0.0873
 30
0.0
  0
SPLINE
  5
18E
100
AcDbEntity
  8
LC-006-003-----0
370
    20
100
AcDbSpline
210
0.0
220
0.0
230
1.0
 70
     0
 71
     3
 72
     8
 73
     4
 74
     0
 42
0.0000000001
 43
0.0000000001
 40
0.0
 40
0.0
 40
0.0
 40
0.0
 40
1.0
 40
1.0
 40
1.0
 40
1.0
 10
-20.112500000000001
 20
-1.8427
 30
0.0
 10
-20.112500000000001
 20
-1.8427
 30
0.0
 10
-18.182500000000001
 20
0.0873
 30
0.0
 10
-18.182500000000001
 20
0.0873
 30
0.0
  0
SPLINE
  5
18F
100
AcDbEntity
  8
LC-006-003-----0
370
    20
100
AcDbSpline
210
0.0
220
0.0
230
1.0
 70
     0
 71
     3
 72
     8
 73
     4
 74
     0
 42
0.0000000001
 43
0.0000000001
 40
0.0
 40
0.0
 40
0.0
 40
0.0
 40
1.0
 40
1.0
 40
1.0
 40
1.0
 10
-20.570800000000002
 20
-1.2092000000000001
 30
0.0
 10
-20.570800000000002
 20
-1.2092000000000001
 30
0.0
 10
-19.2743
 20
0.0873
 30
0.0
 10
-19.2743
 20
0.0873
 30
0.0
  0
SPLINE
  5
190
100
AcDbEntity
  8
LC-006-003-----0
370
    20
100
AcDbSpline
210
0.0
220
0.0
230
1.0
 70
     0
 71
     3
 72
     8
 73
     4
 74
     0
 42
0.0000000001
 43
0.0000000001
 40
0.0
 40
0.0
 40
0.0
 40
0.0
 40
1.0
 40
1.0
 40
1.0
 40
1.0
 10
-20.570800000000002
 20
-0.1174
 30
0.0
 10
-20.570800000000002
 20
-0.1174
 30
0.0
 10
-20.366099999999999
 20
0.0873
 30
0.0
 10
-20.366099999999999
 20
0.0873
 30
0.0
  0
SPLINE
  5
191
100
AcDbEntity
  8
LC-006-003-----0
370
    20
100
AcDbSpline
210
0.0
220
0.0
230
1.0
 70
     0
 71
     3
 72
     8
 73
     4
 74
     0
 42
0.0000000001
 43
0.0000000001
 40
0.0
 40
0.0
 40
0.0
 40
0.0
 40
1.0
 40
1.0
 40
1.0
 40
1.0
 10
-10.9533
 20
-0.38
 30
0.0
 10
-10.9533
 20
-0.38
 30
0.0
 10
-11.4207
 20
0.0873
 30
0.0
 10
-11.4207
 20
0.0873
 30
0.0
  0
SPLINE
  5
192
100
AcDbEntity
  8
LC-006-003-----0
370
    20
100
AcDbSpline
210
0.0
220
0.0
230
1.0
 70
     0
 71
     3
 72
     8
 73
     4
 74
     0
 42
0.0000000001
 43
0.0000000001
 40
0.0
 40
0.0
 40
0.0
 40
0.0
 40
1.0
 40
1.0
 40
1.0
 40
1.0
 10
-10.9984
 20
-1.4267000000000001
 30
0.0
 10
-10.9984
 20
-1.4267000000000001
 30
0.0
 10
-12.512500000000001
 20
0.0873
 30
0.0
 10
-12.512500000000001
 20
0.0873
 30
0.0
  0
SPLINE
  5
193
100
AcDbEntity
  8
LC-006-003-----0
370
    20
100
AcDbSpline
210
0.0
220
0.0
230
1.0
 70
     0
 71
     3
 72
     8
 73
     4
 74
     0
 42
0.0000000001
 43
0.0000000001
 40
0.0
 40
0.0
 40
0.0
 40
0.0
 40
1.0
 40
1.0
 40
1.0
 40
1.0
 10
-11.674200000000001
 20
-1.8427
 30
0.0
 10
-11.674200000000001
 20
-1.8427
 30
0.0
 10
-13.604200000000001
 20
0.0873
 30
0.0
 10
-13.604200000000001
 20
0.0873
 30
0.0
  0
SPLINE
  5
194
100
AcDbEntity
  8
LC-006-003-----0
370
    20
100
AcDbSpline
210
0.0
220
0.0
230
1.0
 70
     0
 71
     3
 72
     8
 73
     4
 74
     0
 42
0.0000000001
 43
0.0000000001
 40
0.0
 40
0.0
 40
0.0
 40
0.0
 40
1.0
 40
1.0
 40
1.0
 40
1.0
 10
-12.766
 20
-1.8427
 30
0.0
 10
-12.766
 20
-1.8427
 30
0.0
 10
-14.696000000000002
 20
0.0873
 30
0.0
 10
-14.696000000000002
 20
0.0873
 30
0.0
  0
SPLINE
  5
195
100
AcDbEntity
  8
LC-006-003-----0
370
    20
100
AcDbSpline
210
0.0
220
0.0
230
1.0
 70
     0
 71
     3
 72
     8
 73
     4
 74
     0
 42
0.0000000001
 43
0.0000000001
 40
0.0
 40
0.0
 40
0.0
 40
0.0
 40
1.0
 40
1.0
 40
1.0
 40
1.0
 10
-13.857800000000001
 20
-1.8427
 30
0.0
 10
-13.857800000000001
 20
-1.8427
 30
0.0
 10
-15.787800000000001
 20
0.0873
 30
0.0
 10
-15.787800000000001
 20
0.0873
 30
0.0
  0
SPLINE
  5
196
100
AcDbEntity
  8
LC-006-003-----0
370
    20
100
AcDbSpline
210
0.0
220
0.0
230
1.0
 70
     0
 71
     3
 72
     8
 73
     4
 74
     0
 42
0.0000000001
 43
0.0000000001
 40
0.0
 40
0.0
 40
0.0
 40
0.0
 40
1.0
 40
1.0
 40
1.0
 40
1.0
 10
-14.9495
 20
-1.8427
 30
0.0
 10
-14.9495
 20
-1.8427
 30
0.0
 10
-16.8795
 20
0.0873
 30
0.0
 10
-16.8795
 20
0.0873
 30
0.0
  0
SPLINE
  5
197
100
AcDbEntity
  8
LC-006-003-----0
370
    20
100
AcDbSpline
210
0.0
220
0.0
230
1.0
 70
     0
 71
     3
 72
     8
 73
     4
 74
     0
 42
0.0000000001
 43
0.0000000001
 40
0.0
 40
0.0
 40
0.0
 40
0.0
 40
1.0
 40
1.0
 40
1.0
 40
1.0
 10
-16.0413
 20
-1.8427
 30
0.0
 10
-16.0413
 20
-1.8427
 30
0.0
 10
-17.971299999999999
 20
0.0873
 30
0.0
 10
-17.971299999999999
 20
0.0873
 30
0.0
  0
SPLINE
  5
198
100
AcDbEntity
  8
LC-006-003-----0
370
    20
100
AcDbSpline
210
0.0
220
0.0
230
1.0
 70
     0
 71
     3
 72
     8
 73
     4
 74
     0
 42
0.0000000001
 43
0.0000000001
 40
0.0
 40
0.0
 40
0.0
 40
0.0
 40
1.0
 40
1.0
 40
1.0
 40
1.0
 10
-17.133100000000002
 20
-1.8427
 30
0.0
 10
-17.133100000000002
 20
-1.8427
 30
0.0
 10
-19.063100000000002
 20
0.0873
 30
0.0
 10
-19.063100000000002
 20
0.0873
 30
0.0
  0
SPLINE
  5
199
100
AcDbEntity
  8
LC-006-003-----0
370
    20
100
AcDbSpline
210
0.0
220
0.0
230
1.0
 70
     0
 71
     3
 72
     8
 73
     4
 74
     0
 42
0.0000000001
 43
0.0000000001
 40
0.0
 40
0.0
 40
0.0
 40
0.0
 40
1.0
 40
1.0
 40
1.0
 40
1.0
 10
-18.224800000000002
 20
-1.8427
 30
0.0
 10
-18.224800000000002
 20
-1.8427
 30
0.0
 10
-20.154800000000002
 20
0.0873
 30
0.0
 10
-20.154800000000002
 20
0.0873
 30
0.0
  0
SPLINE
  5
19A
100
AcDbEntity
  8
LC-006-003-----0
370
    20
100
AcDbSpline
210
0.0
220
0.0
230
1.0
 70
     0
 71
     3
 72
     8
 73
     4
 74
     0
 42
0.0000000001
 43
0.0000000001
 40
0.0
 40
0.0
 40
0.0
 40
0.0
 40
1.0
 40
1.0
 40
1.0
 40
1.0
 10
-19.316600000000001
 20
-1.8427
 30
0.0
 10
-19.316600000000001
 20
-1.8427
 30
0.0
 10
-20.570800000000002
 20
-0.5886
 30
0.0
 10
-20.570800000000002
 20
-0.5886
 30
0.0
  0
SPLINE
  5
19B
100
AcDbEntity
  8
LC-006-003-----0
370
    20
100
AcDbSpline
210
0.0
220
0.0
230
1.0
 70
     0
 71
     3
 72
     8
 73
     4
 74
     0
 42
0.0000000001
 43
0.0000000001
 40
0.0
 40
0.0
 40
0.0
 40
0.0
 40
1.0
 40
1.0
 40
1.0
 40
1.0
 10
-20.4084
 20
-1.8427
 30
0.0
 10
-20.4084
 20
-1.8427
 30
0.0
 10
-20.570800000000002
 20
-1.6804000000000001
 30
0.0
 10
-20.570800000000002
 20
-1.6804000000000001
 30
0.0
  0
SPLINE
  5
19C
100
AcDbEntity
  8
LC-006-003-----0
100
AcDbSpline
210
0.0
220
0.0
230
1.0
 70
     1
 71
     3
 72
   120
 73
   116
 74
     0
 42
0.0000000001
 43
0.0000000001
 40
0.0
 40
0.0
 40
0.0
 40
0.0
 40
0.0344827586206897
 40
0.0344827586206897
 40
0.0344827586206897
 40
0.0344827586206897
 40
0.0689655172413793
 40
0.0689655172413793
 40
0.0689655172413793
 40
0.0689655172413793
 40
0.103448275862069
 40
0.103448275862069
 40
0.103448275862069
 40
0.103448275862069
 40
0.1379310344827586
 40
0.1379310344827586
 40
0.1379310344827586
 40
0.1379310344827586
 40
0.1724137931034483
 40
0.1724137931034483
 40
0.1724137931034483
 40
0.1724137931034483
 40
0.206896551724138
 40
0.206896551724138
 40
0.206896551724138
 40
0.206896551724138
 40
0.2413793103448276
 40
0.2413793103448276
 40
0.2413793103448276
 40
0.2413793103448276
 40
0.2758620689655173
 40
0.2758620689655173
 40
0.2758620689655173
 40
0.2758620689655173
 40
0.310344827586207
 40
0.310344827586207
 40
0.310344827586207
 40
0.310344827586207
 40
0.3448275862068966
 40
0.3448275862068966
 40
0.3448275862068966
 40
0.3448275862068966
 40
0.3793103448275863
 40
0.3793103448275863
 40
0.3793103448275863
 40
0.3793103448275863
 40
0.413793103448276
 40
0.413793103448276
 40
0.413793103448276
 40
0.413793103448276
 40
0.4482758620689656
 40
0.4482758620689656
 40
0.4482758620689656
 40
0.4482758620689656
 40
0.4827586206896553
 40
0.4827586206896553
 40
0.4827586206896553
 40
0.4827586206896553
 40
0.517241379310345
 40
0.517241379310345
 40
0.517241379310345
 40
0.517241379310345
 40
0.5517241379310346
 40
0.5517241379310346
 40
0.5517241379310346
 40
0.5517241379310346
 40
0.5862068965517242
 40
0.5862068965517242
 40
0.5862068965517242
 40
0.5862068965517242
 40
0.6206896551724138
 40
0.6206896551724138
 40
0.6206896551724138
 40
0.6206896551724138
 40
0.6551724137931034
 40
0.6551724137931034
 40
0.6551724137931034
 40
0.6551724137931034
 40
0.689655172413793
 40
0.689655172413793
 40
0.689655172413793
 40
0.689655172413793
 40
0.7241379310344827
 40
0.7241379310344827
 40
0.7241379310344827
 40
0.7241379310344827
 40
0.7586206896551723
 40
0.7586206896551723
 40
0.7586206896551723
 40
0.7586206896551723
 40
0.7931034482758619
 40
0.7931034482758619
 40
0.7931034482758619
 40
0.7931034482758619
 40
0.8275862068965515
 40
0.8275862068965515
 40
0.8275862068965515
 40
0.8275862068965515
 40
0.8620689655172411
 40
0.8620689655172411
 40
0.8620689655172411
 40
0.8620689655172411
 40
0.8965517241379307
 40
0.8965517241379307
 40
0.8965517241379307
 40
0.8965517241379307
 40
0.9310344827586203
 40
0.9310344827586203
 40
0.9310344827586203
 40
0.9310344827586203
 40
0.9655172413793099
 40
0.9655172413793099
 40
0.9655172413793099
 40
0.9655172413793099
 40
1.0
 40
1.0
 40
1.0
 40
1.0
 10
-1.6084000000000001
 20
12.421900000000001
 30
0.0
 10
-1.6084000000000001
 20
12.421900000000001
 30
0.0
 10
-1.7002000000000002
 20
13.3726
 30
0.0
 10
-1.7002000000000002
 20
13.3726
 30
0.0
 10
-1.7002000000000002
 20
13.3726
 30
0.0
 10
-1.5661
 20
13.365500000000001
 30
0.0
 10
-1.4850000000000001
 20
13.362
 30
0.0
 10
-1.4585000000000001
 20
13.362
 30
0.0
 10
-1.4585000000000001
 20
13.362
 30
0.0
 10
-1.2310000000000001
 20
13.362
 30
0.0
 10
-1.0017
 20
13.420200000000001
 30
0.0
 10
-0.7706000000000001
 20
13.5349
 30
0.0
 10
-0.7706000000000001
 20
13.5349
 30
0.0
 10
-0.5395
 20
13.651300000000001
 30
0.0
 10
-0.3631
 20
13.808300000000001
 30
0.0
 10
-0.2414
 20
14.005800000000001
 30
0.0
 10
-0.2414
 20
14.005800000000001
 30
0.0
 10
-0.118
 20
14.2034
 30
0.0
 10
-0.058
 20
14.413300000000001
 30
0.0
 10
-0.058
 20
14.633800000000001
 30
0.0
 10
-0.058
 20
14.633800000000001
 30
0.0
 10
-0.058
 20
14.923100000000002
 30
0.0
 10
-0.1568
 20
15.217600000000001
 30
0.0
 10
-0.3579
 20
15.5175
 30
0.0
 10
-0.3579
 20
15.5175
 30
0.0
 10
-0.5572
 20
15.817300000000001
 30
0.0
 10
-0.8482000000000001
 20
16.059000000000001
 30
0.0
 10
-1.2310000000000001
 20
16.246000000000002
 30
0.0
 10
-1.2310000000000001
 20
16.246000000000002
 30
0.0
 10
-1.6120000000000001
 20
16.4312
 30
0.0
 10
-1.9912000000000001
 20
16.524699999999999
 30
0.0
 10
-2.3669000000000002
 20
16.524699999999999
 30
0.0
 10
-2.3669000000000002
 20
16.524699999999999
 30
0.0
 10
-2.7903000000000002
 20
16.524699999999999
 30
0.0
 10
-3.1307
 20
16.3994
 30
0.0
 10
-3.3847
 20
16.150700000000001
 30
0.0
 10
-3.3847
 20
16.150700000000001
 30
0.0
 10
-3.6404000000000001
 20
15.9002
 30
0.0
 10
-3.7674000000000003
 20
15.5722
 30
0.0
 10
-3.7674000000000003
 20
15.166500000000001
 30
0.0
 10
-3.7674000000000003
 20
15.166500000000001
 30
0.0
 10
-3.7674000000000003
 20
14.8931
 30
0.0
 10
-3.7022000000000004
 20
14.6355
 30
0.0
 10
-3.5717000000000003
 20
14.3939
 30
0.0
 10
-3.5717000000000003
 20
14.3939
 30
0.0
 10
-3.4411
 20
14.150500000000001
 30
0.0
 10
-3.2436000000000003
 20
13.924700000000001
 30
0.0
 10
-2.9824999999999999
 20
13.713000000000001
 30
0.0
 10
-2.9824999999999999
 20
13.713000000000001
 30
0.0
 10
-2.9824999999999999
 20
13.713000000000001
 30
0.0
 10
-3.0390000000000001
 20
12.8964
 30
0.0
 10
-3.0390000000000001
 20
12.8964
 30
0.0
 10
-3.0390000000000001
 20
12.8964
 30
0.0
 10
-3.0390000000000001
 20
12.8964
 30
0.0
 10
-6.9142000000000001
 20
14.039300000000001
 30
0.0
 10
-6.9142000000000001
 20
14.039300000000001
 30
0.0
 10
-6.9142000000000001
 20
14.039300000000001
 30
0.0
 10
-6.9142000000000001
 20
14.039300000000001
 30
0.0
 10
-6.9142000000000001
 20
17.740000000000002
 30
0.0
 10
-6.9142000000000001
 20
17.740000000000002
 30
0.0
 10
-6.9142000000000001
 20
17.740000000000002
 30
0.0
 10
-6.9142000000000001
 20
17.740000000000002
 30
0.0
 10
-6.0570000000000004
 20
17.558299999999999
 30
0.0
 10
-6.0570000000000004
 20
17.558299999999999
 30
0.0
 10
-6.0570000000000004
 20
17.558299999999999
 30
0.0
 10
-6.0570000000000004
 20
17.558299999999999
 30
0.0
 10
-6.0570000000000004
 20
14.679600000000001
 30
0.0
 10
-6.0570000000000004
 20
14.679600000000001
 30
0.0
 10
-6.0570000000000004
 20
14.679600000000001
 30
0.0
 10
-6.0570000000000004
 20
14.679600000000001
 30
0.0
 10
-4.1290000000000004
 20
14.111700000000001
 30
0.0
 10
-4.1290000000000004
 20
14.111700000000001
 30
0.0
 10
-4.1290000000000004
 20
14.111700000000001
 30
0.0
 10
-4.2843
 20
14.325100000000001
 30
0.0
 10
-4.4007000000000005
 20
14.5456
 30
0.0
 10
-4.4782999999999999
 20
14.769600000000001
 30
0.0
 10
-4.4782999999999999
 20
14.769600000000001
 30
0.0
 10
-4.5559000000000003
 20
14.9954
 30
0.0
 10
-4.5947000000000005
 20
15.228200000000001
 30
0.0
 10
-4.5947000000000005
 20
15.4663
 30
0.0
 10
-4.5947000000000005
 20
15.4663
 30
0.0
 10
-4.5947000000000005
 20
16.044900000000002
 30
0.0
 10
-4.4042000000000003
 20
16.519400000000001
 30
0.0
 10
-4.0213999999999999
 20
16.891500000000001
 30
0.0
 10
-4.0213999999999999
 20
16.891500000000001
 30
0.0
 10
-3.6387
 20
17.2637
 30
0.0
 10
-3.1148000000000002
 20
17.450700000000001
 30
0.0
 10
-2.4498000000000002
 20
17.450700000000001
 30
0.0
 10
-2.4498000000000002
 20
17.450700000000001
 30
0.0
 10
-1.8677000000000001
 20
17.450700000000001
 30
0.0
 10
-1.3315000000000001
 20
17.321899999999999
 30
0.0
 10
-0.8394
 20
17.067900000000002
 30
0.0
 10
-0.8394
 20
17.067900000000002
 30
0.0
 10
-0.349
 20
16.812200000000001
 30
0.0
 10
0.0284
 20
16.461200000000002
 30
0.0
 10
0.2913
 20
16.0167
 30
0.0
 10
0.2913
 20
16.0167
 30
0.0
 10
0.5558000000000001
 20
15.570400000000001
 30
0.0
 10
0.6864
 20
15.088900000000001
 30
0.0
 10
0.6864
 20
14.572000000000001
 30
0.0
 10
0.6864
 20
14.572000000000001
 30
0.0
 10
0.6864
 20
14.138100000000001
 30
0.0
 10
0.5893000000000001
 20
13.7536
 30
0.0
 10
0.3918
 20
13.4185
 30
0.0
 10
0.3918
 20
13.4185
 30
0.0
 10
0.196
 20
13.085100000000001
 30
0.0
 10
-0.0739
 20
12.8346
 30
0.0
 10
-0.4196
 20
12.667
 30
0.0
 10
-0.4196
 20
12.667
 30
0.0
 10
-0.7635000000000001
 20
12.499500000000001
 30
0.0
 10
-1.1075000000000002
 20
12.416600000000001
 30
0.0
 10
-1.4532
 20
12.416600000000001
 30
0.0
 10
-1.4532
 20
12.416600000000001
 30
0.0
 10
-1.4867000000000001
 20
12.416600000000001
 30
0.0
 10
-1.5379
 20
12.4183
 30
0.0
 10
-1.6084000000000001
 20
12.421900000000001
 30
0.0
  0
SPLINE
  5
19D
100
AcDbEntity
  8
LC-006-003-----0
100
AcDbSpline
210
0.0
220
0.0
230
1.0
 70
     1
 71
     3
 72
   120
 73
   116
 74
     0
 42
0.0000000001
 43
0.0000000001
 40
0.0
 40
0.0
 40
0.0
 40
0.0
 40
0.0344827586206897
 40
0.0344827586206897
 40
0.0344827586206897
 40
0.0344827586206897
 40
0.0689655172413793
 40
0.0689655172413793
 40
0.0689655172413793
 40
0.0689655172413793
 40
0.103448275862069
 40
0.103448275862069
 40
0.103448275862069
 40
0.103448275862069
 40
0.1379310344827586
 40
0.1379310344827586
 40
0.1379310344827586
 40
0.1379310344827586
 40
0.1724137931034483
 40
0.1724137931034483
 40
0.1724137931034483
 40
0.1724137931034483
 40
0.206896551724138
 40
0.206896551724138
 40
0.206896551724138
 40
0.206896551724138
 40
0.2413793103448276
 40
0.2413793103448276
 40
0.2413793103448276
 40
0.2413793103448276
 40
0.2758620689655173
 40
0.2758620689655173
 40
0.2758620689655173
 40
0.2758620689655173
 40
0.310344827586207
 40
0.310344827586207
 40
0.310344827586207
 40
0.310344827586207
 40
0.3448275862068966
 40
0.3448275862068966
 40
0.3448275862068966
 40
0.3448275862068966
 40
0.3793103448275863
 40
0.3793103448275863
 40
0.3793103448275863
 40
0.3793103448275863
 40
0.413793103448276
 40
0.413793103448276
 40
0.413793103448276
 40
0.413793103448276
 40
0.4482758620689656
 40
0.4482758620689656
 40
0.4482758620689656
 40
0.4482758620689656
 40
0.4827586206896553
 40
0.4827586206896553
 40
0.4827586206896553
 40
0.4827586206896553
 40
0.517241379310345
 40
0.517241379310345
 40
0.517241379310345
 40
0.517241379310345
 40
0.5517241379310346
 40
0.5517241379310346
 40
0.5517241379310346
 40
0.5517241379310346
 40
0.5862068965517242
 40
0.5862068965517242
 40
0.5862068965517242
 40
0.5862068965517242
 40
0.6206896551724138
 40
0.6206896551724138
 40
0.6206896551724138
 40
0.6206896551724138
 40
0.6551724137931034
 40
0.6551724137931034
 40
0.6551724137931034
 40
0.6551724137931034
 40
0.689655172413793
 40
0.689655172413793
 40
0.689655172413793
 40
0.689655172413793
 40
0.7241379310344827
 40
0.7241379310344827
 40
0.7241379310344827
 40
0.7241379310344827
 40
0.7586206896551723
 40
0.7586206896551723
 40
0.7586206896551723
 40
0.7586206896551723
 40
0.7931034482758619
 40
0.7931034482758619
 40
0.7931034482758619
 40
0.7931034482758619
 40
0.8275862068965515
 40
0.8275862068965515
 40
0.8275862068965515
 40
0.8275862068965515
 40
0.8620689655172411
 40
0.8620689655172411
 40
0.8620689655172411
 40
0.8620689655172411
 40
0.8965517241379307
 40
0.8965517241379307
 40
0.8965517241379307
 40
0.8965517241379307
 40
0.9310344827586203
 40
0.9310344827586203
 40
0.9310344827586203
 40
0.9310344827586203
 40
0.9655172413793099
 40
0.9655172413793099
 40
0.9655172413793099
 40
0.9655172413793099
 40
1.0
 40
1.0
 40
1.0
 40
1.0
 10
12.778500000000001
 20
3.3421000000000003
 30
0.0
 10
12.778500000000001
 20
3.3421000000000003
 30
0.0
 10
12.6867
 20
4.2928000000000006
 30
0.0
 10
12.6867
 20
4.2928000000000006
 30
0.0
 10
12.6867
 20
4.2928000000000006
 30
0.0
 10
12.8208
 20
4.2857000000000003
 30
0.0
 10
12.901900000000001
 20
4.2822000000000005
 30
0.0
 10
12.9284
 20
4.2822000000000005
 30
0.0
 10
12.9284
 20
4.2822000000000005
 30
0.0
 10
13.155900000000001
 20
4.2822000000000005
 30
0.0
 10
13.385200000000001
 20
4.3403999999999998
 30
0.0
 10
13.616300000000001
 20
4.4550999999999998
 30
0.0
 10
13.616300000000001
 20
4.4550999999999998
 30
0.0
 10
13.8474
 20
4.5715000000000003
 30
0.0
 10
14.023800000000001
 20
4.7285000000000004
 30
0.0
 10
14.1455
 20
4.9260000000000002
 30
0.0
 10
14.1455
 20
4.9260000000000002
 30
0.0
 10
14.2689
 20
5.1236000000000006
 30
0.0
 10
14.328900000000001
 20
5.3334999999999999
 30
0.0
 10
14.328900000000001
 20
5.5540000000000003
 30
0.0
 10
14.328900000000001
 20
5.5540000000000003
 30
0.0
 10
14.328900000000001
 20
5.8433000000000002
 30
0.0
 10
14.2301
 20
6.1378000000000004
 30
0.0
 10
14.029
 20
6.4377000000000004
 30
0.0
 10
14.029
 20
6.4377000000000004
 30
0.0
 10
13.829700000000001
 20
6.7375000000000007
 30
0.0
 10
13.5387
 20
6.9792000000000005
 30
0.0
 10
13.155900000000001
 20
7.1661999999999999
 30
0.0
 10
13.155900000000001
 20
7.1661999999999999
 30
0.0
 10
12.774900000000001
 20
7.3513999999999999
 30
0.0
 10
12.3957
 20
7.4449000000000005
 30
0.0
 10
12.020000000000001
 20
7.4449000000000005
 30
0.0
 10
12.020000000000001
 20
7.4449000000000005
 30
0.0
 10
11.5966
 20
7.4449000000000005
 30
0.0
 10
11.2562
 20
7.3196000000000003
 30
0.0
 10
11.0022
 20
7.0709
 30
0.0
 10
11.0022
 20
7.0709
 30
0.0
 10
10.746500000000001
 20
6.8204000000000002
 30
0.0
 10
10.6195
 20
6.4923999999999999
 30
0.0
 10
10.6195
 20
6.0867000000000004
 30
0.0
 10
10.6195
 20
6.0867000000000004
 30
0.0
 10
10.6195
 20
5.8132999999999999
 30
0.0
 10
10.684700000000001
 20
5.5556999999999999
 30
0.0
 10
10.815200000000001
 20
5.3140999999999998
 30
0.0
 10
10.815200000000001
 20
5.3140999999999998
 30
0.0
 10
10.9458
 20
5.0707000000000004
 30
0.0
 10
11.1433
 20
4.8449
 30
0.0
 10
11.404400000000001
 20
4.6332000000000004
 30
0.0
 10
11.404400000000001
 20
4.6332000000000004
 30
0.0
 10
11.404400000000001
 20
4.6332000000000004
 30
0.0
 10
11.347900000000001
 20
3.8166000000000002
 30
0.0
 10
11.347900000000001
 20
3.8166000000000002
 30
0.0
 10
11.347900000000001
 20
3.8166000000000002
 30
0.0
 10
11.347900000000001
 20
3.8166000000000002
 30
0.0
 10
7.4727000000000006
 20
4.9595000000000002
 30
0.0
 10
7.4727000000000006
 20
4.9595000000000002
 30
0.0
 10
7.4727000000000006
 20
4.9595000000000002
 30
0.0
 10
7.4727000000000006
 20
4.9595000000000002
 30
0.0
 10
7.4727000000000006
 20
8.6601999999999997
 30
0.0
 10
7.4727000000000006
 20
8.6601999999999997
 30
0.0
 10
7.4727000000000006
 20
8.6601999999999997
 30
0.0
 10
7.4727000000000006
 20
8.6601999999999997
 30
0.0
 10
8.3299000000000003
 20
8.4785000000000004
 30
0.0
 10
8.3299000000000003
 20
8.4785000000000004
 30
0.0
 10
8.3299000000000003
 20
8.4785000000000004
 30
0.0
 10
8.3299000000000003
 20
8.4785000000000004
 30
0.0
 10
8.3299000000000003
 20
5.5998000000000001
 30
0.0
 10
8.3299000000000003
 20
5.5998000000000001
 30
0.0
 10
8.3299000000000003
 20
5.5998000000000001
 30
0.0
 10
8.3299000000000003
 20
5.5998000000000001
 30
0.0
 10
10.257900000000001
 20
5.0319000000000003
 30
0.0
 10
10.257900000000001
 20
5.0319000000000003
 30
0.0
 10
10.257900000000001
 20
5.0319000000000003
 30
0.0
 10
10.102600000000001
 20
5.2453000000000003
 30
0.0
 10
9.9862000000000002
 20
5.4658000000000007
 30
0.0
 10
9.9085999999999999
 20
5.6898
 30
0.0
 10
9.9085999999999999
 20
5.6898
 30
0.0
 10
9.8310000000000013
 20
5.9156000000000004
 30
0.0
 10
9.7922000000000011
 20
6.1484000000000005
 30
0.0
 10
9.7922000000000011
 20
6.3865000000000007
 30
0.0
 10
9.7922000000000011
 20
6.3865000000000007
 30
0.0
 10
9.7922000000000011
 20
6.9651000000000005
 30
0.0
 10
9.9827000000000012
 20
7.4396000000000004
 30
0.0
 10
10.365500000000001
 20
7.8117000000000001
 30
0.0
 10
10.365500000000001
 20
7.8117000000000001
 30
0.0
 10
10.748200000000001
 20
8.1838999999999995
 30
0.0
 10
11.2721
 20
8.3709000000000007
 30
0.0
 10
11.937100000000001
 20
8.3709000000000007
 30
0.0
 10
11.937100000000001
 20
8.3709000000000007
 30
0.0
 10
12.519200000000001
 20
8.3709000000000007
 30
0.0
 10
13.055400000000001
 20
8.2421000000000006
 30
0.0
 10
13.547500000000001
 20
7.9881000000000002
 30
0.0
 10
13.547500000000001
 20
7.9881000000000002
 30
0.0
 10
14.0379
 20
7.7324000000000002
 30
0.0
 10
14.4153
 20
7.3814000000000002
 30
0.0
 10
14.6782
 20
6.9369000000000005
 30
0.0
 10
14.6782
 20
6.9369000000000005
 30
0.0
 10
14.9427
 20
6.4906000000000006
 30
0.0
 10
15.073300000000001
 20
6.0091000000000001
 30
0.0
 10
15.073300000000001
 20
5.4922000000000004
 30
0.0
 10
15.073300000000001
 20
5.4922000000000004
 30
0.0
 10
15.073300000000001
 20
5.0583
 30
0.0
 10
14.9762
 20
4.6738
 30
0.0
 10
14.778700000000001
 20
4.3387000000000002
 30
0.0
 10
14.778700000000001
 20
4.3387000000000002
 30
0.0
 10
14.5829
 20
4.0053000000000001
 30
0.0
 10
14.313000000000001
 20
3.7548000000000004
 30
0.0
 10
13.9673
 20
3.5872000000000002
 30
0.0
 10
13.9673
 20
3.5872000000000002
 30
0.0
 10
13.6234
 20
3.4197000000000002
 30
0.0
 10
13.279400000000001
 20
3.3368000000000002
 30
0.0
 10
12.9337
 20
3.3368000000000002
 30
0.0
 10
12.9337
 20
3.3368000000000002
 30
0.0
 10
12.9002
 20
3.3368000000000002
 30
0.0
 10
12.849
 20
3.3385000000000002
 30
0.0
 10
12.778500000000001
 20
3.3421000000000003
 30
0.0
  0
SPLINE
  5
19E
100
AcDbEntity
  8
LC-006-003-----0
100
AcDbSpline
210
0.0
220
0.0
230
1.0
 70
     1
 71
     3
 72
    52
 73
    48
 74
     0
 42
0.0000000001
 43
0.0000000001
 40
0.0
 40
0.0
 40
0.0
 40
0.0
 40
0.0833333333333333
 40
0.0833333333333333
 40
0.0833333333333333
 40
0.0833333333333333
 40
0.1666666666666667
 40
0.1666666666666667
 40
0.1666666666666667
 40
0.1666666666666667
 40
0.25
 40
0.25
 40
0.25
 40
0.25
 40
0.3333333333333333
 40
0.3333333333333333
 40
0.3333333333333333
 40
0.3333333333333333
 40
0.4166666666666666
 40
0.4166666666666666
 40
0.4166666666666666
 40
0.4166666666666666
 40
0.4999999999999999
 40
0.4999999999999999
 40
0.4999999999999999
 40
0.4999999999999999
 40
0.5833333333333333
 40
0.5833333333333333
 40
0.5833333333333333
 40
0.5833333333333333
 40
0.6666666666666666
 40
0.6666666666666666
 40
0.6666666666666666
 40
0.6666666666666666
 40
0.75
 40
0.75
 40
0.75
 40
0.75
 40
0.8333333333333334
 40
0.8333333333333334
 40
0.8333333333333334
 40
0.8333333333333334
 40
0.9166666666666667
 40
0.9166666666666667
 40
0.9166666666666667
 40
0.9166666666666667
 40
1.0
 40
1.0
 40
1.0
 40
1.0
 10
12.459200000000001
 20
9.2388000000000012
 30
0.0
 10
11.818900000000001
 20
9.2388000000000012
 30
0.0
 10
11.1663
 20
9.3339999999999996
 30
0.0
 10
10.504800000000001
 20
9.5244999999999997
 30
0.0
 10
10.504800000000001
 20
9.5244999999999997
 30
0.0
 10
9.843300000000001
 20
9.716800000000001
 30
0.0
 10
9.315900000000001
 20
9.9283999999999999
 30
0.0
 10
8.9191000000000003
 20
10.163
 30
0.0
 10
8.9191000000000003
 20
10.163
 30
0.0
 10
8.5221999999999998
 20
10.397600000000001
 30
0.0
 10
8.2134999999999998
 20
10.641
 30
0.0
 10
7.9895000000000005
 20
10.891500000000001
 30
0.0
 10
7.9895000000000005
 20
10.891500000000001
 30
0.0
 10
7.7655000000000003
 20
11.143700000000001
 30
0.0
 10
7.5997000000000003
 20
11.390700000000001
 30
0.0
 10
7.4956000000000005
 20
11.6341
 30
0.0
 10
7.4956000000000005
 20
11.6341
 30
0.0
 10
7.3898000000000001
 20
11.8758
 30
0.0
 10
7.3369
 20
12.1456
 30
0.0
 10
7.3369
 20
12.442
 30
0.0
 10
7.3369
 20
12.442
 30
0.0
 10
7.3369
 20
13.0205
 30
0.0
 10
7.5538000000000007
 20
13.5038
 30
0.0
 10
7.9842000000000004
 20
13.891900000000001
 30
0.0
 10
7.9842000000000004
 20
13.891900000000001
 30
0.0
 10
8.4146000000000001
 20
14.279900000000001
 30
0.0
 10
9.0355000000000008
 20
14.474
 30
0.0
 10
9.8486000000000011
 20
14.474
 30
0.0
 10
9.8486000000000011
 20
14.474
 30
0.0
 10
10.686500000000001
 20
14.474
 30
0.0
 10
11.515500000000001
 20
14.338100000000001
 30
0.0
 10
12.334000000000001
 20
14.07
 30
0.0
 10
12.334000000000001
 20
14.07
 30
0.0
 10
13.305900000000001
 20
13.752500000000001
 30
0.0
 10
14.0343
 20
13.3116
 30
0.0
 10
14.5212
 20
12.747100000000001
 30
0.0
 10
14.5212
 20
12.747100000000001
 30
0.0
 10
14.889800000000001
 20
12.3132
 30
0.0
 10
15.073300000000001
 20
11.8193
 30
0.0
 10
15.073300000000001
 20
11.2637
 30
0.0
 10
15.073300000000001
 20
11.2637
 30
0.0
 10
15.073300000000001
 20
10.6957
 30
0.0
 10
14.851000000000001
 20
10.215900000000001
 30
0.0
 10
14.4048
 20
9.8244000000000007
 30
0.0
 10
14.4048
 20
9.8244000000000007
 30
0.0
 10
13.958500000000001
 20
9.4344999999999999
 30
0.0
 10
13.3094
 20
9.2388000000000012
 30
0.0
 10
12.459200000000001
 20
9.2388000000000012
 30
0.0
  0
SPLINE
  5
19F
100
AcDbEntity
  8
LC-006-003-----0
100
AcDbSpline
210
0.0
220
0.0
230
1.0
 70
     1
 71
     3
 72
    48
 73
    44
 74
     0
 42
0.0000000001
 43
0.0000000001
 40
0.0
 40
0.0
 40
0.0
 40
0.0
 40
0.0909090909090909
 40
0.0909090909090909
 40
0.0909090909090909
 40
0.0909090909090909
 40
0.1818181818181818
 40
0.1818181818181818
 40
0.1818181818181818
 40
0.1818181818181818
 40
0.2727272727272727
 40
0.2727272727272727
 40
0.2727272727272727
 40
0.2727272727272727
 40
0.3636363636363637
 40
0.3636363636363637
 40
0.3636363636363637
 40
0.3636363636363637
 40
0.4545454545454546
 40
0.4545454545454546
 40
0.4545454545454546
 40
0.4545454545454546
 40
0.5454545454545455
 40
0.5454545454545455
 40
0.5454545454545455
 40
0.5454545454545455
 40
0.6363636363636365
 40
0.6363636363636365
 40
0.6363636363636365
 40
0.6363636363636365
 40
0.7272727272727274
 40
0.7272727272727274
 40
0.7272727272727274
 40
0.7272727272727274
 40
0.8181818181818183
 40
0.8181818181818183
 40
0.8181818181818183
 40
0.8181818181818183
 40
0.9090909090909093
 40
0.9090909090909093
 40
0.9090909090909093
 40
0.9090909090909093
 40
1.0
 40
1.0
 40
1.0
 40
1.0
 10
12.6973
 20
10.143600000000001
 30
0.0
 10
13.161200000000001
 20
10.143600000000001
 30
0.0
 10
13.524600000000001
 20
10.2195
 30
0.0
 10
13.7874
 20
10.374700000000001
 30
0.0
 10
13.7874
 20
10.374700000000001
 30
0.0
 10
14.149000000000001
 20
10.5846
 30
0.0
 10
14.328900000000001
 20
10.896800000000001
 30
0.0
 10
14.328900000000001
 20
11.311300000000001
 30
0.0
 10
14.328900000000001
 20
11.311300000000001
 30
0.0
 10
14.328900000000001
 20
11.6729
 30
0.0
 10
14.166600000000001
 20
12.001000000000001
 30
0.0
 10
13.8385
 20
12.2973
 30
0.0
 10
13.8385
 20
12.2973
 30
0.0
 10
13.3764
 20
12.7242
 30
0.0
 10
12.700800000000001
 20
13.047000000000001
 30
0.0
 10
11.8101
 20
13.2622
 30
0.0
 10
11.8101
 20
13.2622
 30
0.0
 10
10.9193
 20
13.477400000000001
 30
0.0
 10
10.192600000000001
 20
13.585000000000001
 30
0.0
 10
9.6264000000000003
 20
13.585000000000001
 30
0.0
 10
9.6264000000000003
 20
13.585000000000001
 30
0.0
 10
9.0831
 20
13.585000000000001
 30
0.0
 10
8.6898
 20
13.4809
 30
0.0
 10
8.4481000000000002
 20
13.271000000000001
 30
0.0
 10
8.4481000000000002
 20
13.271000000000001
 30
0.0
 10
8.2081999999999997
 20
13.062800000000001
 30
0.0
 10
8.0865000000000009
 20
12.789400000000001
 30
0.0
 10
8.0865000000000009
 20
12.4473
 30
0.0
 10
8.0865000000000009
 20
12.4473
 30
0.0
 10
8.0865000000000009
 20
12.2003
 30
0.0
 10
8.1500000000000004
 20
11.967500000000001
 30
0.0
 10
8.2788000000000004
 20
11.7523
 30
0.0
 10
8.2788000000000004
 20
11.7523
 30
0.0
 10
8.405800000000001
 20
11.537100000000001
 30
0.0
 10
8.6245000000000012
 20
11.3307
 30
0.0
 10
8.9349000000000007
 20
11.1349
 30
0.0
 10
8.9349000000000007
 20
11.1349
 30
0.0
 10
9.3724000000000007
 20
10.856200000000001
 30
0.0
 10
10.0268
 20
10.6128
 30
0.0
 10
10.898200000000001
 20
10.4064
 30
0.0
 10
10.898200000000001
 20
10.4064
 30
0.0
 10
11.6425
 20
10.2301
 30
0.0
 10
12.2422
 20
10.143600000000001
 30
0.0
 10
12.6973
 20
10.143600000000001
 30
0.0
  0
ENDSEC
  0
SECTION
  2
OBJECTS
  0
DICTIONARY
  5
19
100
AcDbDictionary
280
     0
281
     1
  3
ACAD_GROUP
350
1A
  3
ACAD_MLINESTYLE
350
1B
  3
ACAD_LAYOUT
350
1E
  3
ACAD_PLOTSETTINGS
350
22
  3
ACAD_PLOTSTYLENAME
350
1F
  3
ACAD_WIPEOUT_VARS
350
23
  0
DICTIONARY
  5
1A
102
{ACAD_REACTORS
330
19
102
}
100
AcDbDictionary
280
     0
281
     1
  0
DICTIONARY
  5
1B
102
{ACAD_REACTORS
330
19
102
}
100
AcDbDictionary
280
     0
281
     1
  3
Standard
350
1C
  0
MLINESTYLE
  5
1C
102
{ACAD_REACTORS
330
1B
102
}
100
AcDbMlineStyle
  2
Standard
 70
     0
  3

 62
     0
 51
90.0
 52
90.0
 71
     2
 49
0.5
 62
   256
  6
BYLAYER
 49
-0.5
 62
   256
  6
BYLAYER
  0
ACDBDICTIONARYWDFLT
  5
1F
102
{ACAD_REACTORS
330
19
102
}
100
AcDbDictionary
281
     1
  3
Normal
350
1D
100
AcDbDictionaryWithDefault
340
1D
  0
ACDBPLACEHOLDER
  5
1D
102
{ACAD_REACTORS
330
1F
102
}
  0
LAYOUT
  5
20
102
{ACAD_REACTORS
330
1E
102
}
100
AcDbPlotSettings
  1

  2

  4

  6

 40
0.0
 41
0.0
 42
0.0
 43
0.0
 44
0.0
 45
0.0
 46
0.0
 47
0.0
 48
0.0
 49
0.0
140
0.0
141
0.0
142
1.0
143
1.0
 70
  1024
 72
     0
 73
     0
 74
     0
  7

 75
     0
147
1.0
148
0.0
149
0.0
100
AcDbLayout
  1
Model
 70
     0
 71
     0
 10
0.0
 20
0.0
 11
0.0
 21
0.0
 12
0.0
 22
0.0
 32
0.0
 14
0.0
 24
0.0
 34
0.0
 15
0.0
 25
0.0
 35
0.0
146
0.0
 13
0.0
 23
0.0
 33
0.0
 16
0.0
 26
0.0
 36
0.0
 17
0.0
 27
0.0
 37
0.0
 76
     0
330
A
331
0
345
0
346
0
  0
LAYOUT
  5
21
102
{ACAD_REACTORS
330
1E
102
}
100
AcDbPlotSettings
  1

  2

  4

  6

 40
0.0
 41
0.0
 42
0.0
 43
0.0
 44
0.0
 45
0.0
 46
0.0
 47
0.0
 48
0.0
 49
0.0
140
0.0
141
0.0
142
1.0
143
1.0
 70
     0
 72
     0
 73
     0
 74
     0
  7

 75
     0
147
1.0
148
0.0
149
0.0
100
AcDbLayout
  1
Layout1
 70
     0
 71
     0
 10
0.0
 20
0.0
 11
0.0
 21
0.0
 12
0.0
 22
0.0
 32
0.0
 14
0.0
 24
0.0
 34
0.0
 15
0.0
 25
0.0
 35
0.0
146
0.0
 13
0.0
 23
0.0
 33
0.0
 16
0.0
 26
0.0
 36
0.0
 17
0.0
 27
0.0
 37
0.0
 76
     0
330
B
331
0
345
0
346
0
  0
DICTIONARY
  5
1E
102
{ACAD_REACTORS
330
19
102
}
100
AcDbDictionary
280
     0
281
     1
  3
Layout1
350
21
  3
Model
350
20
  0
DICTIONARY
  5
22
102
{ACAD_REACTORS
330
19
102
}
100
AcDbDictionary
280
     0
281
     1
  0
WIPEOUTVARIABLES
  5
23
100
AcDbWipeoutVariables
 70
     1
  0
ENDSEC
  0
EOF
