  0
SECTION
  2
HEADER
  9
$ACADVER
  1
AC1009
  9
$INSBASE
 10
0.0
 20
0.0
 30
0.0
  9
$EXTMIN
 10
0.0
 20
0.0
 30
0.0
  9
$EXTMAX
 10
840.0
 20
594.0
 30
0.0
  9
$LIMMIN
 10
0.0
 20
0.0
  9
$LIMMAX
 10
840.0
 20
594.0
  9
$ORTHOMODE
 70
     0
  9
$REGENMODE
 70
     1
  9
$FILLMODE
 70
     1
  9
$QTEXTMODE
 70
     0
  9
$MIRRTEXT
 70
     1
  9
$DRAGMODE
 70
     2
  9
$LTSCALE
 40
2.0
  9
$OSMODE
 70
     0
  9
$ATTMODE
 70
     1
  9
$TEXTSIZE
 40
0.2
  9
$TRACEWID
 40
0.05
  9
$TEXTSTYLE
  7
STANDARD
  9
$CLAYER
  8
0
  9
$CELTYPE
  6
BYLAYER
  9
$CECOLOR
 62
     7
  9
$DIMSCALE
 40
2.0
  9
$DIMASZ
 40
3.5
  9
$DIMEXO
 40
0.0625
  9
$DIMDLI
 40
0.38
  9
$DIMRND
 40
0.0
  9
$DIMDLE
 40
0.0
  9
$DIMEXE
 40
0.18
  9
$DIMTP
 40
0.0
  9
$DIMTM
 40
0.0
  9
$DIMTXT
 40
3.5
  9
$DIMCEN
 40
0.09
  9
$DIMTSZ
 40
0.0
  9
$DIMTOL
 70
     0
  9
$DIMLIM
 70
     0
  9
$DIMTIH
 70
     1
  9
$DIMTOH
 70
     1
  9
$DIMSE1
 70
     0
  9
$DIMSE2
 70
     0
  9
$DIMTAD
 70
     1
  9
$DIMZIN
 70
     0
  9
$DIMBLK
  1

  9
$DIMASO
 70
     1
  9
$DIMSHO
 70
     1
  9
$DIMPOST
  1

  9
$DIMAPOST
  1

  9
$DIMALT
 70
     0
  9
$DIMALTD
 70
     2
  9
$DIMALTF
 40
25.4
  9
$DIMLFAC
 40
1.0
  9
$DIMTOFL
 70
     0
  9
$DIMTVP
 40
0.0
  9
$DIMTIX
 70
     0
  9
$DIMSOXD
 70
     0
  9
$DIMSAH
 70
     0
  9
$DIMBLK1
  1

  9
$DIMBLK2
  1

  9
$DIMSTYLE
  2
STANDARD
  9
$DIMCLRD
 70
     0
  9
$DIMCLRE
 70
     0
  9
$DIMCLRT
 70
     0
  9
$DIMTFAC
 40
1.0
  9
$DIMGAP
 40
0.09
  9
$LUNITS
 70
     2
  9
$LUPREC
 70
     2
  9
$AXISMODE
 70
     0
  9
$AXISUNIT
 10
0.0
 20
0.0
  9
$SKETCHINC
 40
0.1
  9
$FILLETRAD
 40
0.0
  9
$AUNITS
 70
     0
  9
$AUPREC
 70
     0
  9
$MENU
  1
acad
  9
$ELEVATION
 40
0.0
  9
$PELEVATION
 40
0.0
  9
$THICKNESS
 40
0.0
  9
$LIMCHECK
 70
     0
  9
$BLIPMODE
 70
     1
  9
$CHAMFERA
 40
0.0
  9
$CHAMFERB
 40
0.0
  9
$SKPOLY
 70
     0
  9
$TDCREATE
 40
0.000000000
  9
$TDUPDATE
 40
0.000000000
  9
$TDINDWG
 40
0.0000000000
  9
$TDUSRTIMER
 40
0.0000000000
  9
$USRTIMER
 70
     1
  9
$ANGBASE
 50
0.0
  9
$ANGDIR
 70
     0
  9
$PDMODE
 70
     0
  9
$PDSIZE
 40
0.0
  9
$PLINEWID
 40
0.0
  9
$COORDS
 70
     0
  9
$SPLFRAME
 70
     0
  9
$SPLINETYPE
 70
     6
  9
$SPLINESEGS
 70
     8
  9
$ATTDIA
 70
     0
  9
$ATTREQ
 70
     1
  9
$HANDLING
 70
     1
  9
$HANDSEED
  5
10E
  9
$SURFTAB1
 70
     6
  9
$SURFTAB2
 70
     6
  9
$SURFTYPE
 70
     6
  9
$SURFU
 70
     6
  9
$SURFV
 70
     6
  9
$UCSNAME
  2

  9
$UCSORG
 10
0.0
 20
0.0
 30
0.0
  9
$UCSXDIR
 10
1.0
 20
0.0
 30
0.0
  9
$UCSYDIR
 10
0.0
 20
1.0
 30
0.0
  9
$PUCSNAME
  2

  9
$PUCSORG
 10
0.0
 20
0.0
 30
0.0
  9
$PUCSXDIR
 10
1.0
 20
0.0
 30
0.0
  9
$PUCSYDIR
 10
0.0
 20
1.0
 30
0.0
  9
$USERI1
 70
     0
  9
$USERI2
 70
     0
  9
$USERI3
 70
     0
  9
$USERI4
 70
     0
  9
$USERI5
 70
     0
  9
$USERR1
 40
0.0
  9
$USERR2
 40
0.0
  9
$USERR3
 40
0.0
  9
$USERR4
 40
0.0
  9
$USERR5
 40
0.0
  9
$WORLDVIEW
 70
     1
  9
$SHADEDGE
 70
     3
  9
$SHADEDIF
 70
    70
  9
$TILEMODE
 70
     1
  9
$MAXACTVP
 70
    16
  9
$PINSBASE
 10
0.0
 20
0.0
 30
0.0
  9
$PLIMCHECK
 70
     0
  9
$PEXTMIN
 10
1.000000E+20
 20
1.000000E+20
 30
1.000000E+20
  9
$PEXTMAX
 10
-1.000000E+20
 20
-1.000000E+20
 30
-1.000000E+20
  9
$PLIMMIN
 10
0.0
 20
0.0
  9
$PLIMMAX
 10
840.0
 20
594.0
  9
$UNITMODE
 70
     0
  9
$VISRETAIN
 70
     0
  9
$PLINEGEN
 70
     1
  9
$PSLTSCALE
 70
     0
  9
$TREEDEPTH
 70
  3020
  9
$DWGCODEPAGE
  3
dos850
  0
ENDSEC
  0
SECTION
  2
TABLES
  0
TABLE
  2
VPORT
 70
     1
  0
VPORT
  2
*ACTIVE
 70
     0
 10
0.0
 20
0.0
 11
1.0
 21
1.0
 12
420.0
 22
297.0
 13
0.0
 23
0.0
 14
1.0
 24
1.0
 15
0.0
 25
0.0
 16
0.0
 26
0.0
 36
1.0
 17
0.0
 27
0.0
 37
0.0
 40
594.0
 41
1.604229
 42
50.0
 43
0.0
 44
0.0
 50
0.0
 51
0.0
 71
     0
 72
   100
 73
     1
 74
     1
 75
     0
 76
     0
 77
     0
 78
     0
  0
ENDTAB
  0
TABLE
  2
LTYPE
 70
     2
  0
LTYPE
  2
CONTINUOUS
 70
    64
  3
Solid line
 72
    65
 73
     0
 40
0.0
  0
LTYPE
  2
DASHDOT
 70
    64
  3
__ . __ . __ . __ . __
 72
    65
 73
     4
 40
7.5
 49
5.0
 49
-1.25
 49
0.0
 49
-1.25
  0
ENDTAB
  0
TABLE
  2
LAYER
 70
     6
  0
LAYER
  2
0
 70
     0
 62
     7
  6
CONTINUOUS
  0
LAYER
  2
LC-INFO-1-2-MM-A3-0
 70
     1
 62
    -1
  6
CONTINUOUS
  0
LAYER
  2
LC-003-000-----0
 70
     0
 62
     7
  6
CONTINUOUS
  0
LAYER
  2
LC-001-002-----0
 70
     0
 62
     2
  6
DASHDOT
  0
LAYER
  2
LC-002-002-RND-0
 70
     0
 62
     1
  6
CONTINUOUS
  0
LAYER
  2
LC-000
 70
     0
 62
     7
  6
CONTINUOUS
  0
ENDTAB
  0
TABLE
  2
STYLE
 70
     2
  0
STYLE
  2
STANDARD
 70
     0
 40
0.0
 41
1.0
 50
0.0
 71
     0
 42
0.0
  3
txt
  4

  0
STYLE
  2
LC-STANDARD
 70
    64
 40
0.0
 41
1.0
 50
0.0
 71
     0
 42
3.5
  3
MONOTXT
  4

  0
ENDTAB
  0
TABLE
  2
VIEW
 70
     0
  0
ENDTAB
  0
TABLE
  2
UCS
 70
     0
  0
ENDTAB
  0
TABLE
  2
APPID
 70
     1
  0
APPID
  2
ACAD
 70
     0
  0
ENDTAB
  0
TABLE
  2
DIMSTYLE
 70
     2
  0
DIMSTYLE
  2
STANDARD
 70
     0
  3

  4

  5

  6

  7

 40
1.0
 41
0.18
 42
0.0625
 43
0.38
 44
0.18
 45
0.0
 46
0.0
 47
0.0
 48
0.0
 71
     0
 72
     0
 73
     1
 74
     1
 75
     0
 76
     0
 77
     0
 78
     0
140
0.18
141
0.09
142
0.0
143
25.4
144
1.0
145
0.0
146
1.0
147
0.09
170
     0
171
     2
172
     0
173
     0
174
     0
175
     0
176
     0
177
     0
178
     0
  0
DIMSTYLE
  2
LC-STANDARD
 70
     0
  3

  4

  5

  6

  7

 40
1.0
 41
3.5
 42
0.0
 43
7.5
 44
1.8
 45
0.0
 46
0.0
 47
0.0
 48
0.0
 71
     0
 72
     0
 73
     0
 74
     0
 75
     0
 76
     0
 77
     1
 78
     8
140
3.5
141
0.0
142
0.0
143
25.4
144
1.0
145
0.0
146
0.71
147
1.5
170
     0
171
     2
172
     1
173
     0
174
     0
175
     0
176
     0
177
     0
178
     3
  0
ENDTAB
  0
ENDSEC
  0
SECTION
  2
BLOCKS
  0
BLOCK
  8
0
  5
21
  2
BLK1
 70
    64
 10
0.0
 20
0.0
 30
0.0
  3
BLK1
  0
ENDBLK
  8
0
  5
22
  0
BLOCK
  8
0
  5
24
  2
BLK2
 70
    64
 10
0.0
 20
0.0
 30
0.0
  3
BLK2
  0
ENDBLK
  8
0
  5
25
  0
BLOCK
  8
0
  5
27
  2
BLK3
 70
    64
 10
0.0
 20
0.0
 30
0.0
  3
BLK3
  0
ENDBLK
  8
0
  5
28
  0
BLOCK
  8
0
  5
2A
  2
BLK4
 70
    64
 10
0.0
 20
0.0
 30
0.0
  3
BLK4
  0
ENDBLK
  8
0
  5
2B
  0
BLOCK
  8
0
  5
2D
  2
BLK5
 70
    64
 10
0.0
 20
0.0
 30
0.0
  3
BLK5
  0
ENDBLK
  8
0
  5
2E
  0
ENDSEC
  0
SECTION
  2
ENTITIES
  0
VIEWPORT
  8
LC-000
  5
105
 67
     1
 68
     1
 10
420.0
 20
297.0
 30
0.0
 40
840.0
 41
594.0
 69
     1
1001
ACAD
1000
MVIEW
1002
{
1070
    16
1010
0.0
1020
0.0
1030
0.0
1010
0.0
1020
0.0
1030
1.0
1040
0.0
1040
594.0
1040
420.0
1040
297.0
1040
50.0
1040
0.0
1040
0.0
1070
     0
1070
   100
1070
     1
1070
     1
1070
     0
1070
     0
1070
     0
1070
     0
1040
0.0
1040
0.0
1040
0.0
1040
1.0
1040
1.0
1040
0.0
1040
0.0
1070
     0
1002
{
1002
}
1002
}
  0
VIEWPORT
  8
0
  5
106
 67
     1
 68
     1
 10
0.0
 20
0.0
 30
0.0
 40
0.0
 41
0.0
 69
     1
1001
ACAD
1000
MVIEW
1002
{
1070
    16
1010
0.0
1020
0.0
1030
0.0
1010
0.0
1020
0.0
1030
1.0
1040
0.0
1040
594.0
1040
0.0
1040
0.0
1040
50.0
1040
0.0
1040
0.0
1070
     0
1070
   100
1070
     0
1070
     1
1070
     0
1070
     0
1070
     0
1070
     0
1040
0.0
1040
0.0
1040
0.0
1040
0.5
1040
0.5
1040
0.5
1040
0.5
1070
     0
1002
{
1002
}
1002
}
  0
INSERT
  8
0
  5
30
  2
BLK1
 10
0.0
 20
0.0
 30
0.0
  0
INSERT
  8
0
  5
31
  2
BLK2
 10
0.0
 20
0.0
 30
0.0
  0
INSERT
  8
0
  5
32
  2
BLK3
 10
0.0
 20
0.0
 30
0.0
  0
INSERT
  8
0
  5
33
  2
BLK4
 10
0.0
 20
0.0
 30
0.0
  0
INSERT
  8
0
  5
34
  2
BLK5
 10
0.0
 20
0.0
 30
0.0
  0
LINE
  8
LC-001-002-----0
  5
37
 10
637.13195
 20
445.632
 30
0.0
 11
637.13195
 21
219.632
 31
0.0
  0
LINE
  8
LC-001-002-----0
  5
38
 10
524.13195
 20
332.632
 30
0.0
 11
750.13195
 21
332.632
 31
0.0
  0
LINE
  8
LC-001-002-----0
  6
CONTINUOUS
 62
     1
  5
39
 10
524.13195
 20
445.632
 30
0.0
 11
750.13195
 21
445.632
 31
0.0
  0
LINE
  8
LC-001-002-----0
  6
CONTINUOUS
 62
     1
  5
3A
 10
524.13195
 20
219.632
 30
0.0
 11
750.13195
 21
219.632
 31
0.0
  0
LINE
  8
LC-001-002-----0
  6
CONTINUOUS
 62
     1
  5
3B
 10
750.13195
 20
445.632
 30
0.0
 11
750.13195
 21
219.632
 31
0.0
  0
LINE
  8
LC-001-002-----0
  6
CONTINUOUS
 62
     1
  5
3C
 10
524.13195
 20
445.632
 30
0.0
 11
524.13195
 21
219.632
 31
0.0
  0
LINE
  8
LC-001-002-----0
  6
CONTINUOUS
 62
     1
  5
3D
 10
173.491989
 20
452.632
 30
0.0
 11
413.491989
 21
452.632
 31
0.0
  0
LINE
  8
LC-001-002-----0
  6
CONTINUOUS
 62
     1
  5
3E
 10
737.13195
 20
332.632
 30
0.0
 11
737.13195
 21
332.632
 31
0.0
  0
LINE
  8
LC-001-002-----0
  6
CONTINUOUS
 62
     1
  5
3F
 10
703.13195
 20
332.632
 30
0.0
 11
703.13195
 21
332.632
 31
0.0
  0
LINE
  8
LC-001-002-----0
  6
CONTINUOUS
 62
     1
  5
40
 10
710.63195
 20
340.132
 30
0.0
 11
729.63195
 21
340.132
 31
0.0
  0
LINE
  8
LC-001-002-----0
  6
CONTINUOUS
 62
     1
  5
41
 10
710.63195
 20
325.132
 30
0.0
 11
729.63195
 21
325.132
 31
0.0
  0
ARC
  8
LC-002-002-RND-0
  6
CONTINUOUS
  5
43
 10
710.63195
 20
332.632
 30
0.0
 40
7.5
 50
90.0
 51
180.0
  0
ARC
  8
LC-002-002-RND-0
  6
CONTINUOUS
  5
44
 10
710.63195
 20
332.632
 30
0.0
 40
7.5
 50
180.0
 51
270.0
  0
ARC
  8
LC-002-002-RND-0
  6
CONTINUOUS
  5
45
 10
729.63195
 20
332.632
 30
0.0
 40
7.5
 50
0.0
 51
90.0
  0
ARC
  8
LC-002-002-RND-0
  6
CONTINUOUS
  5
46
 10
729.63195
 20
332.632
 30
0.0
 40
7.5
 50
270.0
 51
0.0
  0
LINE
  8
LC-001-002-----0
  6
CONTINUOUS
 62
     1
  5
47
 10
644.63195
 20
406.132
 30
0.0
 11
644.63195
 21
425.132
 31
0.0
  0
LINE
  8
LC-001-002-----0
  6
CONTINUOUS
 62
     1
  5
48
 10
629.63195
 20
406.132
 30
0.0
 11
629.63195
 21
425.132
 31
0.0
  0
ARC
  8
LC-002-002-RND-0
  6
CONTINUOUS
  5
49
 10
637.13195
 20
406.132
 30
0.0
 40
7.5
 50
180.0
 51
270.0
  0
ARC
  8
LC-002-002-RND-0
  6
CONTINUOUS
  5
4A
 10
637.13195
 20
406.132
 30
0.0
 40
7.5
 50
270.0
 51
0.0
  0
ARC
  8
LC-002-002-RND-0
  6
CONTINUOUS
  5
4B
 10
637.13195
 20
425.132
 30
0.0
 40
7.5
 50
90.0
 51
180.0
  0
ARC
  8
LC-002-002-RND-0
  6
CONTINUOUS
  5
4C
 10
637.13195
 20
425.132
 30
0.0
 40
7.5
 50
0.0
 51
90.0
  0
LINE
  8
LC-001-002-----0
  6
CONTINUOUS
 62
     1
  5
4D
 10
563.63195
 20
325.132
 30
0.0
 11
544.63195
 21
325.132
 31
0.0
  0
LINE
  8
LC-001-002-----0
  6
CONTINUOUS
 62
     1
  5
4E
 10
563.63195
 20
340.132
 30
0.0
 11
544.63195
 21
340.132
 31
0.0
  0
ARC
  8
LC-002-002-RND-0
  6
CONTINUOUS
  5
4F
 10
544.63195
 20
332.632
 30
0.0
 40
7.5
 50
180.0
 51
270.0
  0
ARC
  8
LC-002-002-RND-0
  6
CONTINUOUS
  5
50
 10
544.63195
 20
332.632
 30
0.0
 40
7.5
 50
90.0
 51
180.0
  0
ARC
  8
LC-002-002-RND-0
  6
CONTINUOUS
  5
51
 10
563.63195
 20
332.632
 30
0.0
 40
7.5
 50
270.0
 51
0.0
  0
ARC
  8
LC-002-002-RND-0
  6
CONTINUOUS
  5
52
 10
563.63195
 20
332.632
 30
0.0
 40
7.5
 50
0.0
 51
90.0
  0
LINE
  8
LC-001-002-----0
  6
CONTINUOUS
 62
     1
  5
53
 10
644.63195
 20
259.132
 30
0.0
 11
644.63195
 21
240.132
 31
0.0
  0
LINE
  8
LC-001-002-----0
  6
CONTINUOUS
 62
     1
  5
54
 10
629.63195
 20
259.132
 30
0.0
 11
629.63195
 21
240.132
 31
0.0
  0
ARC
  8
LC-002-002-RND-0
  6
CONTINUOUS
  5
55
 10
637.13195
 20
259.132
 30
0.0
 40
7.5
 50
90.0
 51
180.0
  0
ARC
  8
LC-002-002-RND-0
  6
CONTINUOUS
  5
56
 10
637.13195
 20
259.132
 30
0.0
 40
7.5
 50
0.0
 51
90.0
  0
ARC
  8
LC-002-002-RND-0
  6
CONTINUOUS
  5
57
 10
637.13195
 20
240.132
 30
0.0
 40
7.5
 50
270.0
 51
0.0
  0
ARC
  8
LC-002-002-RND-0
  6
CONTINUOUS
  5
58
 10
637.13195
 20
240.132
 30
0.0
 40
7.5
 50
180.0
 51
270.0
  0
ARC
  8
LC-002-002-RND-0
  6
CONTINUOUS
  5
59
 10
596.826864
 20
317.075651
 30
0.0
 40
7.5
 50
45.0
 51
135.0
  0
LINE
  8
LC-001-002-----0
  6
CONTINUOUS
 62
     1
  5
5A
 10
591.523563
 20
322.378952
 30
0.0
 11
556.168224
 21
287.023613
 31
0.0
  0
LINE
  8
LC-001-002-----0
  6
CONTINUOUS
 62
     1
  5
5B
 10
626.878902
 20
287.023613
 30
0.0
 11
591.523563
 21
251.668274
 31
0.0
  0
LINE
  8
LC-001-002-----0
  6
CONTINUOUS
 62
     1
  5
5C
 10
602.130164
 20
311.77235
 30
0.0
 11
566.774825
 21
276.417011
 31
0.0
  0
LINE
  8
LC-001-002-----0
  6
CONTINUOUS
 62
     1
  5
5D
 10
616.2723
 20
297.630214
 30
0.0
 11
580.916961
 21
262.274875
 31
0.0
  0
ARC
  8
LC-002-002-RND-0
  6
CONTINUOUS
  5
5E
 10
596.826864
 20
317.075651
 30
0.0
 40
7.5
 50
315.0
 51
45.0
  0
LINE
  8
LC-001-002-----0
  6
CONTINUOUS
 62
     1
  5
5F
 10
626.878902
 20
297.630214
 30
0.0
 11
626.878902
 21
297.630214
 31
0.0
  0
LINE
  8
LC-001-002-----0
  6
CONTINUOUS
 62
     1
  5
60
 10
580.916961
 20
251.668274
 30
0.0
 11
580.916961
 21
251.668274
 31
0.0
  0
LINE
  8
LC-001-002-----0
  6
CONTINUOUS
 62
     1
  5
61
 10
556.168224
 20
276.417011
 30
0.0
 11
556.168224
 21
276.417011
 31
0.0
  0
LINE
  8
LC-001-002-----0
  6
CONTINUOUS
 62
     1
  5
62
 10
602.130164
 20
322.378952
 30
0.0
 11
602.130164
 21
322.378952
 31
0.0
  0
ARC
  8
LC-002-002-RND-0
  6
CONTINUOUS
  5
63
 10
561.471524
 20
281.720312
 30
0.0
 40
7.5
 50
135.0
 51
225.0
  0
ARC
  8
LC-002-002-RND-0
  6
CONTINUOUS
  5
64
 10
561.471524
 20
281.720312
 30
0.0
 40
7.5
 50
225.0
 51
315.0
  0
ARC
  8
LC-002-002-RND-0
  6
CONTINUOUS
  5
65
 10
586.220262
 20
256.971574
 30
0.0
 40
7.5
 50
135.0
 51
225.0
  0
ARC
  8
LC-002-002-RND-0
  6
CONTINUOUS
  5
66
 10
586.220262
 20
256.971574
 30
0.0
 40
7.5
 50
225.0
 51
315.0
  0
ARC
  8
LC-002-002-RND-0
  6
CONTINUOUS
  5
67
 10
621.575601
 20
292.326913
 30
0.0
 40
7.5
 50
45.0
 51
135.0
  0
ARC
  8
LC-002-002-RND-0
  6
CONTINUOUS
  5
68
 10
621.575601
 20
292.326913
 30
0.0
 40
7.5
 50
315.0
 51
45.0
  0
LINE
  8
LC-001-002-----0
  6
CONTINUOUS
 62
     1
  5
69
 10
647.384998
 20
287.023613
 30
0.0
 11
682.740337
 21
251.668274
 31
0.0
  0
LINE
  8
LC-001-002-----0
  6
CONTINUOUS
 62
     1
  5
6A
 10
682.740337
 20
322.378952
 30
0.0
 11
718.095677
 21
287.023613
 31
0.0
  0
LINE
  8
LC-001-002-----0
  6
CONTINUOUS
 62
     1
  5
6B
 10
657.9916
 20
297.630214
 30
0.0
 11
693.346939
 21
262.274875
 31
0.0
  0
LINE
  8
LC-001-002-----0
  6
CONTINUOUS
 62
     1
  5
6C
 10
672.133736
 20
311.77235
 30
0.0
 11
707.489075
 21
276.417011
 31
0.0
  0
LINE
  8
LC-001-002-----0
  6
CONTINUOUS
 62
     1
  5
6D
 10
718.095677
 20
276.417011
 30
0.0
 11
718.095677
 21
276.417011
 31
0.0
  0
LINE
  8
LC-001-002-----0
  6
CONTINUOUS
 62
     1
  5
6E
 10
693.346939
 20
251.668274
 30
0.0
 11
693.346939
 21
251.668274
 31
0.0
  0
ARC
  8
LC-002-002-RND-0
  6
CONTINUOUS
  5
6F
 10
688.043638
 20
256.971574
 30
0.0
 40
7.5
 50
225.0
 51
315.0
  0
ARC
  8
LC-002-002-RND-0
  6
CONTINUOUS
  5
70
 10
688.043638
 20
256.971574
 30
0.0
 40
7.5
 50
315.0
 51
45.0
  0
ARC
  8
LC-002-002-RND-0
  6
CONTINUOUS
  5
71
 10
712.792376
 20
281.720312
 30
0.0
 40
7.5
 50
225.0
 51
315.0
  0
ARC
  8
LC-002-002-RND-0
  6
CONTINUOUS
  5
72
 10
712.792376
 20
281.720312
 30
0.0
 40
7.5
 50
315.0
 51
45.0
  0
ARC
  8
LC-002-002-RND-0
  6
CONTINUOUS
  5
73
 10
677.437037
 20
317.075651
 30
0.0
 40
7.5
 50
135.0
 51
225.0
  0
ARC
  8
LC-002-002-RND-0
  6
CONTINUOUS
  5
74
 10
652.688299
 20
292.326913
 30
0.0
 40
7.5
 50
135.0
 51
225.0
  0
ARC
  8
LC-002-002-RND-0
  6
CONTINUOUS
  5
75
 10
652.688299
 20
292.326913
 30
0.0
 40
7.5
 50
45.0
 51
135.0
  0
ARC
  8
LC-002-002-RND-0
  6
CONTINUOUS
  5
76
 10
677.437037
 20
317.075651
 30
0.0
 40
7.5
 50
135.0
 51
225.0
  0
ARC
  8
LC-002-002-RND-0
  6
CONTINUOUS
  5
77
 10
677.437037
 20
317.075651
 30
0.0
 40
7.5
 50
45.0
 51
135.0
  0
ARC
  8
LC-002-002-RND-0
  6
CONTINUOUS
  5
78
 10
652.688299
 20
372.937087
 30
0.0
 40
7.5
 50
135.0
 51
225.0
  0
ARC
  8
LC-002-002-RND-0
  6
CONTINUOUS
  5
79
 10
652.688299
 20
372.937087
 30
0.0
 40
7.5
 50
225.0
 51
315.0
  0
LINE
  8
LC-001-002-----0
  6
CONTINUOUS
 62
     1
  5
7A
 10
657.9916
 20
367.633786
 30
0.0
 11
693.346939
 21
402.989125
 31
0.0
  0
LINE
  8
LC-001-002-----0
  6
CONTINUOUS
 62
     1
  5
7B
 10
647.384998
 20
378.240387
 30
0.0
 11
682.740337
 21
413.595726
 31
0.0
  0
ARC
  8
LC-002-002-RND-0
  6
CONTINUOUS
  5
7C
 10
688.043638
 20
408.292426
 30
0.0
 40
7.5
 50
45.0
 51
135.0
  0
ARC
  8
LC-002-002-RND-0
  6
CONTINUOUS
  5
7D
 10
688.043638
 20
408.292426
 30
0.0
 40
7.5
 50
315.0
 51
45.0
  0
LINE
  8
LC-001-002-----0
  6
CONTINUOUS
 62
     1
  5
7E
 10
672.133736
 20
353.49165
 30
0.0
 11
707.489075
 21
388.846989
 31
0.0
  0
LINE
  8
LC-001-002-----0
  6
CONTINUOUS
 62
     1
  5
7F
 10
682.740337
 20
342.885048
 30
0.0
 11
718.095677
 21
378.240387
 31
0.0
  0
ARC
  8
LC-002-002-RND-0
  6
CONTINUOUS
  5
80
 10
712.792376
 20
383.543688
 30
0.0
 40
7.5
 50
315.0
 51
45.0
  0
ARC
  8
LC-002-002-RND-0
  6
CONTINUOUS
  5
81
 10
712.792376
 20
383.543688
 30
0.0
 40
7.5
 50
45.0
 51
135.0
  0
ARC
  8
LC-002-002-RND-0
  6
CONTINUOUS
  5
82
 10
677.437037
 20
348.188349
 30
0.0
 40
7.5
 50
135.0
 51
225.0
  0
ARC
  8
LC-002-002-RND-0
  6
CONTINUOUS
  5
83
 10
677.437037
 20
348.188349
 30
0.0
 40
7.5
 50
225.0
 51
315.0
  0
LINE
  8
LC-001-002-----0
  6
CONTINUOUS
 62
     1
  5
84
 10
591.523563
 20
342.885048
 30
0.0
 11
556.168224
 21
378.240387
 31
0.0
  0
LINE
  8
LC-001-002-----0
  6
CONTINUOUS
 62
     1
  5
85
 10
602.130164
 20
353.49165
 30
0.0
 11
566.774825
 21
388.846989
 31
0.0
  0
LINE
  8
LC-001-002-----0
  6
CONTINUOUS
 62
     1
  5
86
 10
616.2723
 20
367.633786
 30
0.0
 11
580.916961
 21
402.989125
 31
0.0
  0
LINE
  8
LC-001-002-----0
  6
CONTINUOUS
 62
     1
  5
87
 10
616.2723
 20
367.633786
 30
0.0
 11
580.916961
 21
402.989125
 31
0.0
  0
LINE
  8
LC-001-002-----0
  6
CONTINUOUS
 62
     1
  5
88
 10
626.878902
 20
378.240387
 30
0.0
 11
591.523563
 21
413.595726
 31
0.0
  0
ARC
  8
LC-002-002-RND-0
  6
CONTINUOUS
  5
89
 10
596.826864
 20
348.188349
 30
0.0
 40
7.5
 50
225.0
 51
315.0
  0
ARC
  8
LC-002-002-RND-0
  6
CONTINUOUS
  5
8A
 10
596.826864
 20
348.188349
 30
0.0
 40
7.5
 50
315.0
 51
45.0
  0
ARC
  8
LC-002-002-RND-0
  6
CONTINUOUS
  5
8B
 10
621.575601
 20
372.937087
 30
0.0
 40
7.5
 50
225.0
 51
315.0
  0
ARC
  8
LC-002-002-RND-0
  6
CONTINUOUS
  5
8C
 10
621.575601
 20
372.937087
 30
0.0
 40
7.5
 50
315.0
 51
45.0
  0
ARC
  8
LC-002-002-RND-0
  6
CONTINUOUS
  5
8D
 10
586.220262
 20
408.292426
 30
0.0
 40
7.5
 50
135.0
 51
225.0
  0
ARC
  8
LC-002-002-RND-0
  6
CONTINUOUS
  5
8E
 10
586.220262
 20
408.292426
 30
0.0
 40
7.5
 50
45.0
 51
135.0
  0
ARC
  8
LC-002-002-RND-0
  6
CONTINUOUS
  5
8F
 10
561.471524
 20
383.543688
 30
0.0
 40
7.5
 50
135.0
 51
225.0
  0
ARC
  8
LC-002-002-RND-0
  6
CONTINUOUS
  5
90
 10
561.471524
 20
383.543688
 30
0.0
 40
7.5
 50
45.0
 51
135.0
  0
LINE
  8
LC-001-002-----0
  6
CONTINUOUS
 62
     1
  5
91
 10
523.13195
 20
218.632
 30
0.0
 11
523.13195
 21
446.632
 31
0.0
  0
LINE
  8
LC-001-002-----0
  6
CONTINUOUS
 62
     1
  5
92
 10
523.13195
 20
446.632
 30
0.0
 11
751.13195
 21
446.632
 31
0.0
  0
LINE
  8
LC-001-002-----0
  6
CONTINUOUS
 62
     1
  5
93
 10
751.13195
 20
446.632
 30
0.0
 11
751.13195
 21
218.632
 31
0.0
  0
LINE
  8
LC-001-002-----0
  6
CONTINUOUS
 62
     1
  5
94
 10
751.13195
 20
218.632
 30
0.0
 11
523.13195
 21
218.632
 31
0.0
  0
LINE
  8
LC-001-002-----0
  6
CONTINUOUS
 62
     1
  5
95
 10
514.13195
 20
209.632
 30
0.0
 11
514.13195
 21
455.632
 31
0.0
  0
LINE
  8
LC-001-002-----0
  6
CONTINUOUS
 62
     1
  5
96
 10
514.13195
 20
455.632
 30
0.0
 11
760.13195
 21
455.632
 31
0.0
  0
LINE
  8
LC-001-002-----0
  6
CONTINUOUS
 62
     1
  5
97
 10
760.13195
 20
455.632
 30
0.0
 11
760.13195
 21
209.632
 31
0.0
  0
LINE
  8
LC-001-002-----0
  6
CONTINUOUS
 62
     1
  5
98
 10
760.13195
 20
209.632
 30
0.0
 11
514.13195
 21
209.632
 31
0.0
  0
LINE
  8
LC-001-002-----0
  6
CONTINUOUS
 62
     1
  5
99
 10
764.63195
 20
460.132
 30
0.0
 11
764.63195
 21
205.132
 31
0.0
  0
LINE
  8
LC-001-002-----0
  6
CONTINUOUS
 62
     1
  5
9A
 10
764.63195
 20
205.132
 30
0.0
 11
509.63195
 21
205.132
 31
0.0
  0
LINE
  8
LC-001-002-----0
  6
CONTINUOUS
 62
     1
  5
9B
 10
509.63195
 20
205.132
 30
0.0
 11
509.63195
 21
460.132
 31
0.0
  0
LINE
  8
LC-001-002-----0
  6
CONTINUOUS
 62
     1
  5
9C
 10
509.63195
 20
460.132
 30
0.0
 11
764.63195
 21
460.132
 31
0.0
  0
LINE
  8
LC-001-002-----0
  6
CONTINUOUS
 62
     1
  5
9D
 10
766.63195
 20
462.132
 30
0.0
 11
766.63195
 21
203.132
 31
0.0
  0
LINE
  8
LC-001-002-----0
  6
CONTINUOUS
 62
     1
  5
9E
 10
766.63195
 20
203.132
 30
0.0
 11
507.63195
 21
203.132
 31
0.0
  0
LINE
  8
LC-001-002-----0
  6
CONTINUOUS
 62
     1
  5
9F
 10
507.63195
 20
203.132
 30
0.0
 11
507.63195
 21
462.132
 31
0.0
  0
LINE
  8
LC-001-002-----0
  6
CONTINUOUS
 62
     1
  5
A0
 10
507.63195
 20
462.132
 30
0.0
 11
766.63195
 21
462.132
 31
0.0
  0
ARC
  8
LC-001-002-----0
  6
CONTINUOUS
 62
     1
  5
A1
 10
637.13195
 20
332.632
 30
0.0
 40
158.0
 50
55.046798
 51
124.953202
  0
ARC
  8
LC-001-002-----0
  6
CONTINUOUS
 62
     1
  5
A2
 10
637.13195
 20
332.632
 30
0.0
 40
158.0
 50
145.046798
 51
216.199834
  0
ARC
  8
LC-001-002-----0
  6
CONTINUOUS
 62
     1
  5
A3
 10
637.13195
 20
332.632
 30
0.0
 40
158.0
 50
235.046798
 51
304.953202
  0
ARC
  8
LC-001-002-----0
  6
CONTINUOUS
 62
     1
  5
A4
 10
637.13195
 20
332.632
 30
0.0
 40
158.0
 50
325.046798
 51
34.953202
  0
LINE
  8
LC-001-002-----0
  5
A5
 10
293.491989
 20
445.632
 30
0.0
 11
293.491989
 21
219.632
 31
0.0
  0
LINE
  8
LC-001-002-----0
  5
A6
 10
180.491989
 20
332.632
 30
0.0
 11
406.491989
 21
332.632
 31
0.0
  0
LINE
  8
LC-001-002-----0
  6
CONTINUOUS
 62
     1
  5
A7
 10
180.491989
 20
445.632
 30
0.0
 11
406.491989
 21
445.632
 31
0.0
  0
LINE
  8
LC-001-002-----0
  6
CONTINUOUS
 62
     1
  5
A8
 10
180.491989
 20
219.632
 30
0.0
 11
406.491989
 21
219.632
 31
0.0
  0
LINE
  8
LC-001-002-----0
  6
CONTINUOUS
 62
     1
  5
A9
 10
406.491989
 20
445.632
 30
0.0
 11
406.491989
 21
219.632
 31
0.0
  0
LINE
  8
LC-001-002-----0
  6
CONTINUOUS
 62
     1
  5
AA
 10
180.491989
 20
445.632
 30
0.0
 11
180.491989
 21
219.632
 31
0.0
  0
LINE
  8
LC-001-002-----0
  6
CONTINUOUS
 62
     1
  5
AB
 10
393.491989
 20
332.632
 30
0.0
 11
393.491989
 21
332.632
 31
0.0
  0
LINE
  8
LC-001-002-----0
  6
CONTINUOUS
 62
     1
  5
AC
 10
359.491989
 20
332.632
 30
0.0
 11
359.491989
 21
332.632
 31
0.0
  0
LINE
  8
LC-001-002-----0
  6
CONTINUOUS
 62
     1
  5
AD
 10
366.991989
 20
340.132
 30
0.0
 11
385.991989
 21
340.132
 31
0.0
  0
LINE
  8
LC-001-002-----0
  6
CONTINUOUS
 62
     1
  5
AE
 10
366.991989
 20
325.132
 30
0.0
 11
385.991989
 21
325.132
 31
0.0
  0
ARC
  8
LC-002-002-RND-0
  6
CONTINUOUS
  5
AF
 10
366.991989
 20
332.632
 30
0.0
 40
7.5
 50
90.0
 51
180.0
  0
ARC
  8
LC-002-002-RND-0
  6
CONTINUOUS
  5
B0
 10
366.991989
 20
332.632
 30
0.0
 40
7.5
 50
180.0
 51
270.0
  0
ARC
  8
LC-002-002-RND-0
  6
CONTINUOUS
  5
B1
 10
385.991989
 20
332.632
 30
0.0
 40
7.5
 50
0.0
 51
90.0
  0
ARC
  8
LC-002-002-RND-0
  6
CONTINUOUS
  5
B2
 10
385.991989
 20
332.632
 30
0.0
 40
7.5
 50
270.0
 51
0.0
  0
LINE
  8
LC-001-002-----0
  6
CONTINUOUS
 62
     1
  5
B3
 10
300.991989
 20
406.132
 30
0.0
 11
300.991989
 21
425.132
 31
0.0
  0
LINE
  8
LC-001-002-----0
  6
CONTINUOUS
 62
     1
  5
B4
 10
285.991989
 20
406.132
 30
0.0
 11
285.991989
 21
425.132
 31
0.0
  0
ARC
  8
LC-002-002-RND-0
  6
CONTINUOUS
  5
B5
 10
293.491989
 20
406.132
 30
0.0
 40
7.5
 50
180.0
 51
270.0
  0
ARC
  8
LC-002-002-RND-0
  6
CONTINUOUS
  5
B6
 10
293.491989
 20
406.132
 30
0.0
 40
7.5
 50
270.0
 51
0.0
  0
ARC
  8
LC-002-002-RND-0
  6
CONTINUOUS
  5
B7
 10
293.491989
 20
425.132
 30
0.0
 40
7.5
 50
90.0
 51
180.0
  0
ARC
  8
LC-002-002-RND-0
  6
CONTINUOUS
  5
B8
 10
293.491989
 20
425.132
 30
0.0
 40
7.5
 50
0.0
 51
90.0
  0
LINE
  8
LC-001-002-----0
  6
CONTINUOUS
 62
     1
  5
B9
 10
219.991989
 20
325.132
 30
0.0
 11
200.991989
 21
325.132
 31
0.0
  0
LINE
  8
LC-001-002-----0
  6
CONTINUOUS
 62
     1
  5
BA
 10
219.991989
 20
340.132
 30
0.0
 11
200.991989
 21
340.132
 31
0.0
  0
ARC
  8
LC-002-002-RND-0
  6
CONTINUOUS
  5
BB
 10
200.991989
 20
332.632
 30
0.0
 40
7.5
 50
180.0
 51
270.0
  0
ARC
  8
LC-002-002-RND-0
  6
CONTINUOUS
  5
BC
 10
200.991989
 20
332.632
 30
0.0
 40
7.5
 50
90.0
 51
180.0
  0
ARC
  8
LC-002-002-RND-0
  6
CONTINUOUS
  5
BD
 10
219.991989
 20
332.632
 30
0.0
 40
7.5
 50
270.0
 51
0.0
  0
ARC
  8
LC-002-002-RND-0
  6
CONTINUOUS
  5
BE
 10
219.991989
 20
332.632
 30
0.0
 40
7.5
 50
0.0
 51
90.0
  0
LINE
  8
LC-001-002-----0
  6
CONTINUOUS
 62
     1
  5
BF
 10
300.991989
 20
259.132
 30
0.0
 11
300.991989
 21
240.132
 31
0.0
  0
LINE
  8
LC-001-002-----0
  6
CONTINUOUS
 62
     1
  5
C0
 10
285.991989
 20
259.132
 30
0.0
 11
285.991989
 21
240.132
 31
0.0
  0
ARC
  8
LC-002-002-RND-0
  6
CONTINUOUS
  5
C1
 10
293.491989
 20
259.132
 30
0.0
 40
7.5
 50
90.0
 51
180.0
  0
ARC
  8
LC-002-002-RND-0
  6
CONTINUOUS
  5
C2
 10
293.491989
 20
259.132
 30
0.0
 40
7.5
 50
0.0
 51
90.0
  0
ARC
  8
LC-002-002-RND-0
  6
CONTINUOUS
  5
C3
 10
293.491989
 20
240.132
 30
0.0
 40
7.5
 50
270.0
 51
0.0
  0
ARC
  8
LC-002-002-RND-0
  6
CONTINUOUS
  5
C4
 10
293.491989
 20
240.132
 30
0.0
 40
7.5
 50
180.0
 51
270.0
  0
ARC
  8
LC-002-002-RND-0
  6
CONTINUOUS
  5
C5
 10
253.186903
 20
317.075651
 30
0.0
 40
7.5
 50
45.0
 51
135.0
  0
LINE
  8
LC-001-002-----0
  6
CONTINUOUS
 62
     1
  5
C6
 10
247.883602
 20
322.378952
 30
0.0
 11
212.528263
 21
287.023613
 31
0.0
  0
LINE
  8
LC-001-002-----0
  6
CONTINUOUS
 62
     1
  5
C7
 10
283.238941
 20
287.023613
 30
0.0
 11
247.883602
 21
251.668274
 31
0.0
  0
LINE
  8
LC-001-002-----0
  6
CONTINUOUS
 62
     1
  5
C8
 10
258.490203
 20
311.77235
 30
0.0
 11
223.134864
 21
276.417011
 31
0.0
  0
LINE
  8
LC-001-002-----0
  6
CONTINUOUS
 62
     1
  5
C9
 10
272.632339
 20
297.630214
 30
0.0
 11
237.277
 21
262.274875
 31
0.0
  0
ARC
  8
LC-002-002-RND-0
  6
CONTINUOUS
  5
CA
 10
253.186903
 20
317.075651
 30
0.0
 40
7.5
 50
315.0
 51
45.0
  0
LINE
  8
LC-001-002-----0
  6
CONTINUOUS
 62
     1
  5
CB
 10
283.238941
 20
297.630214
 30
0.0
 11
283.238941
 21
297.630214
 31
0.0
  0
LINE
  8
LC-001-002-----0
  6
CONTINUOUS
 62
     1
  5
CC
 10
237.277
 20
251.668274
 30
0.0
 11
237.277
 21
251.668274
 31
0.0
  0
LINE
  8
LC-001-002-----0
  6
CONTINUOUS
 62
     1
  5
CD
 10
212.528263
 20
276.417011
 30
0.0
 11
212.528263
 21
276.417011
 31
0.0
  0
LINE
  8
LC-001-002-----0
  6
CONTINUOUS
 62
     1
  5
CE
 10
258.490203
 20
322.378952
 30
0.0
 11
258.490203
 21
322.378952
 31
0.0
  0
ARC
  8
LC-002-002-RND-0
  6
CONTINUOUS
  5
CF
 10
217.831563
 20
281.720312
 30
0.0
 40
7.5
 50
135.0
 51
225.0
  0
ARC
  8
LC-002-002-RND-0
  6
CONTINUOUS
  5
D0
 10
217.831563
 20
281.720312
 30
0.0
 40
7.5
 50
225.0
 51
315.0
  0
ARC
  8
LC-002-002-RND-0
  6
CONTINUOUS
  5
D1
 10
242.580301
 20
256.971574
 30
0.0
 40
7.5
 50
135.0
 51
225.0
  0
ARC
  8
LC-002-002-RND-0
  6
CONTINUOUS
  5
D2
 10
242.580301
 20
256.971574
 30
0.0
 40
7.5
 50
225.0
 51
315.0
  0
ARC
  8
LC-002-002-RND-0
  6
CONTINUOUS
  5
D3
 10
277.93564
 20
292.326913
 30
0.0
 40
7.5
 50
45.0
 51
135.0
  0
ARC
  8
LC-002-002-RND-0
  6
CONTINUOUS
  5
D4
 10
277.93564
 20
292.326913
 30
0.0
 40
7.5
 50
315.0
 51
45.0
  0
LINE
  8
LC-001-002-----0
  6
CONTINUOUS
 62
     1
  5
D5
 10
303.745037
 20
287.023613
 30
0.0
 11
339.100376
 21
251.668274
 31
0.0
  0
LINE
  8
LC-001-002-----0
  6
CONTINUOUS
 62
     1
  5
D6
 10
339.100376
 20
322.378952
 30
0.0
 11
374.455715
 21
287.023613
 31
0.0
  0
LINE
  8
LC-001-002-----0
  6
CONTINUOUS
 62
     1
  5
D7
 10
314.351639
 20
297.630214
 30
0.0
 11
349.706978
 21
262.274875
 31
0.0
  0
LINE
  8
LC-001-002-----0
  6
CONTINUOUS
 62
     1
  5
D8
 10
328.493775
 20
311.77235
 30
0.0
 11
363.849114
 21
276.417011
 31
0.0
  0
LINE
  8
LC-001-002-----0
  6
CONTINUOUS
 62
     1
  5
D9
 10
374.455715
 20
276.417011
 30
0.0
 11
374.455715
 21
276.417011
 31
0.0
  0
LINE
  8
LC-001-002-----0
  6
CONTINUOUS
 62
     1
  5
DA
 10
349.706978
 20
251.668274
 30
0.0
 11
349.706978
 21
251.668274
 31
0.0
  0
ARC
  8
LC-002-002-RND-0
  6
CONTINUOUS
  5
DB
 10
344.403677
 20
256.971574
 30
0.0
 40
7.5
 50
225.0
 51
315.0
  0
ARC
  8
LC-002-002-RND-0
  6
CONTINUOUS
  5
DC
 10
344.403677
 20
256.971574
 30
0.0
 40
7.5
 50
315.0
 51
45.0
  0
ARC
  8
LC-002-002-RND-0
  6
CONTINUOUS
  5
DD
 10
369.152415
 20
281.720312
 30
0.0
 40
7.5
 50
225.0
 51
315.0
  0
ARC
  8
LC-002-002-RND-0
  6
CONTINUOUS
  5
DE
 10
369.152415
 20
281.720312
 30
0.0
 40
7.5
 50
315.0
 51
45.0
  0
ARC
  8
LC-002-002-RND-0
  6
CONTINUOUS
  5
DF
 10
333.797076
 20
317.075651
 30
0.0
 40
7.5
 50
135.0
 51
225.0
  0
ARC
  8
LC-002-002-RND-0
  6
CONTINUOUS
  5
E0
 10
309.048338
 20
292.326913
 30
0.0
 40
7.5
 50
135.0
 51
225.0
  0
ARC
  8
LC-002-002-RND-0
  6
CONTINUOUS
  5
E1
 10
309.048338
 20
292.326913
 30
0.0
 40
7.5
 50
45.0
 51
135.0
  0
ARC
  8
LC-002-002-RND-0
  6
CONTINUOUS
  5
E2
 10
333.797076
 20
317.075651
 30
0.0
 40
7.5
 50
135.0
 51
225.0
  0
ARC
  8
LC-002-002-RND-0
  6
CONTINUOUS
  5
E3
 10
333.797076
 20
317.075651
 30
0.0
 40
7.5
 50
45.0
 51
135.0
  0
ARC
  8
LC-002-002-RND-0
  6
CONTINUOUS
  5
E4
 10
309.048338
 20
372.937087
 30
0.0
 40
7.5
 50
135.0
 51
225.0
  0
ARC
  8
LC-002-002-RND-0
  6
CONTINUOUS
  5
E5
 10
309.048338
 20
372.937087
 30
0.0
 40
7.5
 50
225.0
 51
315.0
  0
LINE
  8
LC-001-002-----0
  6
CONTINUOUS
 62
     1
  5
E6
 10
314.351639
 20
367.633786
 30
0.0
 11
349.706978
 21
402.989125
 31
0.0
  0
LINE
  8
LC-001-002-----0
  6
CONTINUOUS
 62
     1
  5
E7
 10
303.745037
 20
378.240387
 30
0.0
 11
339.100376
 21
413.595726
 31
0.0
  0
ARC
  8
LC-002-002-RND-0
  6
CONTINUOUS
  5
E8
 10
344.403677
 20
408.292426
 30
0.0
 40
7.5
 50
45.0
 51
135.0
  0
ARC
  8
LC-002-002-RND-0
  6
CONTINUOUS
  5
E9
 10
344.403677
 20
408.292426
 30
0.0
 40
7.5
 50
315.0
 51
45.0
  0
LINE
  8
LC-001-002-----0
  6
CONTINUOUS
 62
     1
  5
EA
 10
328.493775
 20
353.49165
 30
0.0
 11
363.849114
 21
388.846989
 31
0.0
  0
LINE
  8
LC-001-002-----0
  6
CONTINUOUS
 62
     1
  5
EB
 10
339.100376
 20
342.885048
 30
0.0
 11
374.455715
 21
378.240387
 31
0.0
  0
ARC
  8
LC-002-002-RND-0
  6
CONTINUOUS
  5
EC
 10
369.152415
 20
383.543688
 30
0.0
 40
7.5
 50
315.0
 51
45.0
  0
ARC
  8
LC-002-002-RND-0
  6
CONTINUOUS
  5
ED
 10
369.152415
 20
383.543688
 30
0.0
 40
7.5
 50
45.0
 51
135.0
  0
ARC
  8
LC-002-002-RND-0
  6
CONTINUOUS
  5
EE
 10
333.797076
 20
348.188349
 30
0.0
 40
7.5
 50
135.0
 51
225.0
  0
ARC
  8
LC-002-002-RND-0
  6
CONTINUOUS
  5
EF
 10
333.797076
 20
348.188349
 30
0.0
 40
7.5
 50
225.0
 51
315.0
  0
LINE
  8
LC-001-002-----0
  6
CONTINUOUS
 62
     1
  5
F0
 10
247.883602
 20
342.885048
 30
0.0
 11
212.528263
 21
378.240387
 31
0.0
  0
LINE
  8
LC-001-002-----0
  6
CONTINUOUS
 62
     1
  5
F1
 10
258.490203
 20
353.49165
 30
0.0
 11
223.134864
 21
388.846989
 31
0.0
  0
LINE
  8
LC-001-002-----0
  6
CONTINUOUS
 62
     1
  5
F2
 10
272.632339
 20
367.633786
 30
0.0
 11
237.277
 21
402.989125
 31
0.0
  0
LINE
  8
LC-001-002-----0
  6
CONTINUOUS
 62
     1
  5
F3
 10
272.632339
 20
367.633786
 30
0.0
 11
237.277
 21
402.989125
 31
0.0
  0
LINE
  8
LC-001-002-----0
  6
CONTINUOUS
 62
     1
  5
F4
 10
283.238941
 20
378.240387
 30
0.0
 11
247.883602
 21
413.595726
 31
0.0
  0
ARC
  8
LC-002-002-RND-0
  6
CONTINUOUS
  5
F5
 10
253.186903
 20
348.188349
 30
0.0
 40
7.5
 50
225.0
 51
315.0
  0
ARC
  8
LC-002-002-RND-0
  6
CONTINUOUS
  5
F6
 10
253.186903
 20
348.188349
 30
0.0
 40
7.5
 50
315.0
 51
45.0
  0
ARC
  8
LC-002-002-RND-0
  6
CONTINUOUS
  5
F7
 10
277.93564
 20
372.937087
 30
0.0
 40
7.5
 50
225.0
 51
315.0
  0
ARC
  8
LC-002-002-RND-0
  6
CONTINUOUS
  5
F8
 10
277.93564
 20
372.937087
 30
0.0
 40
7.5
 50
315.0
 51
45.0
  0
ARC
  8
LC-002-002-RND-0
  6
CONTINUOUS
  5
F9
 10
242.580301
 20
408.292426
 30
0.0
 40
7.5
 50
135.0
 51
225.0
  0
ARC
  8
LC-002-002-RND-0
  6
CONTINUOUS
  5
FA
 10
242.580301
 20
408.292426
 30
0.0
 40
7.5
 50
45.0
 51
135.0
  0
ARC
  8
LC-002-002-RND-0
  6
CONTINUOUS
  5
FB
 10
217.831563
 20
383.543688
 30
0.0
 40
7.5
 50
135.0
 51
225.0
  0
ARC
  8
LC-002-002-RND-0
  6
CONTINUOUS
  5
FC
 10
217.831563
 20
383.543688
 30
0.0
 40
7.5
 50
45.0
 51
135.0
  0
LINE
  8
LC-001-002-----0
  6
CONTINUOUS
 62
     1
  5
FD
 10
179.491989
 20
218.632
 30
0.0
 11
179.491989
 21
446.632
 31
0.0
  0
LINE
  8
LC-001-002-----0
  6
CONTINUOUS
 62
     1
  5
FE
 10
179.491989
 20
446.632
 30
0.0
 11
407.491989
 21
446.632
 31
0.0
  0
LINE
  8
LC-001-002-----0
  6
CONTINUOUS
 62
     1
  5
FF
 10
407.491989
 20
446.632
 30
0.0
 11
407.491989
 21
218.632
 31
0.0
  0
LINE
  8
LC-001-002-----0
  6
CONTINUOUS
 62
     1
  5
100
 10
407.491989
 20
218.632
 30
0.0
 11
179.491989
 21
218.632
 31
0.0
  0
LINE
  8
LC-001-002-----0
  6
CONTINUOUS
 62
     1
  5
101
 10
173.491989
 20
212.632
 30
0.0
 11
413.491989
 21
212.632
 31
0.0
  0
LINE
  8
LC-001-002-----0
  6
CONTINUOUS
 62
     1
  5
102
 10
413.491989
 20
452.632
 30
0.0
 11
413.491989
 21
212.632
 31
0.0
  0
LINE
  8
LC-001-002-----0
  6
CONTINUOUS
 62
     1
  5
103
 10
173.491989
 20
452.632
 30
0.0
 11
173.491989
 21
212.632
 31
0.0
  0
ENDSEC
  0
EOF
