  0
SECTION
  2
HEADER
  9
$ACADVER
  1
AC1018
  9
$ACADMAINTVER
 70
     0
  9
$DWGCODEPAGE
  3
ANSI_1252
  9
$INSBASE
 10
0.0
 20
0.0
 30
0.0
  9
$EXTMIN
 10
-68.9765
 20
-1.4802
 30
0.0
  9
$EXTMAX
 10
137.1451
 20
49.665
 30
0.0
  9
$LIMMIN
 10
0.0
 20
0.0
  9
$LIMMAX
 10
12.0
 20
9.0
  9
$ORTHOMODE
 70
     0
  9
$REGENMODE
 70
     1
  9
$FILLMODE
 70
     1
  9
$QTEXTMODE
 70
     0
  9
$MIRRTEXT
 70
     1
  9
$LTSCALE
 40
1.0
  9
$ATTMODE
 70
     1
  9
$TEXTSIZE
 40
0.2
  9
$TRACEWID
 40
0.05
  9
$TEXTSTYLE
  7
Standard
  9
$CLAYER
  8
0
  9
$CELTYPE
  6
ByLayer
  9
$CECOLOR
 62
   256
  9
$CELTSCALE
 40
1.0
  9
$DISPSILH
 70
     0
  9
$DIMSCALE
 40
1.0
  9
$DIMASZ
 40
0.18
  9
$DIMEXO
 40
0.0625
  9
$DIMDLI
 40
0.38
  9
$DIMRND
 40
0.0
  9
$DIMDLE
 40
0.0
  9
$DIMEXE
 40
0.18
  9
$DIMTP
 40
0.0
  9
$DIMTM
 40
0.0
  9
$DIMTXT
 40
0.18
  9
$DIMCEN
 40
0.09
  9
$DIMTSZ
 40
0.0
  9
$DIMTOL
 70
     0
  9
$DIMLIM
 70
     0
  9
$DIMTIH
 70
     1
  9
$DIMTOH
 70
     1
  9
$DIMSE1
 70
     0
  9
$DIMSE2
 70
     0
  9
$DIMTAD
 70
     0
  9
$DIMZIN
 70
     0
  9
$DIMBLK
  1

  9
$DIMASO
 70
     1
  9
$DIMSHO
 70
     1
  9
$DIMPOST
  1

  9
$DIMAPOST
  1

  9
$DIMALT
 70
     0
  9
$DIMALTD
 70
     2
  9
$DIMALTF
 40
25.4
  9
$DIMLFAC
 40
1.0
  9
$DIMTOFL
 70
     0
  9
$DIMTVP
 40
0.0
  9
$DIMTIX
 70
     0
  9
$DIMSOXD
 70
     0
  9
$DIMSAH
 70
     0
  9
$DIMBLK1
  1

  9
$DIMBLK2
  1

  9
$DIMSTYLE
  2
Standard
  9
$DIMCLRD
 70
     0
  9
$DIMCLRE
 70
     0
  9
$DIMCLRT
 70
     0
  9
$DIMTFAC
 40
1.0
  9
$DIMGAP
 40
0.09
  9
$DIMJUST
 70
     0
  9
$DIMSD1
 70
     0
  9
$DIMSD2
 70
     0
  9
$DIMTOLJ
 70
     1
  9
$DIMTZIN
 70
     0
  9
$DIMALTZ
 70
     0
  9
$DIMALTTZ
 70
     0
  9
$DIMUPT
 70
     0
  9
$DIMDEC
 70
     4
  9
$DIMTDEC
 70
     4
  9
$DIMALTU
 70
     2
  9
$DIMALTTD
 70
     2
  9
$DIMTXSTY
  7
Standard
  9
$DIMAUNIT
 70
     0
  9
$DIMADEC
 70
     0
  9
$DIMALTRND
 40
0.0
  9
$DIMAZIN
 70
     0
  9
$DIMDSEP
 70
    46
  9
$DIMATFIT
 70
     3
  9
$DIMFRAC
 70
     0
  9
$DIMLDRBLK
  1

  9
$DIMLUNIT
 70
     2
  9
$DIMLWD
 70
    -2
  9
$DIMLWE
 70
    -2
  9
$DIMTMOVE
 70
     0
  9
$LUNITS
 70
     2
  9
$LUPREC
 70
     4
  9
$SKETCHINC
 40
0.1
  9
$FILLETRAD
 40
0.5
  9
$AUNITS
 70
     0
  9
$AUPREC
 70
     0
  9
$MENU
  1
.
  9
$ELEVATION
 40
0.0
  9
$PELEVATION
 40
0.0
  9
$THICKNESS
 40
0.0
  9
$LIMCHECK
 70
     0
  9
$CHAMFERA
 40
0.5
  9
$CHAMFERB
 40
0.5
  9
$CHAMFERC
 40
1.0
  9
$CHAMFERD
 40
0.0
  9
$SKPOLY
 70
     0
  9
$TDCREATE
 40
2454775.286128044
  9
$TDUCREATE
 40
2454775.244461377
  9
$TDUPDATE
 40
2454775.286128056
  9
$TDUUPDATE
 40
2454775.244461389
  9
$TDINDWG
 40
0.0000000116
  9
$TDUSRTIMER
 40
0.0000000116
  9
$USRTIMER
 70
     1
  9
$ANGBASE
 50
0.0
  9
$ANGDIR
 70
     0
  9
$PDMODE
 70
     0
  9
$PDSIZE
 40
0.0
  9
$PLINEWID
 40
0.0
  9
$SPLFRAME
 70
     0
  9
$SPLINETYPE
 70
     6
  9
$SPLINESEGS
 70
     8
  9
$HANDSEED
  5
75
  9
$SURFTAB1
 70
     6
  9
$SURFTAB2
 70
     6
  9
$SURFTYPE
 70
     6
  9
$SURFU
 70
     6
  9
$SURFV
 70
     6
  9
$UCSBASE
  2

  9
$UCSNAME
  2

  9
$UCSORG
 10
0.0
 20
0.0
 30
0.0
  9
$UCSXDIR
 10
1.0
 20
0.0
 30
0.0
  9
$UCSYDIR
 10
0.0
 20
1.0
 30
0.0
  9
$UCSORTHOREF
  2

  9
$UCSORTHOVIEW
 70
     0
  9
$UCSORGTOP
 10
0.0
 20
0.0
 30
0.0
  9
$UCSORGBOTTOM
 10
0.0
 20
0.0
 30
0.0
  9
$UCSORGLEFT
 10
0.0
 20
0.0
 30
0.0
  9
$UCSORGRIGHT
 10
0.0
 20
0.0
 30
0.0
  9
$UCSORGFRONT
 10
0.0
 20
0.0
 30
0.0
  9
$UCSORGBACK
 10
0.0
 20
0.0
 30
0.0
  9
$PUCSBASE
  2

  9
$PUCSNAME
  2

  9
$PUCSORG
 10
0.0
 20
0.0
 30
0.0
  9
$PUCSXDIR
 10
1.0
 20
0.0
 30
0.0
  9
$PUCSYDIR
 10
0.0
 20
1.0
 30
0.0
  9
$PUCSORTHOREF
  2

  9
$PUCSORTHOVIEW
 70
     0
  9
$PUCSORGTOP
 10
0.0
 20
0.0
 30
0.0
  9
$PUCSORGBOTTOM
 10
0.0
 20
0.0
 30
0.0
  9
$PUCSORGLEFT
 10
0.0
 20
0.0
 30
0.0
  9
$PUCSORGRIGHT
 10
0.0
 20
0.0
 30
0.0
  9
$PUCSORGFRONT
 10
0.0
 20
0.0
 30
0.0
  9
$PUCSORGBACK
 10
0.0
 20
0.0
 30
0.0
  9
$USERI1
 70
     0
  9
$USERI2
 70
     0
  9
$USERI3
 70
     0
  9
$USERI4
 70
     0
  9
$USERI5
 70
     0
  9
$USERR1
 40
0.0
  9
$USERR2
 40
0.0
  9
$USERR3
 40
0.0
  9
$USERR4
 40
0.0
  9
$USERR5
 40
0.0
  9
$WORLDVIEW
 70
     1
  9
$SHADEDGE
 70
     3
  9
$SHADEDIF
 70
    70
  9
$TILEMODE
 70
     1
  9
$MAXACTVP
 70
    64
  9
$PINSBASE
 10
0.0
 20
0.0
 30
0.0
  9
$PLIMCHECK
 70
     0
  9
$PEXTMIN
 10
1.000000000000000E+20
 20
1.000000000000000E+20
 30
1.000000000000000E+20
  9
$PEXTMAX
 10
-1.000000000000000E+20
 20
-1.000000000000000E+20
 30
-1.000000000000000E+20
  9
$PLIMMIN
 10
0.0
 20
0.0
  9
$PLIMMAX
 10
12.0
 20
9.0
  9
$UNITMODE
 70
     0
  9
$VISRETAIN
 70
     1
  9
$PLINEGEN
 70
     0
  9
$PSLTSCALE
 70
     1
  9
$TREEDEPTH
 70
  3020
  9
$CMLSTYLE
  2
Standard
  9
$CMLJUST
 70
     0
  9
$CMLSCALE
 40
1.0
  9
$PROXYGRAPHICS
 70
     1
  9
$MEASUREMENT
 70
     0
  9
$CELWEIGHT
370
    -1
  9
$ENDCAPS
280
     0
  9
$JOINSTYLE
280
     0
  9
$LWDISPLAY
290
     0
  9
$INSUNITS
 70
     4
  9
$HYPERLINKBASE
  1

  9
$STYLESHEET
  1

  9
$XEDIT
290
     1
  9
$CEPSNTYPE
380
     0
  9
$PSTYLEMODE
290
     0
  9
$FINGERPRINTGUID
  2
{FAEB1C30-E019-11D5-929B-00C0DF256EC4}
  9
$VERSIONGUID
  2
{FAEB1C32-E019-11D5-929B-00C0DF256EC4}
  9
$EXTNAMES
290
     1
  9
$PSVPSCALE
 40
0.0
  9
$OLESTARTUP
290
     0
  9
$SORTENTS
280
   127
  9
$INDEXCTL
280
     0
  9
$HIDETEXT
280
     1
  9
$XCLIPFRAME
290
     0
  9
$HALOGAP
280
     0
  9
$OBSCOLOR
 70
   257
  9
$OBSLTYPE
280
     0
  9
$INTERSECTIONDISPLAY
280
     0
  9
$INTERSECTIONCOLOR
 70
   257
  9
$DIMASSOC
280
     2
  9
$PROJECTNAME
  1

  0
ENDSEC
  0
SECTION
  2
CLASSES
  0
CLASS
  1
ACDBDICTIONARYWDFLT
  2
AcDbDictionaryWithDefault
  3
ObjectDBX Classes
 90
        0
 91
        1
280
     0
281
     0
  0
ENDSEC
  0
SECTION
  2
TABLES
  0
TABLE
  2
VPORT
  5
8
330
0
100
AcDbSymbolTable
 70
     2
  0
VPORT
  5
29
330
8
100
AcDbSymbolTableRecord
100
AcDbViewportTableRecord
  2
*Active
 70
     0
 10
0.0
 20
0.0
 11
1.0
 21
1.0
 12
10.42990654205607
 22
4.5
 13
0.0
 23
0.0
 14
0.5
 24
0.5
 15
0.5
 25
0.5
 16
0.0
 26
0.0
 36
1.0
 17
0.0
 27
0.0
 37
0.0
 40
9.0
 41
1.972972972850329
 42
50.0
 43
0.0
 44
0.0
 50
0.0
 51
0.0
 71
     0
 72
   100
 73
     1
 74
     3
 75
     0
 76
     0
 77
     0
 78
     0
281
     0
 65
     1
110
0.0
120
0.0
130
0.0
111
1.0
121
0.0
131
0.0
112
0.0
122
1.0
132
0.0
 79
     0
146
0.0
  0
ENDTAB
  0
TABLE
  2
LTYPE
  5
5
330
0
100
AcDbSymbolTable
 70
     2
  0
LTYPE
  5
14
330
5
100
AcDbSymbolTableRecord
100
AcDbLinetypeTableRecord
  2
ByBlock
 70
     0
  3

 72
    65
 73
     0
 40
0.0
  0
LTYPE
  5
15
330
5
100
AcDbSymbolTableRecord
100
AcDbLinetypeTableRecord
  2
ByLayer
 70
     0
  3

 72
    65
 73
     0
 40
0.0
  0
LTYPE
  5
16
330
5
100
AcDbSymbolTableRecord
100
AcDbLinetypeTableRecord
  2
Continuous
 70
     0
  3
Solid line
 72
    65
 73
     0
 40
0.0
  0
LTYPE
  5
74
330
5
100
AcDbSymbolTableRecord
100
AcDbLinetypeTableRecord
  2
New Line1
 70
     0
  3

 72
    65
 73
     4
 40
20.2
 49
12.7
 74
     4
 75
     0
340
0
 46
1.0
 50
0.0
 44
0.0
 45
0.0
 49
-2.5
 74
     4
 75
     0
340
0
 46
1.0
 50
0.0
 44
0.0
 45
0.0
 49
2.5
 74
     4
 75
     0
340
0
 46
1.0
 50
0.0
 44
0.0
 45
0.0
 49
-2.5
 74
     4
 75
     0
340
0
 46
1.0
 50
0.0
 44
0.0
 45
0.0
  0
ENDTAB
  0
TABLE
  2
LAYER
  5
2
330
0
100
AcDbSymbolTable
 70
     2
  0
LAYER
  5
10
330
2
100
AcDbSymbolTableRecord
100
AcDbLayerTableRecord
  2
0
 70
     0
 62
     7
  6
Continuous
370
    -3
390
F
  0
LAYER
  5
2B
330
2
100
AcDbSymbolTableRecord
100
AcDbLayerTableRecord
  2
LC-012-007-KH--0
 70
     0
 62
     7
  6
Continuous
370
    -3
390
F
  0
ENDTAB
  0
TABLE
  2
STYLE
  5
3
330
0
100
AcDbSymbolTable
 70
     1
  0
STYLE
  5
11
330
3
100
AcDbSymbolTableRecord
100
AcDbTextStyleTableRecord
  2
Standard
 70
     0
 40
0.0
 41
1.0
 50
0.0
 71
     0
 42
0.2
  3
txt
  4

  0
ENDTAB
  0
TABLE
  2
VIEW
  5
6
330
0
100
AcDbSymbolTable
 70
     0
  0
ENDTAB
  0
TABLE
  2
UCS
  5
7
330
0
100
AcDbSymbolTable
 70
     0
  0
ENDTAB
  0
TABLE
  2
APPID
  5
9
330
0
100
AcDbSymbolTable
 70
     2
  0
APPID
  5
12
330
9
100
AcDbSymbolTableRecord
100
AcDbRegAppTableRecord
  2
ACAD
 70
     0
  0
APPID
  5
2A
330
9
100
AcDbSymbolTableRecord
100
AcDbRegAppTableRecord
  2
ODA
 70
     0
  0
ENDTAB
  0
TABLE
  2
DIMSTYLE
  5
A
330
0
100
AcDbSymbolTable
 70
     1
100
AcDbDimStyleTable
  0
DIMSTYLE
105
27
330
A
100
AcDbSymbolTableRecord
100
AcDbDimStyleTableRecord
  2
Standard
 70
     0
340
11
  0
ENDTAB
  0
TABLE
  2
BLOCK_RECORD
  5
1
330
0
100
AcDbSymbolTable
 70
     1
  0
BLOCK_RECORD
  5
1F
330
1
100
AcDbSymbolTableRecord
100
AcDbBlockTableRecord
  2
*Model_Space
340
22
  0
BLOCK_RECORD
  5
1B
330
1
100
AcDbSymbolTableRecord
100
AcDbBlockTableRecord
  2
*Paper_Space
340
1E
  0
BLOCK_RECORD
  5
23
330
1
100
AcDbSymbolTableRecord
100
AcDbBlockTableRecord
  2
*Paper_Space0
340
26
  0
ENDTAB
  0
ENDSEC
  0
SECTION
  2
BLOCKS
  0
BLOCK
  5
20
330
1F
100
AcDbEntity
  8
0
100
AcDbBlockBegin
  2
*Model_Space
 70
     0
 71
     0
 10
0.0
 20
0.0
 30
0.0
  3
*Model_Space
  1

  0
ENDBLK
  5
21
330
1F
100
AcDbEntity
  8
0
100
AcDbBlockEnd
  0
BLOCK
  5
1C
330
1B
100
AcDbEntity
 67
     1
  8
0
100
AcDbBlockBegin
  2
*Paper_Space
 70
     0
 71
     0
 10
0.0
 20
0.0
 30
0.0
  3
*Paper_Space
  1

  0
ENDBLK
  5
1D
330
1B
100
AcDbEntity
 67
     1
  8
0
100
AcDbBlockEnd
  0
BLOCK
  5
24
330
23
100
AcDbEntity
  8
0
100
AcDbBlockBegin
  2
*Paper_Space0
 70
     0
 71
     0
 10
0.0
 20
0.0
 30
0.0
  3
*Paper_Space0
  1

  0
ENDBLK
  5
25
330
23
100
AcDbEntity
  8
0
100
AcDbBlockEnd
  0
ENDSEC
  0
SECTION
  2
ENTITIES
  0
SPLINE
  5
2C
330
1F
100
AcDbEntity
  8
LC-012-007-KH--0
 62
   250
100
AcDbSpline
210
0.0
220
0.0
230
1.0
 70
    11
 71
     3
 72
    40
 73
    36
 74
     0
 42
0.0000000001
 43
0.0000000001
 40
0.0
 40
0.0
 40
0.0
 40
0.0
 40
0.1111111111111111
 40
0.1111111111111111
 40
0.1111111111111111
 40
0.1111111111111111
 40
0.2222222222222222
 40
0.2222222222222222
 40
0.2222222222222222
 40
0.2222222222222222
 40
0.3333333333333333
 40
0.3333333333333333
 40
0.3333333333333333
 40
0.3333333333333333
 40
0.4444444444444444
 40
0.4444444444444444
 40
0.4444444444444444
 40
0.4444444444444444
 40
0.5555555555555556
 40
0.5555555555555556
 40
0.5555555555555556
 40
0.5555555555555556
 40
0.6666666666666667
 40
0.6666666666666667
 40
0.6666666666666667
 40
0.6666666666666667
 40
0.7777777777777779
 40
0.7777777777777779
 40
0.7777777777777779
 40
0.7777777777777779
 40
0.8888888888888891
 40
0.8888888888888891
 40
0.8888888888888891
 40
0.8888888888888891
 40
1.0
 40
1.0
 40
1.0
 40
1.0
 10
11.5533
 20
37.533
 30
0.0
 10
11.5533
 20
37.533
 30
0.0
 10
12.9126
 20
44.01600000000001
 30
0.0
 10
12.9126
 20
44.01600000000001
 30
0.0
 10
12.9126
 20
44.01600000000001
 30
0.0
 10
12.3269
 20
43.5562
 30
0.0
 10
11.5033
 20
43.1864
 30
0.0
 10
10.4418
 20
42.9085
 30
0.0
 10
10.4418
 20
42.9085
 30
0.0
 10
10.4418
 20
42.9085
 30
0.0
 10
10.6397
 20
43.87000000000001
 30
0.0
 10
10.6397
 20
43.87000000000001
 30
0.0
 10
10.6397
 20
43.87000000000001
 30
0.0
 10
11.1674
 20
44.0799
 30
0.0
 10
11.6872
 20
44.3558
 30
0.0
 10
12.2009
 20
44.6957
 30
0.0
 10
12.2009
 20
44.6957
 30
0.0
 10
12.7147
 20
45.0355
 30
0.0
 10
13.1005
 20
45.3314
 30
0.0
 10
13.3584
 20
45.5852
 30
0.0
 10
13.3584
 20
45.5852
 30
0.0
 10
13.5143
 20
45.7412
 30
0.0
 10
13.6623
 20
45.9311
 30
0.0
 10
13.8022
 20
46.155
 30
0.0
 10
13.8022
 20
46.155
 30
0.0
 10
13.8022
 20
46.155
 30
0.0
 10
14.4179
 20
46.155
 30
0.0
 10
14.4179
 20
46.155
 30
0.0
 10
14.4179
 20
46.155
 30
0.0
 10
14.4179
 20
46.155
 30
0.0
 10
12.6208
 20
37.533
 30
0.0
 10
12.6208
 20
37.533
 30
0.0
 10
12.6208
 20
37.533
 30
0.0
 10
12.6208
 20
37.533
 30
0.0
 10
11.5533
 20
37.533
 30
0.0
 10
11.5533
 20
37.533
 30
0.0
  0
SPLINE
  5
2D
330
1F
100
AcDbEntity
  8
LC-012-007-KH--0
 62
   250
100
AcDbSpline
210
0.0
220
0.0
230
1.0
 70
    11
 71
     3
 72
    68
 73
    64
 74
     0
 42
0.0000000001
 43
0.0000000001
 40
0.0
 40
0.0
 40
0.0
 40
0.0
 40
0.0625
 40
0.0625
 40
0.0625
 40
0.0625
 40
0.125
 40
0.125
 40
0.125
 40
0.125
 40
0.1875
 40
0.1875
 40
0.1875
 40
0.1875
 40
0.25
 40
0.25
 40
0.25
 40
0.25
 40
0.3125
 40
0.3125
 40
0.3125
 40
0.3125
 40
0.375
 40
0.375
 40
0.375
 40
0.375
 40
0.4375
 40
0.4375
 40
0.4375
 40
0.4375
 40
0.5
 40
0.5
 40
0.5
 40
0.5
 40
0.5625
 40
0.5625
 40
0.5625
 40
0.5625
 40
0.625
 40
0.625
 40
0.625
 40
0.625
 40
0.6875
 40
0.6875
 40
0.6875
 40
0.6875
 40
0.75
 40
0.75
 40
0.75
 40
0.75
 40
0.8125
 40
0.8125
 40
0.8125
 40
0.8125
 40
0.875
 40
0.875
 40
0.875
 40
0.875
 40
0.9375
 40
0.9375
 40
0.9375
 40
0.9375
 40
1.0
 40
1.0
 40
1.0
 40
1.0
 10
18.0442
 20
42.2528
 30
0.0
 10
17.7224
 20
42.4287
 30
0.0
 10
17.4825
 20
42.6546
 30
0.0
 10
17.3226
 20
42.9305
 30
0.0
 10
17.3226
 20
42.9305
 30
0.0
 10
17.1626
 20
43.2044
 30
0.0
 10
17.0827
 20
43.5002
 30
0.0
 10
17.0827
 20
43.8181
 30
0.0
 10
17.0827
 20
43.8181
 30
0.0
 10
17.0827
 20
44.3358
 30
0.0
 10
17.2706
 20
44.8176
 30
0.0
 10
17.6444
 20
45.2574
 30
0.0
 10
17.6444
 20
45.2574
 30
0.0
 10
18.1442
 20
45.8551
 30
0.0
 10
18.8219
 20
46.155
 30
0.0
 10
19.6775
 20
46.155
 30
0.0
 10
19.6775
 20
46.155
 30
0.0
 10
20.4311
 20
46.155
 30
0.0
 10
21.0248
 20
45.9511
 30
0.0
 10
21.4586
 20
45.5473
 30
0.0
 10
21.4586
 20
45.5473
 30
0.0
 10
21.8904
 20
45.1434
 30
0.0
 10
22.1083
 20
44.6497
 30
0.0
 10
22.1083
 20
44.064
 30
0.0
 10
22.1083
 20
44.064
 30
0.0
 10
22.1083
 20
43.6461
 30
0.0
 10
21.9904
 20
43.2683
 30
0.0
 10
21.7565
 20
42.93250000000001
 30
0.0
 10
21.7565
 20
42.93250000000001
 30
0.0
 10
21.5226
 20
42.5966
 30
0.0
 10
21.1548
 20
42.3288
 30
0.0
 10
20.655
 20
42.1309
 30
0.0
 10
20.655
 20
42.1309
 30
0.0
 10
20.9989
 20
41.915
 30
0.0
 10
21.2447
 20
41.6871
 30
0.0
 10
21.3927
 20
41.4452
 30
0.0
 10
21.3927
 20
41.4452
 30
0.0
 10
21.5846
 20
41.1293
 30
0.0
 10
21.6805
 20
40.7595
 30
0.0
 10
21.6805
 20
40.33770000000001
 30
0.0
 10
21.6805
 20
40.33770000000001
 30
0.0
 10
21.6805
 20
39.57
 30
0.0
 10
21.4087
 20
38.8844
 30
0.0
 10
20.8629
 20
38.2827
 30
0.0
 10
20.8629
 20
38.2827
 30
0.0
 10
20.3192
 20
37.6809
 30
0.0
 10
19.5935
 20
37.3811
 30
0.0
 10
18.6879
 20
37.3811
 30
0.0
 10
18.6879
 20
37.3811
 30
0.0
 10
17.9643
 20
37.3811
 30
0.0
 10
17.3765
 20
37.603
 30
0.0
 10
16.9188
 20
38.0488
 30
0.0
 10
16.9188
 20
38.0488
 30
0.0
 10
16.463
 20
38.4926
 30
0.0
 10
16.2331
 20
39.0503
 30
0.0
 10
16.2331
 20
39.718
 30
0.0
 10
16.2331
 20
39.718
 30
0.0
 10
16.2331
 20
40.3457
 30
0.0
 10
16.395
 20
40.8854
 30
0.0
 10
16.7189
 20
41.3372
 30
0.0
 10
16.7189
 20
41.3372
 30
0.0
 10
17.0447
 20
41.787
 30
0.0
 10
17.4845
 20
42.0929
 30
0.0
 10
18.0442
 20
42.2528
 30
0.0
  0
SPLINE
  5
2E
330
1F
100
AcDbEntity
  8
LC-012-007-KH--0
 62
   250
100
AcDbSpline
210
0.0
220
0.0
230
1.0
 70
    11
 71
     3
 72
    40
 73
    36
 74
     0
 42
0.0000000001
 43
0.0000000001
 40
0.0
 40
0.0
 40
0.0
 40
0.0
 40
0.1111111111111111
 40
0.1111111111111111
 40
0.1111111111111111
 40
0.1111111111111111
 40
0.2222222222222222
 40
0.2222222222222222
 40
0.2222222222222222
 40
0.2222222222222222
 40
0.3333333333333333
 40
0.3333333333333333
 40
0.3333333333333333
 40
0.3333333333333333
 40
0.4444444444444444
 40
0.4444444444444444
 40
0.4444444444444444
 40
0.4444444444444444
 40
0.5555555555555556
 40
0.5555555555555556
 40
0.5555555555555556
 40
0.5555555555555556
 40
0.6666666666666667
 40
0.6666666666666667
 40
0.6666666666666667
 40
0.6666666666666667
 40
0.7777777777777779
 40
0.7777777777777779
 40
0.7777777777777779
 40
0.7777777777777779
 40
0.8888888888888891
 40
0.8888888888888891
 40
0.8888888888888891
 40
0.8888888888888891
 40
1.0
 40
1.0
 40
1.0
 40
1.0
 10
18.1262
 20
43.7701
 30
0.0
 10
18.1262
 20
43.4043
 30
0.0
 10
18.2441
 20
43.1084
 30
0.0
 10
18.48
 20
42.8825
 30
0.0
 10
18.48
 20
42.8825
 30
0.0
 10
18.7159
 20
42.6586
 30
0.0
 10
19.0418
 20
42.5467
 30
0.0
 10
19.4556
 20
42.5467
 30
0.0
 10
19.4556
 20
42.5467
 30
0.0
 10
19.9394
 20
42.5467
 30
0.0
 10
20.3332
 20
42.6946
 30
0.0
 10
20.635
 20
42.9885
 30
0.0
 10
20.635
 20
42.9885
 30
0.0
 10
20.9369
 20
43.2823
 30
0.0
 10
21.0888
 20
43.6461
 30
0.0
 10
21.0888
 20
44.0739
 30
0.0
 10
21.0888
 20
44.0739
 30
0.0
 10
21.0888
 20
44.4378
 30
0.0
 10
20.9709
 20
44.7336
 30
0.0
 10
20.735
 20
44.9615
 30
0.0
 10
20.735
 20
44.9615
 30
0.0
 10
20.4991
 20
45.1914
 30
0.0
 10
20.1732
 20
45.3054
 30
0.0
 10
19.7594
 20
45.3054
 30
0.0
 10
19.7594
 20
45.3054
 30
0.0
 10
19.4476
 20
45.3054
 30
0.0
 10
19.1597
 20
45.2334
 30
0.0
 10
18.8978
 20
45.08750000000001
 30
0.0
 10
18.8978
 20
45.08750000000001
 30
0.0
 10
18.636
 20
44.9435
 30
0.0
 10
18.4421
 20
44.74760000000001
 30
0.0
 10
18.3161
 20
44.4997
 30
0.0
 10
18.3161
 20
44.4997
 30
0.0
 10
18.1882
 20
44.2519
 30
0.0
 10
18.1262
 20
44.008
 30
0.0
 10
18.1262
 20
43.7701
 30
0.0
  0
SPLINE
  5
2F
330
1F
100
AcDbEntity
  8
LC-012-007-KH--0
 62
   250
100
AcDbSpline
210
0.0
220
0.0
230
1.0
 70
    11
 71
     3
 72
    40
 73
    36
 74
     0
 42
0.0000000001
 43
0.0000000001
 40
0.0
 40
0.0
 40
0.0
 40
0.0
 40
0.1111111111111111
 40
0.1111111111111111
 40
0.1111111111111111
 40
0.1111111111111111
 40
0.2222222222222222
 40
0.2222222222222222
 40
0.2222222222222222
 40
0.2222222222222222
 40
0.3333333333333333
 40
0.3333333333333333
 40
0.3333333333333333
 40
0.3333333333333333
 40
0.4444444444444444
 40
0.4444444444444444
 40
0.4444444444444444
 40
0.4444444444444444
 40
0.5555555555555556
 40
0.5555555555555556
 40
0.5555555555555556
 40
0.5555555555555556
 40
0.6666666666666667
 40
0.6666666666666667
 40
0.6666666666666667
 40
0.6666666666666667
 40
0.7777777777777779
 40
0.7777777777777779
 40
0.7777777777777779
 40
0.7777777777777779
 40
0.8888888888888891
 40
0.8888888888888891
 40
0.8888888888888891
 40
0.8888888888888891
 40
1.0
 40
1.0
 40
1.0
 40
1.0
 10
17.2986
 20
39.63
 30
0.0
 10
17.2986
 20
39.3921
 30
0.0
 10
17.3566
 20
39.1622
 30
0.0
 10
17.4725
 20
38.9443
 30
0.0
 10
17.4725
 20
38.9443
 30
0.0
 10
17.5865
 20
38.72640000000001
 30
0.0
 10
17.7624
 20
38.5525
 30
0.0
 10
17.9963
 20
38.4226
 30
0.0
 10
17.9963
 20
38.4226
 30
0.0
 10
18.2301
 20
38.2946
 30
0.0
 10
18.498
 20
38.2307
 30
0.0
 10
18.7979
 20
38.2307
 30
0.0
 10
18.7979
 20
38.2307
 30
0.0
 10
19.3736
 20
38.2307
 30
0.0
 10
19.8374
 20
38.4985
 30
0.0
 10
20.1932
 20
39.0383
 30
0.0
 10
20.1932
 20
39.0383
 30
0.0
 10
20.4731
 20
39.4601
 30
0.0
 10
20.615
 20
39.91390000000001
 30
0.0
 10
20.615
 20
40.4037
 30
0.0
 10
20.615
 20
40.4037
 30
0.0
 10
20.615
 20
40.8015
 30
0.0
 10
20.4851
 20
41.12730000000001
 30
0.0
 10
20.2252
 20
41.3812
 30
0.0
 10
20.2252
 20
41.3812
 30
0.0
 10
19.9653
 20
41.6351
 30
0.0
 10
19.6255
 20
41.761
 30
0.0
 10
19.2037
 20
41.761
 30
0.0
 10
19.2037
 20
41.761
 30
0.0
 10
18.6719
 20
41.761
 30
0.0
 10
18.2222
 20
41.5651
 30
0.0
 10
17.8523
 20
41.1693
 30
0.0
 10
17.8523
 20
41.1693
 30
0.0
 10
17.4845
 20
40.7755
 30
0.0
 10
17.2986
 20
40.26170000000001
 30
0.0
 10
17.2986
 20
39.63
 30
0.0
  0
SPLINE
  5
30
330
1F
100
AcDbEntity
  8
LC-012-007-KH--0
 62
   250
100
AcDbSpline
210
0.0
220
0.0
230
1.0
 70
    11
 71
     3
 72
   120
 73
   116
 74
     0
 42
0.0000000001
 43
0.0000000001
 40
0.0
 40
0.0
 40
0.0
 40
0.0
 40
0.0344827586206897
 40
0.0344827586206897
 40
0.0344827586206897
 40
0.0344827586206897
 40
0.0689655172413793
 40
0.0689655172413793
 40
0.0689655172413793
 40
0.0689655172413793
 40
0.103448275862069
 40
0.103448275862069
 40
0.103448275862069
 40
0.103448275862069
 40
0.1379310344827586
 40
0.1379310344827586
 40
0.1379310344827586
 40
0.1379310344827586
 40
0.1724137931034483
 40
0.1724137931034483
 40
0.1724137931034483
 40
0.1724137931034483
 40
0.206896551724138
 40
0.206896551724138
 40
0.206896551724138
 40
0.206896551724138
 40
0.2413793103448276
 40
0.2413793103448276
 40
0.2413793103448276
 40
0.2413793103448276
 40
0.2758620689655173
 40
0.2758620689655173
 40
0.2758620689655173
 40
0.2758620689655173
 40
0.310344827586207
 40
0.310344827586207
 40
0.310344827586207
 40
0.310344827586207
 40
0.3448275862068966
 40
0.3448275862068966
 40
0.3448275862068966
 40
0.3448275862068966
 40
0.3793103448275863
 40
0.3793103448275863
 40
0.3793103448275863
 40
0.3793103448275863
 40
0.413793103448276
 40
0.413793103448276
 40
0.413793103448276
 40
0.413793103448276
 40
0.4482758620689656
 40
0.4482758620689656
 40
0.4482758620689656
 40
0.4482758620689656
 40
0.4827586206896553
 40
0.4827586206896553
 40
0.4827586206896553
 40
0.4827586206896553
 40
0.517241379310345
 40
0.517241379310345
 40
0.517241379310345
 40
0.517241379310345
 40
0.5517241379310346
 40
0.5517241379310346
 40
0.5517241379310346
 40
0.5517241379310346
 40
0.5862068965517242
 40
0.5862068965517242
 40
0.5862068965517242
 40
0.5862068965517242
 40
0.6206896551724138
 40
0.6206896551724138
 40
0.6206896551724138
 40
0.6206896551724138
 40
0.6551724137931034
 40
0.6551724137931034
 40
0.6551724137931034
 40
0.6551724137931034
 40
0.689655172413793
 40
0.689655172413793
 40
0.689655172413793
 40
0.689655172413793
 40
0.7241379310344827
 40
0.7241379310344827
 40
0.7241379310344827
 40
0.7241379310344827
 40
0.7586206896551723
 40
0.7586206896551723
 40
0.7586206896551723
 40
0.7586206896551723
 40
0.7931034482758619
 40
0.7931034482758619
 40
0.7931034482758619
 40
0.7931034482758619
 40
0.8275862068965515
 40
0.8275862068965515
 40
0.8275862068965515
 40
0.8275862068965515
 40
0.8620689655172411
 40
0.8620689655172411
 40
0.8620689655172411
 40
0.8620689655172411
 40
0.8965517241379307
 40
0.8965517241379307
 40
0.8965517241379307
 40
0.8965517241379307
 40
0.9310344827586203
 40
0.9310344827586203
 40
0.9310344827586203
 40
0.9310344827586203
 40
0.9655172413793099
 40
0.9655172413793099
 40
0.9655172413793099
 40
0.9655172413793099
 40
1.0
 40
1.0
 40
1.0
 40
1.0
 10
22.6641
 20
39.782
 30
0.0
 10
22.6641
 20
39.782
 30
0.0
 10
23.6956
 20
39.9099
 30
0.0
 10
23.6956
 20
39.9099
 30
0.0
 10
23.6956
 20
39.9099
 30
0.0
 10
23.7736
 20
39.3102
 30
0.0
 10
23.9455
 20
38.8784
 30
0.0
 10
24.2134
 20
38.6185
 30
0.0
 10
24.2134
 20
38.6185
 30
0.0
 10
24.4812
 20
38.36060000000001
 30
0.0
 10
24.8311
 20
38.2307
 30
0.0
 10
25.2649
 20
38.2307
 30
0.0
 10
25.2649
 20
38.2307
 30
0.0
 10
25.7886
 20
38.2307
 30
0.0
 10
26.2404
 20
38.4166
 30
0.0
 10
26.6202
 20
38.7924
 30
0.0
 10
26.6202
 20
38.7924
 30
0.0
 10
27.0021
 20
39.1662
 30
0.0
 10
27.192
 20
39.596
 30
0.0
 10
27.192
 20
40.0798
 30
0.0
 10
27.192
 20
40.0798
 30
0.0
 10
27.192
 20
40.5016
 30
0.0
 10
27.048
 20
40.8515
 30
0.0
 10
26.7642
 20
41.1253
 30
0.0
 10
26.7642
 20
41.1253
 30
0.0
 10
26.4783
 20
41.4012
 30
0.0
 10
26.0965
 20
41.53910000000001
 30
0.0
 10
25.6167
 20
41.53910000000001
 30
0.0
 10
25.6167
 20
41.53910000000001
 30
0.0
 10
25.5607
 20
41.53910000000001
 30
0.0
 10
25.4488
 20
41.5311
 30
0.0
 10
25.2769
 20
41.5151
 30
0.0
 10
25.2769
 20
41.5151
 30
0.0
 10
25.2769
 20
41.5151
 30
0.0
 10
25.4588
 20
42.4007
 30
0.0
 10
25.4588
 20
42.4007
 30
0.0
 10
25.4588
 20
42.4007
 30
0.0
 10
25.5587
 20
42.3847
 30
0.0
 10
25.6567
 20
42.3767
 30
0.0
 10
25.7507
 20
42.3767
 30
0.0
 10
25.7507
 20
42.3767
 30
0.0
 10
26.3564
 20
42.3767
 30
0.0
 10
26.8222
 20
42.5247
 30
0.0
 10
27.148
 20
42.8185
 30
0.0
 10
27.148
 20
42.8185
 30
0.0
 10
27.4738
 20
43.1144
 30
0.0
 10
27.6358
 20
43.4762
 30
0.0
 10
27.6358
 20
43.906
 30
0.0
 10
27.6358
 20
43.906
 30
0.0
 10
27.6358
 20
44.29980000000001
 30
0.0
 10
27.5038
 20
44.6317
 30
0.0
 10
27.236
 20
44.9016
 30
0.0
 10
27.236
 20
44.9016
 30
0.0
 10
26.9681
 20
45.1694
 30
0.0
 10
26.6402
 20
45.3054
 30
0.0
 10
26.2544
 20
45.3054
 30
0.0
 10
26.2544
 20
45.3054
 30
0.0
 10
25.8766
 20
45.3054
 30
0.0
 10
25.5348
 20
45.1674
 30
0.0
 10
25.2329
 20
44.8916
 30
0.0
 10
25.2329
 20
44.8916
 30
0.0
 10
24.929
 20
44.6157
 30
0.0
 10
24.7351
 20
44.22790000000001
 30
0.0
 10
24.6492
 20
43.7241
 30
0.0
 10
24.6492
 20
43.7241
 30
0.0
 10
24.6492
 20
43.7241
 30
0.0
 10
23.6077
 20
43.93400000000001
 30
0.0
 10
23.6077
 20
43.93400000000001
 30
0.0
 10
23.6077
 20
43.93400000000001
 30
0.0
 10
23.7796
 20
44.6417
 30
0.0
 10
24.1094
 20
45.1874
 30
0.0
 10
24.5972
 20
45.5732
 30
0.0
 10
24.5972
 20
45.5732
 30
0.0
 10
25.085
 20
45.9611
 30
0.0
 10
25.6627
 20
46.155
 30
0.0
 10
26.3304
 20
46.155
 30
0.0
 10
26.3304
 20
46.155
 30
0.0
 10
27.0341
 20
46.155
 30
0.0
 10
27.6018
 20
45.9411
 30
0.0
 10
28.0376
 20
45.5153
 30
0.0
 10
28.0376
 20
45.5153
 30
0.0
 10
28.4734
 20
45.0895
 30
0.0
 10
28.6913
 20
44.5677
 30
0.0
 10
28.6913
 20
43.94600000000001
 30
0.0
 10
28.6913
 20
43.94600000000001
 30
0.0
 10
28.6913
 20
43.4922
 30
0.0
 10
28.5733
 20
43.09840000000001
 30
0.0
 10
28.3374
 20
42.7606
 30
0.0
 10
28.3374
 20
42.7606
 30
0.0
 10
28.0996
 20
42.4227
 30
0.0
 10
27.7457
 20
42.1428
 30
0.0
 10
27.2739
 20
41.919
 30
0.0
 10
27.2739
 20
41.919
 30
0.0
 10
27.6098
 20
41.721
 30
0.0
 10
27.8597
 20
41.4812
 30
0.0
 10
28.0256
 20
41.1993
 30
0.0
 10
28.0256
 20
41.1993
 30
0.0
 10
28.1915
 20
40.9174
 30
0.0
 10
28.2755
 20
40.59560000000001
 30
0.0
 10
28.2755
 20
40.2337
 30
0.0
 10
28.2755
 20
40.2337
 30
0.0
 10
28.2755
 20
39.4641
 30
0.0
 10
27.9876
 20
38.7964
 30
0.0
 10
27.4119
 20
38.2327
 30
0.0
 10
27.4119
 20
38.2327
 30
0.0
 10
26.8361
 20
37.6689
 30
0.0
 10
26.1465
 20
37.3871
 30
0.0
 10
25.3468
 20
37.3871
 30
0.0
 10
25.3468
 20
37.3871
 30
0.0
 10
24.5692
 20
37.3871
 30
0.0
 10
23.9415
 20
37.605
 30
0.0
 10
23.4637
 20
38.0388
 30
0.0
 10
23.4637
 20
38.0388
 30
0.0
 10
22.9859
 20
38.4746
 30
0.0
 10
22.7181
 20
39.0563
 30
0.0
 10
22.6641
 20
39.782
 30
0.0
  0
SPLINE
  5
31
330
1F
100
AcDbEntity
  8
LC-012-007-KH--0
 62
   250
100
AcDbSpline
210
0.0
220
0.0
230
1.0
 70
    11
 71
     3
 72
    36
 73
    32
 74
     0
 42
0.0000000001
 43
0.0000000001
 40
0.0
 40
0.0
 40
0.0
 40
0.0
 40
0.125
 40
0.125
 40
0.125
 40
0.125
 40
0.25
 40
0.25
 40
0.25
 40
0.25
 40
0.375
 40
0.375
 40
0.375
 40
0.375
 40
0.5
 40
0.5
 40
0.5
 40
0.5
 40
0.625
 40
0.625
 40
0.625
 40
0.625
 40
0.75
 40
0.75
 40
0.75
 40
0.75
 40
0.875
 40
0.875
 40
0.875
 40
0.875
 40
1.0
 40
1.0
 40
1.0
 40
1.0
 10
29.329
 20
37.533
 30
0.0
 10
29.329
 20
37.533
 30
0.0
 10
29.5809
 20
38.7344
 30
0.0
 10
29.5809
 20
38.7344
 30
0.0
 10
29.5809
 20
38.7344
 30
0.0
 10
29.5809
 20
38.7344
 30
0.0
 10
30.7883
 20
38.7344
 30
0.0
 10
30.7883
 20
38.7344
 30
0.0
 10
30.7883
 20
38.7344
 30
0.0
 10
30.7883
 20
38.7344
 30
0.0
 10
30.5704
 20
37.6849
 30
0.0
 10
30.5704
 20
37.6849
 30
0.0
 10
30.5704
 20
37.6849
 30
0.0
 10
30.4385
 20
37.0572
 30
0.0
 10
30.2326
 20
36.59540000000001
 30
0.0
 10
29.9527
 20
36.3036
 30
0.0
 10
29.9527
 20
36.3036
 30
0.0
 10
29.6748
 20
36.0097
 30
0.0
 10
29.345
 20
35.8418
 30
0.0
 10
28.9672
 20
35.79980000000001
 30
0.0
 10
28.9672
 20
35.79980000000001
 30
0.0
 10
28.9672
 20
35.79980000000001
 30
0.0
 10
29.0651
 20
36.2616
 30
0.0
 10
29.0651
 20
36.2616
 30
0.0
 10
29.0651
 20
36.2616
 30
0.0
 10
29.5309
 20
36.3915
 30
0.0
 10
29.8368
 20
36.8153
 30
0.0
 10
29.9847
 20
37.533
 30
0.0
 10
29.9847
 20
37.533
 30
0.0
 10
29.9847
 20
37.533
 30
0.0
 10
29.329
 20
37.533
 30
0.0
 10
29.329
 20
37.533
 30
0.0
  0
SPLINE
  5
32
330
1F
100
AcDbEntity
  8
LC-012-007-KH--0
 62
   250
100
AcDbSpline
210
0.0
220
0.0
230
1.0
 70
    11
 71
     3
 72
   120
 73
   116
 74
     0
 42
0.0000000001
 43
0.0000000001
 40
0.0
 40
0.0
 40
0.0
 40
0.0
 40
0.0344827586206897
 40
0.0344827586206897
 40
0.0344827586206897
 40
0.0344827586206897
 40
0.0689655172413793
 40
0.0689655172413793
 40
0.0689655172413793
 40
0.0689655172413793
 40
0.103448275862069
 40
0.103448275862069
 40
0.103448275862069
 40
0.103448275862069
 40
0.1379310344827586
 40
0.1379310344827586
 40
0.1379310344827586
 40
0.1379310344827586
 40
0.1724137931034483
 40
0.1724137931034483
 40
0.1724137931034483
 40
0.1724137931034483
 40
0.206896551724138
 40
0.206896551724138
 40
0.206896551724138
 40
0.206896551724138
 40
0.2413793103448276
 40
0.2413793103448276
 40
0.2413793103448276
 40
0.2413793103448276
 40
0.2758620689655173
 40
0.2758620689655173
 40
0.2758620689655173
 40
0.2758620689655173
 40
0.310344827586207
 40
0.310344827586207
 40
0.310344827586207
 40
0.310344827586207
 40
0.3448275862068966
 40
0.3448275862068966
 40
0.3448275862068966
 40
0.3448275862068966
 40
0.3793103448275863
 40
0.3793103448275863
 40
0.3793103448275863
 40
0.3793103448275863
 40
0.413793103448276
 40
0.413793103448276
 40
0.413793103448276
 40
0.413793103448276
 40
0.4482758620689656
 40
0.4482758620689656
 40
0.4482758620689656
 40
0.4482758620689656
 40
0.4827586206896553
 40
0.4827586206896553
 40
0.4827586206896553
 40
0.4827586206896553
 40
0.517241379310345
 40
0.517241379310345
 40
0.517241379310345
 40
0.517241379310345
 40
0.5517241379310346
 40
0.5517241379310346
 40
0.5517241379310346
 40
0.5517241379310346
 40
0.5862068965517242
 40
0.5862068965517242
 40
0.5862068965517242
 40
0.5862068965517242
 40
0.6206896551724138
 40
0.6206896551724138
 40
0.6206896551724138
 40
0.6206896551724138
 40
0.6551724137931034
 40
0.6551724137931034
 40
0.6551724137931034
 40
0.6551724137931034
 40
0.689655172413793
 40
0.689655172413793
 40
0.689655172413793
 40
0.689655172413793
 40
0.7241379310344827
 40
0.7241379310344827
 40
0.7241379310344827
 40
0.7241379310344827
 40
0.7586206896551723
 40
0.7586206896551723
 40
0.7586206896551723
 40
0.7586206896551723
 40
0.7931034482758619
 40
0.7931034482758619
 40
0.7931034482758619
 40
0.7931034482758619
 40
0.8275862068965515
 40
0.8275862068965515
 40
0.8275862068965515
 40
0.8275862068965515
 40
0.8620689655172411
 40
0.8620689655172411
 40
0.8620689655172411
 40
0.8620689655172411
 40
0.8965517241379307
 40
0.8965517241379307
 40
0.8965517241379307
 40
0.8965517241379307
 40
0.9310344827586203
 40
0.9310344827586203
 40
0.9310344827586203
 40
0.9310344827586203
 40
0.9655172413793099
 40
0.9655172413793099
 40
0.9655172413793099
 40
0.9655172413793099
 40
1.0
 40
1.0
 40
1.0
 40
1.0
 10
32.8493
 20
39.9879
 30
0.0
 10
32.8493
 20
39.9879
 30
0.0
 10
33.9268
 20
40.0918
 30
0.0
 10
33.9268
 20
40.0918
 30
0.0
 10
33.9268
 20
40.0918
 30
0.0
 10
33.91880000000001
 20
39.9399
 30
0.0
 10
33.9148
 20
39.8479
 30
0.0
 10
33.9148
 20
39.8179
 30
0.0
 10
33.9148
 20
39.8179
 30
0.0
 10
33.9148
 20
39.5601
 30
0.0
 10
33.9808
 20
39.3002
 30
0.0
 10
34.1107
 20
39.0383
 30
0.0
 10
34.1107
 20
39.0383
 30
0.0
 10
34.2427
 20
38.7764
 30
0.0
 10
34.4206
 20
38.5765
 30
0.0
 10
34.6445
 20
38.4386
 30
0.0
 10
34.6445
 20
38.4386
 30
0.0
 10
34.8684
 20
38.2986
 30
0.0
 10
35.10630000000001
 20
38.2307
 30
0.0
 10
35.35610000000001
 20
38.2307
 30
0.0
 10
35.35610000000001
 20
38.2307
 30
0.0
 10
35.68400000000001
 20
38.2307
 30
0.0
 10
36.0178
 20
38.3426
 30
0.0
 10
36.3577
 20
38.5705
 30
0.0
 10
36.3577
 20
38.5705
 30
0.0
 10
36.69750000000001
 20
38.7964
 30
0.0
 10
36.9714
 20
39.1263
 30
0.0
 10
37.1833
 20
39.5601
 30
0.0
 10
37.1833
 20
39.5601
 30
0.0
 10
37.3932
 20
39.9919
 30
0.0
 10
37.4991
 20
40.4217
 30
0.0
 10
37.4991
 20
40.8475
 30
0.0
 10
37.4991
 20
40.8475
 30
0.0
 10
37.4991
 20
41.32720000000001
 30
0.0
 10
37.3572
 20
41.713
 30
0.0
 10
37.0753
 20
42.0009
 30
0.0
 10
37.0753
 20
42.0009
 30
0.0
 10
36.7915
 20
42.2908
 30
0.0
 10
36.4196
 20
42.4347
 30
0.0
 10
35.95990000000001
 20
42.4347
 30
0.0
 10
35.95990000000001
 20
42.4347
 30
0.0
 10
35.65
 20
42.4347
 30
0.0
 10
35.3581
 20
42.3607
 30
0.0
 10
35.0843
 20
42.2128
 30
0.0
 10
35.0843
 20
42.2128
 30
0.0
 10
34.8084
 20
42.0649
 30
0.0
 10
34.5525
 20
41.841
 30
0.0
 10
34.3126
 20
41.54510000000001
 30
0.0
 10
34.3126
 20
41.54510000000001
 30
0.0
 10
34.3126
 20
41.54510000000001
 30
0.0
 10
33.3871
 20
41.60910000000001
 30
0.0
 10
33.3871
 20
41.60910000000001
 30
0.0
 10
33.3871
 20
41.60910000000001
 30
0.0
 10
33.3871
 20
41.60910000000001
 30
0.0
 10
34.68250000000001
 20
46.00100000000001
 30
0.0
 10
34.68250000000001
 20
46.00100000000001
 30
0.0
 10
34.68250000000001
 20
46.00100000000001
 30
0.0
 10
34.68250000000001
 20
46.00100000000001
 30
0.0
 10
38.8765
 20
46.00100000000001
 30
0.0
 10
38.8765
 20
46.00100000000001
 30
0.0
 10
38.8765
 20
46.00100000000001
 30
0.0
 10
38.8765
 20
46.00100000000001
 30
0.0
 10
38.6706
 20
45.0295
 30
0.0
 10
38.6706
 20
45.0295
 30
0.0
 10
38.6706
 20
45.0295
 30
0.0
 10
38.6706
 20
45.0295
 30
0.0
 10
35.40810000000001
 20
45.0295
 30
0.0
 10
35.40810000000001
 20
45.0295
 30
0.0
 10
35.40810000000001
 20
45.0295
 30
0.0
 10
35.40810000000001
 20
45.0295
 30
0.0
 10
34.7644
 20
42.8445
 30
0.0
 10
34.7644
 20
42.8445
 30
0.0
 10
34.7644
 20
42.8445
 30
0.0
 10
35.0063
 20
43.0204
 30
0.0
 10
35.2562
 20
43.1524
 30
0.0
 10
35.5101
 20
43.24030000000001
 30
0.0
 10
35.5101
 20
43.24030000000001
 30
0.0
 10
35.7659
 20
43.3283
 30
0.0
 10
36.0298
 20
43.3723
 30
0.0
 10
36.2997
 20
43.3723
 30
0.0
 10
36.2997
 20
43.3723
 30
0.0
 10
36.9554
 20
43.3723
 30
0.0
 10
37.4931
 20
43.15640000000001
 30
0.0
 10
37.9149
 20
42.7226
 30
0.0
 10
37.9149
 20
42.7226
 30
0.0
 10
38.3367
 20
42.2888
 30
0.0
 10
38.5486
 20
41.6951
 30
0.0
 10
38.5486
 20
40.9414
 30
0.0
 10
38.5486
 20
40.9414
 30
0.0
 10
38.5486
 20
40.2817
 30
0.0
 10
38.4027
 20
39.674
 30
0.0
 10
38.1149
 20
39.1163
 30
0.0
 10
38.1149
 20
39.1163
 30
0.0
 10
37.825
 20
38.56050000000001
 30
0.0
 10
37.4272
 20
38.1327
 30
0.0
 10
36.9234
 20
37.83490000000001
 30
0.0
 10
36.9234
 20
37.83490000000001
 30
0.0
 10
36.4176
 20
37.535
 30
0.0
 10
35.8719
 20
37.3871
 30
0.0
 10
35.2862
 20
37.3871
 30
0.0
 10
35.2862
 20
37.3871
 30
0.0
 10
34.7944
 20
37.3871
 30
0.0
 10
34.3586
 20
37.497
 30
0.0
 10
33.9788
 20
37.7209
 30
0.0
 10
33.9788
 20
37.7209
 30
0.0
 10
33.601
 20
37.9428
 30
0.0
 10
33.3171
 20
38.2487
 30
0.0
 10
33.1272
 20
38.6405
 30
0.0
 10
33.1272
 20
38.6405
 30
0.0
 10
32.9373
 20
39.0303
 30
0.0
 10
32.8433
 20
39.42010000000001
 30
0.0
 10
32.8433
 20
39.8119
 30
0.0
 10
32.8433
 20
39.8119
 30
0.0
 10
32.8433
 20
39.84990000000001
 30
0.0
 10
32.8453
 20
39.90790000000001
 30
0.0
 10
32.8493
 20
39.9879
 30
0.0
  0
SPLINE
  5
33
330
1F
100
AcDbEntity
  8
LC-012-007-KH--0
 62
   250
100
AcDbSpline
210
0.0
220
0.0
230
1.0
 70
    11
 71
     3
 72
    60
 73
    56
 74
     0
 42
0.0000000001
 43
0.0000000001
 40
0.0
 40
0.0
 40
0.0
 40
0.0
 40
0.0714285714285714
 40
0.0714285714285714
 40
0.0714285714285714
 40
0.0714285714285714
 40
0.1428571428571429
 40
0.1428571428571429
 40
0.1428571428571429
 40
0.1428571428571429
 40
0.2142857142857143
 40
0.2142857142857143
 40
0.2142857142857143
 40
0.2142857142857143
 40
0.2857142857142857
 40
0.2857142857142857
 40
0.2857142857142857
 40
0.2857142857142857
 40
0.3571428571428571
 40
0.3571428571428571
 40
0.3571428571428571
 40
0.3571428571428571
 40
0.4285714285714285
 40
0.4285714285714285
 40
0.4285714285714285
 40
0.4285714285714285
 40
0.4999999999999999
 40
0.4999999999999999
 40
0.4999999999999999
 40
0.4999999999999999
 40
0.5714285714285713
 40
0.5714285714285713
 40
0.5714285714285713
 40
0.5714285714285713
 40
0.6428571428571427
 40
0.6428571428571427
 40
0.6428571428571427
 40
0.6428571428571427
 40
0.7142857142857141
 40
0.7142857142857141
 40
0.7142857142857141
 40
0.7142857142857141
 40
0.7857142857142855
 40
0.7857142857142855
 40
0.7857142857142855
 40
0.7857142857142855
 40
0.8571428571428569
 40
0.8571428571428569
 40
0.8571428571428569
 40
0.8571428571428569
 40
0.9285714285714283
 40
0.9285714285714283
 40
0.9285714285714283
 40
0.9285714285714283
 40
1.0
 40
1.0
 40
1.0
 40
1.0
 10
41.997
 20
37.533
 30
0.0
 10
41.997
 20
37.533
 30
0.0
 10
44.70370000000001
 20
40.6895
 30
0.0
 10
44.70370000000001
 20
40.6895
 30
0.0
 10
44.70370000000001
 20
40.6895
 30
0.0
 10
44.70370000000001
 20
40.6895
 30
0.0
 10
43.1505
 20
43.7521
 30
0.0
 10
43.1505
 20
43.7521
 30
0.0
 10
43.1505
 20
43.7521
 30
0.0
 10
43.1505
 20
43.7521
 30
0.0
 10
44.3219
 20
43.7521
 30
0.0
 10
44.3219
 20
43.7521
 30
0.0
 10
44.3219
 20
43.7521
 30
0.0
 10
44.3219
 20
43.7521
 30
0.0
 10
44.84970000000001
 20
42.6466
 30
0.0
 10
44.84970000000001
 20
42.6466
 30
0.0
 10
44.84970000000001
 20
42.6466
 30
0.0
 10
45.0456
 20
42.23280000000001
 30
0.0
 10
45.2215
 20
41.835
 30
0.0
 10
45.3774
 20
41.4572
 30
0.0
 10
45.3774
 20
41.4572
 30
0.0
 10
45.3774
 20
41.4572
 30
0.0
 10
47.16860000000001
 20
43.7521
 30
0.0
 10
47.16860000000001
 20
43.7521
 30
0.0
 10
47.16860000000001
 20
43.7521
 30
0.0
 10
47.16860000000001
 20
43.7521
 30
0.0
 10
48.46400000000001
 20
43.7521
 30
0.0
 10
48.46400000000001
 20
43.7521
 30
0.0
 10
48.46400000000001
 20
43.7521
 30
0.0
 10
48.46400000000001
 20
43.7521
 30
0.0
 10
45.85120000000001
 20
40.60760000000001
 30
0.0
 10
45.85120000000001
 20
40.60760000000001
 30
0.0
 10
45.85120000000001
 20
40.60760000000001
 30
0.0
 10
45.85120000000001
 20
40.60760000000001
 30
0.0
 10
47.4205
 20
37.533
 30
0.0
 10
47.4205
 20
37.533
 30
0.0
 10
47.4205
 20
37.533
 30
0.0
 10
47.4205
 20
37.533
 30
0.0
 10
46.249
 20
37.533
 30
0.0
 10
46.249
 20
37.533
 30
0.0
 10
46.249
 20
37.533
 30
0.0
 10
46.249
 20
37.533
 30
0.0
 10
45.6293
 20
38.7984
 30
0.0
 10
45.6293
 20
38.7984
 30
0.0
 10
45.6293
 20
38.7984
 30
0.0
 10
45.4954
 20
39.0683
 30
0.0
 10
45.34540000000001
 20
39.4021
 30
0.0
 10
45.1775
 20
39.7999
 30
0.0
 10
45.1775
 20
39.7999
 30
0.0
 10
45.1775
 20
39.7999
 30
0.0
 10
43.3264
 20
37.533
 30
0.0
 10
43.3264
 20
37.533
 30
0.0
 10
43.3264
 20
37.533
 30
0.0
 10
43.3264
 20
37.533
 30
0.0
 10
41.997
 20
37.533
 30
0.0
 10
41.997
 20
37.533
 30
0.0
  0
SPLINE
  5
34
330
1F
100
AcDbEntity
  8
LC-012-007-KH--0
 62
   250
100
AcDbSpline
210
0.0
220
0.0
230
1.0
 70
    11
 71
     3
 72
    40
 73
    36
 74
     0
 42
0.0000000001
 43
0.0000000001
 40
0.0
 40
0.0
 40
0.0
 40
0.0
 40
0.1111111111111111
 40
0.1111111111111111
 40
0.1111111111111111
 40
0.1111111111111111
 40
0.2222222222222222
 40
0.2222222222222222
 40
0.2222222222222222
 40
0.2222222222222222
 40
0.3333333333333333
 40
0.3333333333333333
 40
0.3333333333333333
 40
0.3333333333333333
 40
0.4444444444444444
 40
0.4444444444444444
 40
0.4444444444444444
 40
0.4444444444444444
 40
0.5555555555555556
 40
0.5555555555555556
 40
0.5555555555555556
 40
0.5555555555555556
 40
0.6666666666666667
 40
0.6666666666666667
 40
0.6666666666666667
 40
0.6666666666666667
 40
0.7777777777777779
 40
0.7777777777777779
 40
0.7777777777777779
 40
0.7777777777777779
 40
0.8888888888888891
 40
0.8888888888888891
 40
0.8888888888888891
 40
0.8888888888888891
 40
1.0
 40
1.0
 40
1.0
 40
1.0
 10
54.23130000000001
 20
37.533
 30
0.0
 10
54.23130000000001
 20
37.533
 30
0.0
 10
55.5906
 20
44.01600000000001
 30
0.0
 10
55.5906
 20
44.01600000000001
 30
0.0
 10
55.5906
 20
44.01600000000001
 30
0.0
 10
55.0049
 20
43.5562
 30
0.0
 10
54.1813
 20
43.1864
 30
0.0
 10
53.11980000000001
 20
42.9085
 30
0.0
 10
53.11980000000001
 20
42.9085
 30
0.0
 10
53.11980000000001
 20
42.9085
 30
0.0
 10
53.3177
 20
43.87000000000001
 30
0.0
 10
53.3177
 20
43.87000000000001
 30
0.0
 10
53.3177
 20
43.87000000000001
 30
0.0
 10
53.84540000000001
 20
44.0799
 30
0.0
 10
54.3652
 20
44.3558
 30
0.0
 10
54.8789
 20
44.6957
 30
0.0
 10
54.8789
 20
44.6957
 30
0.0
 10
55.39270000000001
 20
45.0355
 30
0.0
 10
55.7785
 20
45.3314
 30
0.0
 10
56.0364
 20
45.5852
 30
0.0
 10
56.0364
 20
45.5852
 30
0.0
 10
56.1923
 20
45.7412
 30
0.0
 10
56.3403
 20
45.9311
 30
0.0
 10
56.4802
 20
46.155
 30
0.0
 10
56.4802
 20
46.155
 30
0.0
 10
56.4802
 20
46.155
 30
0.0
 10
57.0959
 20
46.155
 30
0.0
 10
57.0959
 20
46.155
 30
0.0
 10
57.0959
 20
46.155
 30
0.0
 10
57.0959
 20
46.155
 30
0.0
 10
55.2988
 20
37.533
 30
0.0
 10
55.2988
 20
37.533
 30
0.0
 10
55.2988
 20
37.533
 30
0.0
 10
55.2988
 20
37.533
 30
0.0
 10
54.23130000000001
 20
37.533
 30
0.0
 10
54.23130000000001
 20
37.533
 30
0.0
  0
SPLINE
  5
35
330
1F
100
AcDbEntity
  8
LC-012-007-KH--0
 62
   250
100
AcDbSpline
210
0.0
220
0.0
230
1.0
 70
    11
 71
     3
 72
    44
 73
    40
 74
     0
 42
0.0000000001
 43
0.0000000001
 40
0.0
 40
0.0
 40
0.0
 40
0.0
 40
0.1
 40
0.1
 40
0.1
 40
0.1
 40
0.2
 40
0.2
 40
0.2
 40
0.2
 40
0.3
 40
0.3
 40
0.3
 40
0.3
 40
0.4
 40
0.4
 40
0.4
 40
0.4
 40
0.5
 40
0.5
 40
0.5
 40
0.5
 40
0.6
 40
0.6
 40
0.6
 40
0.6
 40
0.7
 40
0.7
 40
0.7
 40
0.7
 40
0.7999999999999999
 40
0.7999999999999999
 40
0.7999999999999999
 40
0.7999999999999999
 40
0.8999999999999999
 40
0.8999999999999999
 40
0.8999999999999999
 40
0.8999999999999999
 40
1.0
 40
1.0
 40
1.0
 40
1.0
 10
59.7547
 20
37.533
 30
0.0
 10
59.84860000000001
 20
38.1107
 30
0.0
 10
60.0486
 20
38.8064
 30
0.0
 10
60.3524
 20
39.618
 30
0.0
 10
60.3524
 20
39.618
 30
0.0
 10
60.7162
 20
40.5976
 30
0.0
 10
61.192
 20
41.5711
 30
0.0
 10
61.7817
 20
42.5367
 30
0.0
 10
61.7817
 20
42.5367
 30
0.0
 10
62.37150000000001
 20
43.5042
 30
0.0
 10
63.0272
 20
44.3338
 30
0.0
 10
63.7488
 20
45.0295
 30
0.0
 10
63.7488
 20
45.0295
 30
0.0
 10
63.7488
 20
45.0295
 30
0.0
 10
59.4688
 20
45.0295
 30
0.0
 10
59.4688
 20
45.0295
 30
0.0
 10
59.4688
 20
45.0295
 30
0.0
 10
59.4688
 20
45.0295
 30
0.0
 10
59.67270000000001
 20
46.00100000000001
 30
0.0
 10
59.67270000000001
 20
46.00100000000001
 30
0.0
 10
59.67270000000001
 20
46.00100000000001
 30
0.0
 10
59.67270000000001
 20
46.00100000000001
 30
0.0
 10
65.1542
 20
46.00100000000001
 30
0.0
 10
65.1542
 20
46.00100000000001
 30
0.0
 10
65.1542
 20
46.00100000000001
 30
0.0
 10
65.1542
 20
46.00100000000001
 30
0.0
 10
64.9563
 20
45.0295
 30
0.0
 10
64.9563
 20
45.0295
 30
0.0
 10
64.9563
 20
45.0295
 30
0.0
 10
64.02670000000001
 20
44.2139
 30
0.0
 10
63.2151
 20
43.1604
 30
0.0
 10
62.51940000000001
 20
41.87300000000001
 30
0.0
 10
62.51940000000001
 20
41.87300000000001
 30
0.0
 10
61.7118
 20
40.3857
 30
0.0
 10
61.158
 20
38.93830000000001
 30
0.0
 10
60.8622
 20
37.533
 30
0.0
 10
60.8622
 20
37.533
 30
0.0
 10
60.8622
 20
37.533
 30
0.0
 10
59.7547
 20
37.533
 30
0.0
 10
59.7547
 20
37.533
 30
0.0
  0
SPLINE
  5
36
330
1F
100
AcDbEntity
  8
LC-012-007-KH--0
 62
   250
100
AcDbSpline
210
0.0
220
0.0
230
1.0
 70
    11
 71
     3
 72
    96
 73
    92
 74
     0
 42
0.0000000001
 43
0.0000000001
 40
0.0
 40
0.0
 40
0.0
 40
0.0
 40
0.0434782608695652
 40
0.0434782608695652
 40
0.0434782608695652
 40
0.0434782608695652
 40
0.0869565217391304
 40
0.0869565217391304
 40
0.0869565217391304
 40
0.0869565217391304
 40
0.1304347826086957
 40
0.1304347826086957
 40
0.1304347826086957
 40
0.1304347826086957
 40
0.1739130434782609
 40
0.1739130434782609
 40
0.1739130434782609
 40
0.1739130434782609
 40
0.2173913043478261
 40
0.2173913043478261
 40
0.2173913043478261
 40
0.2173913043478261
 40
0.2608695652173913
 40
0.2608695652173913
 40
0.2608695652173913
 40
0.2608695652173913
 40
0.3043478260869565
 40
0.3043478260869565
 40
0.3043478260869565
 40
0.3043478260869565
 40
0.3478260869565217
 40
0.3478260869565217
 40
0.3478260869565217
 40
0.3478260869565217
 40
0.3913043478260869
 40
0.3913043478260869
 40
0.3913043478260869
 40
0.3913043478260869
 40
0.4347826086956521
 40
0.4347826086956521
 40
0.4347826086956521
 40
0.4347826086956521
 40
0.4782608695652173
 40
0.4782608695652173
 40
0.4782608695652173
 40
0.4782608695652173
 40
0.5217391304347825
 40
0.5217391304347825
 40
0.5217391304347825
 40
0.5217391304347825
 40
0.5652173913043477
 40
0.5652173913043477
 40
0.5652173913043477
 40
0.5652173913043477
 40
0.6086956521739129
 40
0.6086956521739129
 40
0.6086956521739129
 40
0.6086956521739129
 40
0.6521739130434781
 40
0.6521739130434781
 40
0.6521739130434781
 40
0.6521739130434781
 40
0.6956521739130432
 40
0.6956521739130432
 40
0.6956521739130432
 40
0.6956521739130432
 40
0.7391304347826084
 40
0.7391304347826084
 40
0.7391304347826084
 40
0.7391304347826084
 40
0.7826086956521736
 40
0.7826086956521736
 40
0.7826086956521736
 40
0.7826086956521736
 40
0.8260869565217388
 40
0.8260869565217388
 40
0.8260869565217388
 40
0.8260869565217388
 40
0.869565217391304
 40
0.869565217391304
 40
0.869565217391304
 40
0.869565217391304
 40
0.9130434782608692
 40
0.9130434782608692
 40
0.9130434782608692
 40
0.9130434782608692
 40
0.9565217391304344
 40
0.9565217391304344
 40
0.9565217391304344
 40
0.9565217391304344
 40
1.0
 40
1.0
 40
1.0
 40
1.0
 10
65.3901
 20
37.533
 30
0.0
 10
65.49800000000001
 20
38.0448
 30
0.0
 10
65.65000000000001
 20
38.4726
 30
0.0
 10
65.84390000000001
 20
38.8184
 30
0.0
 10
65.84390000000001
 20
38.8184
 30
0.0
 10
66.03580000000001
 20
39.1642
 30
0.0
 10
66.2936
 20
39.4921
 30
0.0
 10
66.6135
 20
39.8019
 30
0.0
 10
66.6135
 20
39.8019
 30
0.0
 10
66.93340000000001
 20
40.11380000000001
 30
0.0
 10
67.55110000000001
 20
40.6336
 30
0.0
 10
68.4646
 20
41.3632
 30
0.0
 10
68.4646
 20
41.3632
 30
0.0
 10
69.0184
 20
41.805
 30
0.0
 10
69.39620000000001
 20
42.1309
 30
0.0
 10
69.6001
 20
42.3408
 30
0.0
 10
69.6001
 20
42.3408
 30
0.0
 10
69.89200000000001
 20
42.6466
 30
0.0
 10
70.10590000000001
 20
42.94450000000001
 30
0.0
 10
70.23780000000001
 20
43.2383
 30
0.0
 10
70.23780000000001
 20
43.2383
 30
0.0
 10
70.3278
 20
43.4362
 30
0.0
 10
70.3737
 20
43.6541
 30
0.0
 10
70.3737
 20
43.88800000000001
 30
0.0
 10
70.3737
 20
43.88800000000001
 30
0.0
 10
70.3737
 20
44.2818
 30
0.0
 10
70.2338
 20
44.6157
 30
0.0
 10
69.9539
 20
44.8916
 30
0.0
 10
69.9539
 20
44.8916
 30
0.0
 10
69.67610000000001
 20
45.1674
 30
0.0
 10
69.3322
 20
45.3054
 30
0.0
 10
68.9264
 20
45.3054
 30
0.0
 10
68.9264
 20
45.3054
 30
0.0
 10
68.52460000000001
 20
45.3054
 30
0.0
 10
68.17280000000001
 20
45.16540000000001
 30
0.0
 10
67.8729
 20
44.8856
 30
0.0
 10
67.8729
 20
44.8856
 30
0.0
 10
67.5711
 20
44.6077
 30
0.0
 10
67.35720000000001
 20
44.15790000000001
 30
0.0
 10
67.2272
 20
43.5422
 30
0.0
 10
67.2272
 20
43.5422
 30
0.0
 10
67.2272
 20
43.5422
 30
0.0
 10
66.1917
 20
43.6941
 30
0.0
 10
66.1917
 20
43.6941
 30
0.0
 10
66.1917
 20
43.6941
 30
0.0
 10
66.2936
 20
44.4558
 30
0.0
 10
66.5895
 20
45.0555
 30
0.0
 10
67.0793
 20
45.4953
 30
0.0
 10
67.0793
 20
45.4953
 30
0.0
 10
67.56910000000001
 20
45.93510000000001
 30
0.0
 10
68.17880000000001
 20
46.155
 30
0.0
 10
68.9084
 20
46.155
 30
0.0
 10
68.9084
 20
46.155
 30
0.0
 10
69.39620000000001
 20
46.155
 30
0.0
 10
69.84
 20
46.053
 30
0.0
 10
70.2358
 20
45.8491
 30
0.0
 10
70.2358
 20
45.8491
 30
0.0
 10
70.63160000000001
 20
45.64720000000001
 30
0.0
 10
70.9295
 20
45.3613
 30
0.0
 10
71.1294
 20
44.9935
 30
0.0
 10
71.1294
 20
44.9935
 30
0.0
 10
71.32730000000001
 20
44.6277
 30
0.0
 10
71.4273
 20
44.2479
 30
0.0
 10
71.4273
 20
43.858
 30
0.0
 10
71.4273
 20
43.858
 30
0.0
 10
71.4273
 20
43.2883
 30
0.0
 10
71.2253
 20
42.73860000000001
 30
0.0
 10
70.81750000000001
 20
42.2128
 30
0.0
 10
70.81750000000001
 20
42.2128
 30
0.0
 10
70.5677
 20
41.88500000000001
 30
0.0
 10
69.834
 20
41.2393
 30
0.0
 10
68.61660000000001
 20
40.27370000000001
 30
0.0
 10
68.61660000000001
 20
40.27370000000001
 30
0.0
 10
68.0928
 20
39.8599
 30
0.0
 10
67.703
 20
39.5201
 30
0.0
 10
67.44710000000001
 20
39.2542
 30
0.0
 10
67.44710000000001
 20
39.2542
 30
0.0
 10
67.19120000000001
 20
38.99030000000001
 30
0.0
 10
66.99930000000001
 20
38.7404
 30
0.0
 10
66.87140000000001
 20
38.5045
 30
0.0
 10
66.87140000000001
 20
38.5045
 30
0.0
 10
66.87140000000001
 20
38.5045
 30
0.0
 10
70.7136
 20
38.5045
 30
0.0
 10
70.7136
 20
38.5045
 30
0.0
 10
70.7136
 20
38.5045
 30
0.0
 10
70.7136
 20
38.5045
 30
0.0
 10
70.5077
 20
37.533
 30
0.0
 10
70.5077
 20
37.533
 30
0.0
 10
70.5077
 20
37.533
 30
0.0
 10
70.5077
 20
37.533
 30
0.0
 10
65.3901
 20
37.533
 30
0.0
 10
65.3901
 20
37.533
 30
0.0
  0
SPLINE
  5
37
330
1F
100
AcDbEntity
  8
LC-012-007-KH--0
 62
   250
100
AcDbSpline
210
0.0
220
0.0
230
1.0
 70
    11
 71
     3
 72
    36
 73
    32
 74
     0
 42
0.0000000001
 43
0.0000000001
 40
0.0
 40
0.0
 40
0.0
 40
0.0
 40
0.125
 40
0.125
 40
0.125
 40
0.125
 40
0.25
 40
0.25
 40
0.25
 40
0.25
 40
0.375
 40
0.375
 40
0.375
 40
0.375
 40
0.5
 40
0.5
 40
0.5
 40
0.5
 40
0.625
 40
0.625
 40
0.625
 40
0.625
 40
0.75
 40
0.75
 40
0.75
 40
0.75
 40
0.875
 40
0.875
 40
0.875
 40
0.875
 40
1.0
 40
1.0
 40
1.0
 40
1.0
 10
72.00700000000001
 20
37.533
 30
0.0
 10
72.00700000000001
 20
37.533
 30
0.0
 10
72.2589
 20
38.7344
 30
0.0
 10
72.2589
 20
38.7344
 30
0.0
 10
72.2589
 20
38.7344
 30
0.0
 10
72.2589
 20
38.7344
 30
0.0
 10
73.4663
 20
38.7344
 30
0.0
 10
73.4663
 20
38.7344
 30
0.0
 10
73.4663
 20
38.7344
 30
0.0
 10
73.4663
 20
38.7344
 30
0.0
 10
73.2484
 20
37.6849
 30
0.0
 10
73.2484
 20
37.6849
 30
0.0
 10
73.2484
 20
37.6849
 30
0.0
 10
73.1165
 20
37.0572
 30
0.0
 10
72.9106
 20
36.59540000000001
 30
0.0
 10
72.6307
 20
36.3036
 30
0.0
 10
72.6307
 20
36.3036
 30
0.0
 10
72.3528
 20
36.0097
 30
0.0
 10
72.02300000000001
 20
35.8418
 30
0.0
 10
71.6452
 20
35.79980000000001
 30
0.0
 10
71.6452
 20
35.79980000000001
 30
0.0
 10
71.6452
 20
35.79980000000001
 30
0.0
 10
71.7431
 20
36.2616
 30
0.0
 10
71.7431
 20
36.2616
 30
0.0
 10
71.7431
 20
36.2616
 30
0.0
 10
72.2089
 20
36.3915
 30
0.0
 10
72.51480000000001
 20
36.8153
 30
0.0
 10
72.6627
 20
37.533
 30
0.0
 10
72.6627
 20
37.533
 30
0.0
 10
72.6627
 20
37.533
 30
0.0
 10
72.00700000000001
 20
37.533
 30
0.0
 10
72.00700000000001
 20
37.533
 30
0.0
  0
SPLINE
  5
38
330
1F
100
AcDbEntity
  8
LC-012-007-KH--0
 62
   250
100
AcDbSpline
210
0.0
220
0.0
230
1.0
 70
    11
 71
     3
 72
   120
 73
   116
 74
     0
 42
0.0000000001
 43
0.0000000001
 40
0.0
 40
0.0
 40
0.0
 40
0.0
 40
0.0344827586206897
 40
0.0344827586206897
 40
0.0344827586206897
 40
0.0344827586206897
 40
0.0689655172413793
 40
0.0689655172413793
 40
0.0689655172413793
 40
0.0689655172413793
 40
0.103448275862069
 40
0.103448275862069
 40
0.103448275862069
 40
0.103448275862069
 40
0.1379310344827586
 40
0.1379310344827586
 40
0.1379310344827586
 40
0.1379310344827586
 40
0.1724137931034483
 40
0.1724137931034483
 40
0.1724137931034483
 40
0.1724137931034483
 40
0.206896551724138
 40
0.206896551724138
 40
0.206896551724138
 40
0.206896551724138
 40
0.2413793103448276
 40
0.2413793103448276
 40
0.2413793103448276
 40
0.2413793103448276
 40
0.2758620689655173
 40
0.2758620689655173
 40
0.2758620689655173
 40
0.2758620689655173
 40
0.310344827586207
 40
0.310344827586207
 40
0.310344827586207
 40
0.310344827586207
 40
0.3448275862068966
 40
0.3448275862068966
 40
0.3448275862068966
 40
0.3448275862068966
 40
0.3793103448275863
 40
0.3793103448275863
 40
0.3793103448275863
 40
0.3793103448275863
 40
0.413793103448276
 40
0.413793103448276
 40
0.413793103448276
 40
0.413793103448276
 40
0.4482758620689656
 40
0.4482758620689656
 40
0.4482758620689656
 40
0.4482758620689656
 40
0.4827586206896553
 40
0.4827586206896553
 40
0.4827586206896553
 40
0.4827586206896553
 40
0.517241379310345
 40
0.517241379310345
 40
0.517241379310345
 40
0.517241379310345
 40
0.5517241379310346
 40
0.5517241379310346
 40
0.5517241379310346
 40
0.5517241379310346
 40
0.5862068965517242
 40
0.5862068965517242
 40
0.5862068965517242
 40
0.5862068965517242
 40
0.6206896551724138
 40
0.6206896551724138
 40
0.6206896551724138
 40
0.6206896551724138
 40
0.6551724137931034
 40
0.6551724137931034
 40
0.6551724137931034
 40
0.6551724137931034
 40
0.689655172413793
 40
0.689655172413793
 40
0.689655172413793
 40
0.689655172413793
 40
0.7241379310344827
 40
0.7241379310344827
 40
0.7241379310344827
 40
0.7241379310344827
 40
0.7586206896551723
 40
0.7586206896551723
 40
0.7586206896551723
 40
0.7586206896551723
 40
0.7931034482758619
 40
0.7931034482758619
 40
0.7931034482758619
 40
0.7931034482758619
 40
0.8275862068965515
 40
0.8275862068965515
 40
0.8275862068965515
 40
0.8275862068965515
 40
0.8620689655172411
 40
0.8620689655172411
 40
0.8620689655172411
 40
0.8620689655172411
 40
0.8965517241379307
 40
0.8965517241379307
 40
0.8965517241379307
 40
0.8965517241379307
 40
0.9310344827586203
 40
0.9310344827586203
 40
0.9310344827586203
 40
0.9310344827586203
 40
0.9655172413793099
 40
0.9655172413793099
 40
0.9655172413793099
 40
0.9655172413793099
 40
1.0
 40
1.0
 40
1.0
 40
1.0
 10
75.5273
 20
39.9879
 30
0.0
 10
75.5273
 20
39.9879
 30
0.0
 10
76.6048
 20
40.0918
 30
0.0
 10
76.6048
 20
40.0918
 30
0.0
 10
76.6048
 20
40.0918
 30
0.0
 10
76.5968
 20
39.9399
 30
0.0
 10
76.5928
 20
39.8479
 30
0.0
 10
76.5928
 20
39.8179
 30
0.0
 10
76.5928
 20
39.8179
 30
0.0
 10
76.5928
 20
39.5601
 30
0.0
 10
76.6588
 20
39.3002
 30
0.0
 10
76.78870000000001
 20
39.0383
 30
0.0
 10
76.78870000000001
 20
39.0383
 30
0.0
 10
76.92070000000001
 20
38.7764
 30
0.0
 10
77.09860000000001
 20
38.5765
 30
0.0
 10
77.32250000000001
 20
38.4386
 30
0.0
 10
77.32250000000001
 20
38.4386
 30
0.0
 10
77.54640000000001
 20
38.2986
 30
0.0
 10
77.7843
 20
38.2307
 30
0.0
 10
78.03410000000001
 20
38.2307
 30
0.0
 10
78.03410000000001
 20
38.2307
 30
0.0
 10
78.36200000000001
 20
38.2307
 30
0.0
 10
78.69580000000001
 20
38.3426
 30
0.0
 10
79.03570000000001
 20
38.5705
 30
0.0
 10
79.03570000000001
 20
38.5705
 30
0.0
 10
79.3755
 20
38.7964
 30
0.0
 10
79.6494
 20
39.1263
 30
0.0
 10
79.8613
 20
39.5601
 30
0.0
 10
79.8613
 20
39.5601
 30
0.0
 10
80.07120000000001
 20
39.9919
 30
0.0
 10
80.17710000000001
 20
40.4217
 30
0.0
 10
80.17710000000001
 20
40.8475
 30
0.0
 10
80.17710000000001
 20
40.8475
 30
0.0
 10
80.17710000000001
 20
41.32720000000001
 30
0.0
 10
80.0352
 20
41.713
 30
0.0
 10
79.75330000000001
 20
42.0009
 30
0.0
 10
79.75330000000001
 20
42.0009
 30
0.0
 10
79.46950000000001
 20
42.2908
 30
0.0
 10
79.0976
 20
42.4347
 30
0.0
 10
78.6379
 20
42.4347
 30
0.0
 10
78.6379
 20
42.4347
 30
0.0
 10
78.328
 20
42.4347
 30
0.0
 10
78.03610000000001
 20
42.3607
 30
0.0
 10
77.76230000000001
 20
42.2128
 30
0.0
 10
77.76230000000001
 20
42.2128
 30
0.0
 10
77.4864
 20
42.0649
 30
0.0
 10
77.23050000000001
 20
41.841
 30
0.0
 10
76.9906
 20
41.54510000000001
 30
0.0
 10
76.9906
 20
41.54510000000001
 30
0.0
 10
76.9906
 20
41.54510000000001
 30
0.0
 10
76.0651
 20
41.60910000000001
 30
0.0
 10
76.0651
 20
41.60910000000001
 30
0.0
 10
76.0651
 20
41.60910000000001
 30
0.0
 10
76.0651
 20
41.60910000000001
 30
0.0
 10
77.3605
 20
46.00100000000001
 30
0.0
 10
77.3605
 20
46.00100000000001
 30
0.0
 10
77.3605
 20
46.00100000000001
 30
0.0
 10
77.3605
 20
46.00100000000001
 30
0.0
 10
81.5545
 20
46.00100000000001
 30
0.0
 10
81.5545
 20
46.00100000000001
 30
0.0
 10
81.5545
 20
46.00100000000001
 30
0.0
 10
81.5545
 20
46.00100000000001
 30
0.0
 10
81.34860000000001
 20
45.0295
 30
0.0
 10
81.34860000000001
 20
45.0295
 30
0.0
 10
81.34860000000001
 20
45.0295
 30
0.0
 10
81.34860000000001
 20
45.0295
 30
0.0
 10
78.0861
 20
45.0295
 30
0.0
 10
78.0861
 20
45.0295
 30
0.0
 10
78.0861
 20
45.0295
 30
0.0
 10
78.0861
 20
45.0295
 30
0.0
 10
77.44240000000001
 20
42.8445
 30
0.0
 10
77.44240000000001
 20
42.8445
 30
0.0
 10
77.44240000000001
 20
42.8445
 30
0.0
 10
77.68430000000001
 20
43.0204
 30
0.0
 10
77.9342
 20
43.1524
 30
0.0
 10
78.18810000000001
 20
43.24030000000001
 30
0.0
 10
78.18810000000001
 20
43.24030000000001
 30
0.0
 10
78.4439
 20
43.3283
 30
0.0
 10
78.70780000000001
 20
43.3723
 30
0.0
 10
78.9777
 20
43.3723
 30
0.0
 10
78.9777
 20
43.3723
 30
0.0
 10
79.63340000000001
 20
43.3723
 30
0.0
 10
80.17110000000001
 20
43.15640000000001
 30
0.0
 10
80.5929
 20
42.7226
 30
0.0
 10
80.5929
 20
42.7226
 30
0.0
 10
81.01470000000001
 20
42.2888
 30
0.0
 10
81.22660000000001
 20
41.6951
 30
0.0
 10
81.22660000000001
 20
40.9414
 30
0.0
 10
81.22660000000001
 20
40.9414
 30
0.0
 10
81.22660000000001
 20
40.2817
 30
0.0
 10
81.08070000000001
 20
39.674
 30
0.0
 10
80.7929
 20
39.1163
 30
0.0
 10
80.7929
 20
39.1163
 30
0.0
 10
80.503
 20
38.56050000000001
 30
0.0
 10
80.10520000000001
 20
38.1327
 30
0.0
 10
79.6014
 20
37.83490000000001
 30
0.0
 10
79.6014
 20
37.83490000000001
 30
0.0
 10
79.09560000000001
 20
37.535
 30
0.0
 10
78.54990000000001
 20
37.3871
 30
0.0
 10
77.96420000000001
 20
37.3871
 30
0.0
 10
77.96420000000001
 20
37.3871
 30
0.0
 10
77.47240000000001
 20
37.3871
 30
0.0
 10
77.03660000000001
 20
37.497
 30
0.0
 10
76.6568
 20
37.7209
 30
0.0
 10
76.6568
 20
37.7209
 30
0.0
 10
76.27900000000001
 20
37.9428
 30
0.0
 10
75.99510000000001
 20
38.2487
 30
0.0
 10
75.8052
 20
38.6405
 30
0.0
 10
75.8052
 20
38.6405
 30
0.0
 10
75.61530000000001
 20
39.0303
 30
0.0
 10
75.5213
 20
39.42010000000001
 30
0.0
 10
75.5213
 20
39.8119
 30
0.0
 10
75.5213
 20
39.8119
 30
0.0
 10
75.5213
 20
39.84990000000001
 30
0.0
 10
75.52330000000001
 20
39.90790000000001
 30
0.0
 10
75.5273
 20
39.9879
 30
0.0
  0
SPLINE
  5
39
330
1F
100
AcDbEntity
  8
LC-012-007-KH--0
 62
   250
100
AcDbSpline
210
0.0
220
0.0
230
1.0
 70
    11
 71
     3
 72
    40
 73
    36
 74
     0
 42
0.0000000001
 43
0.0000000001
 40
0.0
 40
0.0
 40
0.0
 40
0.0
 40
0.1111111111111111
 40
0.1111111111111111
 40
0.1111111111111111
 40
0.1111111111111111
 40
0.2222222222222222
 40
0.2222222222222222
 40
0.2222222222222222
 40
0.2222222222222222
 40
0.3333333333333333
 40
0.3333333333333333
 40
0.3333333333333333
 40
0.3333333333333333
 40
0.4444444444444444
 40
0.4444444444444444
 40
0.4444444444444444
 40
0.4444444444444444
 40
0.5555555555555556
 40
0.5555555555555556
 40
0.5555555555555556
 40
0.5555555555555556
 40
0.6666666666666667
 40
0.6666666666666667
 40
0.6666666666666667
 40
0.6666666666666667
 40
0.7777777777777779
 40
0.7777777777777779
 40
0.7777777777777779
 40
0.7777777777777779
 40
0.8888888888888891
 40
0.8888888888888891
 40
0.8888888888888891
 40
0.8888888888888891
 40
1.0
 40
1.0
 40
1.0
 40
1.0
 10
-60.3545
 20
27.8846
 30
0.0
 10
-60.3545
 20
27.8846
 30
0.0
 10
-66.83750000000001
 20
29.2439
 30
0.0
 10
-66.83750000000001
 20
29.2439
 30
0.0
 10
-66.83750000000001
 20
29.2439
 30
0.0
 10
-66.3777
 20
28.6582
 30
0.0
 10
-66.00790000000001
 20
27.8346
 30
0.0
 10
-65.73
 20
26.7731
 30
0.0
 10
-65.73
 20
26.7731
 30
0.0
 10
-65.73
 20
26.7731
 30
0.0
 10
-66.69150000000001
 20
26.971
 30
0.0
 10
-66.69150000000001
 20
26.971
 30
0.0
 10
-66.69150000000001
 20
26.971
 30
0.0
 10
-66.90140000000001
 20
27.4987
 30
0.0
 10
-67.1773
 20
28.0185
 30
0.0
 10
-67.5172
 20
28.5322
 30
0.0
 10
-67.5172
 20
28.5322
 30
0.0
 10
-67.857
 20
29.046
 30
0.0
 10
-68.1529
 20
29.4318
 30
0.0
 10
-68.4067
 20
29.6897
 30
0.0
 10
-68.4067
 20
29.6897
 30
0.0
 10
-68.56270000000001
 20
29.8456
 30
0.0
 10
-68.7526
 20
29.9936
 30
0.0
 10
-68.97450000000001
 20
30.1335
 30
0.0
 10
-68.97450000000001
 20
30.1335
 30
0.0
 10
-68.97450000000001
 20
30.1335
 30
0.0
 10
-68.97450000000001
 20
30.7492
 30
0.0
 10
-68.97450000000001
 20
30.7492
 30
0.0
 10
-68.97450000000001
 20
30.7492
 30
0.0
 10
-68.97450000000001
 20
30.7492
 30
0.0
 10
-60.3545
 20
28.9521
 30
0.0
 10
-60.3545
 20
28.9521
 30
0.0
 10
-60.3545
 20
28.9521
 30
0.0
 10
-60.3545
 20
28.9521
 30
0.0
 10
-60.3545
 20
27.8846
 30
0.0
 10
-60.3545
 20
27.8846
 30
0.0
  0
SPLINE
  5
3A
330
1F
100
AcDbEntity
  8
LC-012-007-KH--0
 62
   250
100
AcDbSpline
210
0.0
220
0.0
230
1.0
 70
    11
 71
     3
 72
    52
 73
    48
 74
     0
 42
0.0000000001
 43
0.0000000001
 40
0.0
 40
0.0
 40
0.0
 40
0.0
 40
0.0833333333333333
 40
0.0833333333333333
 40
0.0833333333333333
 40
0.0833333333333333
 40
0.1666666666666667
 40
0.1666666666666667
 40
0.1666666666666667
 40
0.1666666666666667
 40
0.25
 40
0.25
 40
0.25
 40
0.25
 40
0.3333333333333333
 40
0.3333333333333333
 40
0.3333333333333333
 40
0.3333333333333333
 40
0.4166666666666666
 40
0.4166666666666666
 40
0.4166666666666666
 40
0.4166666666666666
 40
0.4999999999999999
 40
0.4999999999999999
 40
0.4999999999999999
 40
0.4999999999999999
 40
0.5833333333333333
 40
0.5833333333333333
 40
0.5833333333333333
 40
0.5833333333333333
 40
0.6666666666666666
 40
0.6666666666666666
 40
0.6666666666666666
 40
0.6666666666666666
 40
0.75
 40
0.75
 40
0.75
 40
0.75
 40
0.8333333333333334
 40
0.8333333333333334
 40
0.8333333333333334
 40
0.8333333333333334
 40
0.9166666666666667
 40
0.9166666666666667
 40
0.9166666666666667
 40
0.9166666666666667
 40
1.0
 40
1.0
 40
1.0
 40
1.0
 10
-63.17120000000001
 20
32.5184
 30
0.0
 10
-63.89680000000001
 20
32.5184
 30
0.0
 10
-64.6365
 20
32.6264
 30
0.0
 10
-65.3862
 20
32.8423
 30
0.0
 10
-65.3862
 20
32.8423
 30
0.0
 10
-66.1358
 20
33.0602
 30
0.0
 10
-66.73350000000001
 20
33.3
 30
0.0
 10
-67.1833
 20
33.5659
 30
0.0
 10
-67.1833
 20
33.5659
 30
0.0
 10
-67.6331
 20
33.8318
 30
0.0
 10
-67.9829
 20
34.1077
 30
0.0
 10
-68.2368
 20
34.3915
 30
0.0
 10
-68.2368
 20
34.3915
 30
0.0
 10
-68.4907
 20
34.6774
 30
0.0
 10
-68.6786
 20
34.9573
 30
0.0
 10
-68.7966
 20
35.2331
 30
0.0
 10
-68.7966
 20
35.2331
 30
0.0
 10
-68.9165
 20
35.50700000000001
 30
0.0
 10
-68.97450000000001
 20
35.8129
 30
0.0
 10
-68.97450000000001
 20
36.14870000000001
 30
0.0
 10
-68.97450000000001
 20
36.14870000000001
 30
0.0
 10
-68.97450000000001
 20
36.8044
 30
0.0
 10
-68.73060000000001
 20
37.3521
 30
0.0
 10
-68.2428
 20
37.7919
 30
0.0
 10
-68.2428
 20
37.7919
 30
0.0
 10
-67.75500000000001
 20
38.2317
 30
0.0
 10
-67.0514
 20
38.4516
 30
0.0
 10
-66.1298
 20
38.4516
 30
0.0
 10
-66.1298
 20
38.4516
 30
0.0
 10
-65.1802
 20
38.4516
 30
0.0
 10
-64.2407
 20
38.2977
 30
0.0
 10
-63.3111
 20
37.9938
 30
0.0
 10
-63.3111
 20
37.9938
 30
0.0
 10
-62.2116
 20
37.634
 30
0.0
 10
-61.386
 20
37.1342
 30
0.0
 10
-60.83430000000001
 20
36.4945
 30
0.0
 10
-60.83430000000001
 20
36.4945
 30
0.0
 10
-60.41650000000001
 20
36.0028
 30
0.0
 10
-60.2086
 20
35.44300000000001
 30
0.0
 10
-60.2086
 20
34.8133
 30
0.0
 10
-60.2086
 20
34.8133
 30
0.0
 10
-60.2086
 20
34.1696
 30
0.0
 10
-60.4605
 20
33.6259
 30
0.0
 10
-60.9662
 20
33.1821
 30
0.0
 10
-60.9662
 20
33.1821
 30
0.0
 10
-61.472
 20
32.74030000000001
 30
0.0
 10
-62.20760000000001
 20
32.5184
 30
0.0
 10
-63.17120000000001
 20
32.5184
 30
0.0
  0
SPLINE
  5
3B
330
1F
100
AcDbEntity
  8
LC-012-007-KH--0
 62
   250
100
AcDbSpline
210
0.0
220
0.0
230
1.0
 70
    11
 71
     3
 72
    48
 73
    44
 74
     0
 42
0.0000000001
 43
0.0000000001
 40
0.0
 40
0.0
 40
0.0
 40
0.0
 40
0.0909090909090909
 40
0.0909090909090909
 40
0.0909090909090909
 40
0.0909090909090909
 40
0.1818181818181818
 40
0.1818181818181818
 40
0.1818181818181818
 40
0.1818181818181818
 40
0.2727272727272727
 40
0.2727272727272727
 40
0.2727272727272727
 40
0.2727272727272727
 40
0.3636363636363637
 40
0.3636363636363637
 40
0.3636363636363637
 40
0.3636363636363637
 40
0.4545454545454546
 40
0.4545454545454546
 40
0.4545454545454546
 40
0.4545454545454546
 40
0.5454545454545455
 40
0.5454545454545455
 40
0.5454545454545455
 40
0.5454545454545455
 40
0.6363636363636365
 40
0.6363636363636365
 40
0.6363636363636365
 40
0.6363636363636365
 40
0.7272727272727274
 40
0.7272727272727274
 40
0.7272727272727274
 40
0.7272727272727274
 40
0.8181818181818183
 40
0.8181818181818183
 40
0.8181818181818183
 40
0.8181818181818183
 40
0.9090909090909093
 40
0.9090909090909093
 40
0.9090909090909093
 40
0.9090909090909093
 40
1.0
 40
1.0
 40
1.0
 40
1.0
 10
-62.90130000000001
 20
33.5439
 30
0.0
 10
-62.37560000000001
 20
33.5439
 30
0.0
 10
-61.9637
 20
33.6299
 30
0.0
 10
-61.6659
 20
33.80580000000001
 30
0.0
 10
-61.6659
 20
33.80580000000001
 30
0.0
 10
-61.2561
 20
34.0437
 30
0.0
 10
-61.05220000000001
 20
34.3975
 30
0.0
 10
-61.05220000000001
 20
34.8673
 30
0.0
 10
-61.05220000000001
 20
34.8673
 30
0.0
 10
-61.05220000000001
 20
35.2771
 30
0.0
 10
-61.2361
 20
35.64890000000001
 30
0.0
 10
-61.6079
 20
35.9848
 30
0.0
 10
-61.6079
 20
35.9848
 30
0.0
 10
-62.1317
 20
36.4686
 30
0.0
 10
-62.8973
 20
36.8344
 30
0.0
 10
-63.9068
 20
37.0783
 30
0.0
 10
-63.9068
 20
37.0783
 30
0.0
 10
-64.91640000000001
 20
37.3222
 30
0.0
 10
-65.74000000000001
 20
37.4441
 30
0.0
 10
-66.38170000000001
 20
37.4441
 30
0.0
 10
-66.38170000000001
 20
37.4441
 30
0.0
 10
-66.9974
 20
37.4441
 30
0.0
 10
-67.4432
 20
37.3262
 30
0.0
 10
-67.7171
 20
37.0883
 30
0.0
 10
-67.7171
 20
37.0883
 30
0.0
 10
-67.9889
 20
36.8524
 30
0.0
 10
-68.12690000000001
 20
36.5425
 30
0.0
 10
-68.12690000000001
 20
36.1547
 30
0.0
 10
-68.12690000000001
 20
36.1547
 30
0.0
 10
-68.12690000000001
 20
35.8748
 30
0.0
 10
-68.0549
 20
35.611
 30
0.0
 10
-67.90900000000001
 20
35.3671
 30
0.0
 10
-67.90900000000001
 20
35.3671
 30
0.0
 10
-67.765
 20
35.1232
 30
0.0
 10
-67.5172
 20
34.8893
 30
0.0
 10
-67.1653
 20
34.6674
 30
0.0
 10
-67.1653
 20
34.6674
 30
0.0
 10
-66.6696
 20
34.3515
 30
0.0
 10
-65.92790000000001
 20
34.07570000000001
 30
0.0
 10
-64.9404
 20
33.8418
 30
0.0
 10
-64.9404
 20
33.8418
 30
0.0
 10
-64.0968
 20
33.6419
 30
0.0
 10
-63.41710000000001
 20
33.5439
 30
0.0
 10
-62.90130000000001
 20
33.5439
 30
0.0
  0
SPLINE
  5
3C
330
1F
100
AcDbEntity
  8
LC-012-007-KH--0
 62
   250
100
AcDbSpline
210
0.0
220
0.0
230
1.0
 70
    11
 71
     3
 72
    36
 73
    32
 74
     0
 42
0.0000000001
 43
0.0000000001
 40
0.0
 40
0.0
 40
0.0
 40
0.0
 40
0.125
 40
0.125
 40
0.125
 40
0.125
 40
0.25
 40
0.25
 40
0.25
 40
0.25
 40
0.375
 40
0.375
 40
0.375
 40
0.375
 40
0.5
 40
0.5
 40
0.5
 40
0.5
 40
0.625
 40
0.625
 40
0.625
 40
0.625
 40
0.75
 40
0.75
 40
0.75
 40
0.75
 40
0.875
 40
0.875
 40
0.875
 40
0.875
 40
1.0
 40
1.0
 40
1.0
 40
1.0
 10
-60.3545
 20
38.9894
 30
0.0
 10
-60.3545
 20
38.9894
 30
0.0
 10
-61.5559
 20
39.2413
 30
0.0
 10
-61.5559
 20
39.2413
 30
0.0
 10
-61.5559
 20
39.2413
 30
0.0
 10
-61.5559
 20
39.2413
 30
0.0
 10
-61.5559
 20
40.4487
 30
0.0
 10
-61.5559
 20
40.4487
 30
0.0
 10
-61.5559
 20
40.4487
 30
0.0
 10
-61.5559
 20
40.4487
 30
0.0
 10
-60.50640000000001
 20
40.2308
 30
0.0
 10
-60.50640000000001
 20
40.2308
 30
0.0
 10
-60.50640000000001
 20
40.2308
 30
0.0
 10
-59.8787
 20
40.0989
 30
0.0
 10
-59.41690000000001
 20
39.893
 30
0.0
 10
-59.1251
 20
39.6131
 30
0.0
 10
-59.1251
 20
39.6131
 30
0.0
 10
-58.8312
 20
39.3352
 30
0.0
 10
-58.6633
 20
39.0054
 30
0.0
 10
-58.62130000000001
 20
38.6276
 30
0.0
 10
-58.62130000000001
 20
38.6276
 30
0.0
 10
-58.62130000000001
 20
38.6276
 30
0.0
 10
-59.0831
 20
38.7255
 30
0.0
 10
-59.0831
 20
38.7255
 30
0.0
 10
-59.0831
 20
38.7255
 30
0.0
 10
-59.213
 20
39.19130000000001
 30
0.0
 10
-59.6368
 20
39.4972
 30
0.0
 10
-60.3545
 20
39.6451
 30
0.0
 10
-60.3545
 20
39.6451
 30
0.0
 10
-60.3545
 20
39.6451
 30
0.0
 10
-60.3545
 20
38.9894
 30
0.0
 10
-60.3545
 20
38.9894
 30
0.0
  0
SPLINE
  5
3D
330
1F
100
AcDbEntity
  8
LC-012-007-KH--0
 62
   250
100
AcDbSpline
210
0.0
220
0.0
230
1.0
 70
    11
 71
     3
 72
   120
 73
   116
 74
     0
 42
0.0000000001
 43
0.0000000001
 40
0.0
 40
0.0
 40
0.0
 40
0.0
 40
0.0344827586206897
 40
0.0344827586206897
 40
0.0344827586206897
 40
0.0344827586206897
 40
0.0689655172413793
 40
0.0689655172413793
 40
0.0689655172413793
 40
0.0689655172413793
 40
0.103448275862069
 40
0.103448275862069
 40
0.103448275862069
 40
0.103448275862069
 40
0.1379310344827586
 40
0.1379310344827586
 40
0.1379310344827586
 40
0.1379310344827586
 40
0.1724137931034483
 40
0.1724137931034483
 40
0.1724137931034483
 40
0.1724137931034483
 40
0.206896551724138
 40
0.206896551724138
 40
0.206896551724138
 40
0.206896551724138
 40
0.2413793103448276
 40
0.2413793103448276
 40
0.2413793103448276
 40
0.2413793103448276
 40
0.2758620689655173
 40
0.2758620689655173
 40
0.2758620689655173
 40
0.2758620689655173
 40
0.310344827586207
 40
0.310344827586207
 40
0.310344827586207
 40
0.310344827586207
 40
0.3448275862068966
 40
0.3448275862068966
 40
0.3448275862068966
 40
0.3448275862068966
 40
0.3793103448275863
 40
0.3793103448275863
 40
0.3793103448275863
 40
0.3793103448275863
 40
0.413793103448276
 40
0.413793103448276
 40
0.413793103448276
 40
0.413793103448276
 40
0.4482758620689656
 40
0.4482758620689656
 40
0.4482758620689656
 40
0.4482758620689656
 40
0.4827586206896553
 40
0.4827586206896553
 40
0.4827586206896553
 40
0.4827586206896553
 40
0.517241379310345
 40
0.517241379310345
 40
0.517241379310345
 40
0.517241379310345
 40
0.5517241379310346
 40
0.5517241379310346
 40
0.5517241379310346
 40
0.5517241379310346
 40
0.5862068965517242
 40
0.5862068965517242
 40
0.5862068965517242
 40
0.5862068965517242
 40
0.6206896551724138
 40
0.6206896551724138
 40
0.6206896551724138
 40
0.6206896551724138
 40
0.6551724137931034
 40
0.6551724137931034
 40
0.6551724137931034
 40
0.6551724137931034
 40
0.689655172413793
 40
0.689655172413793
 40
0.689655172413793
 40
0.689655172413793
 40
0.7241379310344827
 40
0.7241379310344827
 40
0.7241379310344827
 40
0.7241379310344827
 40
0.7586206896551723
 40
0.7586206896551723
 40
0.7586206896551723
 40
0.7586206896551723
 40
0.7931034482758619
 40
0.7931034482758619
 40
0.7931034482758619
 40
0.7931034482758619
 40
0.8275862068965515
 40
0.8275862068965515
 40
0.8275862068965515
 40
0.8275862068965515
 40
0.8620689655172411
 40
0.8620689655172411
 40
0.8620689655172411
 40
0.8620689655172411
 40
0.8965517241379307
 40
0.8965517241379307
 40
0.8965517241379307
 40
0.8965517241379307
 40
0.9310344827586203
 40
0.9310344827586203
 40
0.9310344827586203
 40
0.9310344827586203
 40
0.9655172413793099
 40
0.9655172413793099
 40
0.9655172413793099
 40
0.9655172413793099
 40
1.0
 40
1.0
 40
1.0
 40
1.0
 10
-62.8094
 20
42.5097
 30
0.0
 10
-62.8094
 20
42.5097
 30
0.0
 10
-62.9133
 20
43.5872
 30
0.0
 10
-62.9133
 20
43.5872
 30
0.0
 10
-62.9133
 20
43.5872
 30
0.0
 10
-62.7614
 20
43.5792
 30
0.0
 10
-62.6694
 20
43.5752
 30
0.0
 10
-62.6394
 20
43.5752
 30
0.0
 10
-62.6394
 20
43.5752
 30
0.0
 10
-62.38160000000001
 20
43.5752
 30
0.0
 10
-62.1217
 20
43.64120000000001
 30
0.0
 10
-61.8598
 20
43.7711
 30
0.0
 10
-61.8598
 20
43.7711
 30
0.0
 10
-61.5979
 20
43.9031
 30
0.0
 10
-61.398
 20
44.081
 30
0.0
 10
-61.2601
 20
44.3049
 30
0.0
 10
-61.2601
 20
44.3049
 30
0.0
 10
-61.1201
 20
44.5288
 30
0.0
 10
-61.05220000000001
 20
44.7667
 30
0.0
 10
-61.05220000000001
 20
45.0165
 30
0.0
 10
-61.05220000000001
 20
45.0165
 30
0.0
 10
-61.05220000000001
 20
45.3444
 30
0.0
 10
-61.16410000000001
 20
45.6782
 30
0.0
 10
-61.392
 20
46.0181
 30
0.0
 10
-61.392
 20
46.0181
 30
0.0
 10
-61.61790000000001
 20
46.3579
 30
0.0
 10
-61.9478
 20
46.63180000000001
 30
0.0
 10
-62.38160000000001
 20
46.84370000000001
 30
0.0
 10
-62.38160000000001
 20
46.84370000000001
 30
0.0
 10
-62.8134
 20
47.0536
 30
0.0
 10
-63.2432
 20
47.1595
 30
0.0
 10
-63.669
 20
47.1595
 30
0.0
 10
-63.669
 20
47.1595
 30
0.0
 10
-64.14870000000001
 20
47.1595
 30
0.0
 10
-64.53450000000001
 20
47.0176
 30
0.0
 10
-64.8224
 20
46.7357
 30
0.0
 10
-64.8224
 20
46.7357
 30
0.0
 10
-65.11230000000001
 20
46.4519
 30
0.0
 10
-65.25620000000001
 20
46.08000000000001
 30
0.0
 10
-65.25620000000001
 20
45.6203
 30
0.0
 10
-65.25620000000001
 20
45.6203
 30
0.0
 10
-65.25620000000001
 20
45.3104
 30
0.0
 10
-65.18220000000001
 20
45.0185
 30
0.0
 10
-65.0343
 20
44.7447
 30
0.0
 10
-65.0343
 20
44.7447
 30
0.0
 10
-64.88640000000001
 20
44.4688
 30
0.0
 10
-64.66250000000001
 20
44.21290000000001
 30
0.0
 10
-64.36660000000001
 20
43.973
 30
0.0
 10
-64.36660000000001
 20
43.973
 30
0.0
 10
-64.36660000000001
 20
43.973
 30
0.0
 10
-64.4306
 20
43.0475
 30
0.0
 10
-64.4306
 20
43.0475
 30
0.0
 10
-64.4306
 20
43.0475
 30
0.0
 10
-64.4306
 20
43.0475
 30
0.0
 10
-68.82250000000001
 20
44.3429
 30
0.0
 10
-68.82250000000001
 20
44.3429
 30
0.0
 10
-68.82250000000001
 20
44.3429
 30
0.0
 10
-68.82250000000001
 20
44.3429
 30
0.0
 10
-68.82250000000001
 20
48.5369
 30
0.0
 10
-68.82250000000001
 20
48.5369
 30
0.0
 10
-68.82250000000001
 20
48.5369
 30
0.0
 10
-68.82250000000001
 20
48.5369
 30
0.0
 10
-67.851
 20
48.331
 30
0.0
 10
-67.851
 20
48.331
 30
0.0
 10
-67.851
 20
48.331
 30
0.0
 10
-67.851
 20
48.331
 30
0.0
 10
-67.851
 20
45.0685
 30
0.0
 10
-67.851
 20
45.0685
 30
0.0
 10
-67.851
 20
45.0685
 30
0.0
 10
-67.851
 20
45.0685
 30
0.0
 10
-65.666
 20
44.42480000000001
 30
0.0
 10
-65.666
 20
44.42480000000001
 30
0.0
 10
-65.666
 20
44.42480000000001
 30
0.0
 10
-65.84190000000001
 20
44.6667
 30
0.0
 10
-65.9739
 20
44.9166
 30
0.0
 10
-66.06180000000001
 20
45.1705
 30
0.0
 10
-66.06180000000001
 20
45.1705
 30
0.0
 10
-66.1498
 20
45.42630000000001
 30
0.0
 10
-66.19380000000001
 20
45.6902
 30
0.0
 10
-66.19380000000001
 20
45.9601
 30
0.0
 10
-66.19380000000001
 20
45.9601
 30
0.0
 10
-66.19380000000001
 20
46.6158
 30
0.0
 10
-65.97790000000001
 20
47.1535
 30
0.0
 10
-65.5441
 20
47.57530000000001
 30
0.0
 10
-65.5441
 20
47.57530000000001
 30
0.0
 10
-65.11030000000001
 20
47.9971
 30
0.0
 10
-64.5166
 20
48.209
 30
0.0
 10
-63.7629
 20
48.209
 30
0.0
 10
-63.7629
 20
48.209
 30
0.0
 10
-63.1032
 20
48.209
 30
0.0
 10
-62.4955
 20
48.06310000000001
 30
0.0
 10
-61.9378
 20
47.7753
 30
0.0
 10
-61.9378
 20
47.7753
 30
0.0
 10
-61.38200000000001
 20
47.48540000000001
 30
0.0
 10
-60.9542
 20
47.0876
 30
0.0
 10
-60.65640000000001
 20
46.5838
 30
0.0
 10
-60.65640000000001
 20
46.5838
 30
0.0
 10
-60.3565
 20
46.078
 30
0.0
 10
-60.2086
 20
45.5323
 30
0.0
 10
-60.2086
 20
44.9466
 30
0.0
 10
-60.2086
 20
44.9466
 30
0.0
 10
-60.2086
 20
44.4548
 30
0.0
 10
-60.3185
 20
44.01900000000001
 30
0.0
 10
-60.5424
 20
43.6392
 30
0.0
 10
-60.5424
 20
43.6392
 30
0.0
 10
-60.76430000000001
 20
43.2614
 30
0.0
 10
-61.0702
 20
42.9775
 30
0.0
 10
-61.462
 20
42.78760000000001
 30
0.0
 10
-61.462
 20
42.78760000000001
 30
0.0
 10
-61.8518
 20
42.5977
 30
0.0
 10
-62.24160000000001
 20
42.5037
 30
0.0
 10
-62.6334
 20
42.5037
 30
0.0
 10
-62.6334
 20
42.5037
 30
0.0
 10
-62.67140000000001
 20
42.5037
 30
0.0
 10
-62.72940000000001
 20
42.5057
 30
0.0
 10
-62.8094
 20
42.5097
 30
0.0
  0
SPLINE
  5
3E
330
1F
100
AcDbEntity
  8
LC-012-007-KH--0
370
    13
100
AcDbSpline
210
0.0
220
0.0
230
1.0
 70
    27
 71
     3
 72
     8
 73
     4
 74
     0
 42
0.0000000001
 43
0.0000000001
 40
0.0
 40
0.0
 40
0.0
 40
0.0
 40
1.0
 40
1.0
 40
1.0
 40
1.0
 10
134.8609
 20
16.5198
 30
0.0
 10
134.8609
 20
16.5198
 30
0.0
 10
134.8609
 20
16.5198
 30
0.0
 10
134.8609
 20
16.5198
 30
0.0
  0
SPLINE
  5
3F
330
1F
100
AcDbEntity
  8
LC-012-007-KH--0
370
    13
100
AcDbSpline
210
0.0
220
0.0
230
1.0
 70
    24
 71
     3
 72
     8
 73
     4
 74
     0
 42
0.0000000001
 43
0.0000000001
 40
0.0
 40
0.0
 40
0.0
 40
0.0
 40
1.0
 40
1.0
 40
1.0
 40
1.0
 10
131.53
 20
16.5198
 30
0.0
 10
131.53
 20
16.5198
 30
0.0
 10
134.8609
 20
16.5198
 30
0.0
 10
134.8609
 20
16.5198
 30
0.0
  0
SPLINE
  5
40
330
1F
100
AcDbEntity
  8
LC-012-007-KH--0
370
    13
100
AcDbSpline
210
0.0
220
0.0
230
1.0
 70
    27
 71
     3
 72
     8
 73
     4
 74
     0
 42
0.0000000001
 43
0.0000000001
 40
0.0
 40
0.0
 40
0.0
 40
0.0
 40
1.0
 40
1.0
 40
1.0
 40
1.0
 10
131.53
 20
16.5198
 30
0.0
 10
131.53
 20
16.5198
 30
0.0
 10
131.53
 20
16.5198
 30
0.0
 10
131.53
 20
16.5198
 30
0.0
  0
SPLINE
  5
41
330
1F
100
AcDbEntity
  8
LC-012-007-KH--0
370
    13
100
AcDbSpline
210
0.0
220
0.0
230
1.0
 70
    24
 71
     3
 72
     8
 73
     4
 74
     0
 42
0.0000000001
 43
0.0000000001
 40
0.0
 40
0.0
 40
0.0
 40
0.0
 40
1.0
 40
1.0
 40
1.0
 40
1.0
 10
131.53
 20
16.5198
 30
0.0
 10
131.53
 20
16.5198
 30
0.0
 10
131.3204
 20
10.5198
 30
0.0
 10
131.3204
 20
10.5198
 30
0.0
  0
SPLINE
  5
42
330
1F
100
AcDbEntity
  8
LC-012-007-KH--0
370
    13
100
AcDbSpline
210
0.0
220
0.0
230
1.0
 70
    27
 71
     3
 72
     8
 73
     4
 74
     0
 42
0.0000000001
 43
0.0000000001
 40
0.0
 40
0.0
 40
0.0
 40
0.0
 40
1.0
 40
1.0
 40
1.0
 40
1.0
 10
131.3204
 20
10.5198
 30
0.0
 10
131.3204
 20
10.5198
 30
0.0
 10
131.3204
 20
10.5198
 30
0.0
 10
131.3204
 20
10.5198
 30
0.0
  0
SPLINE
  5
43
330
1F
100
AcDbEntity
  8
LC-012-007-KH--0
370
    13
100
AcDbSpline
210
0.0
220
0.0
230
1.0
 70
    24
 71
     3
 72
     8
 73
     4
 74
     0
 42
0.0000000001
 43
0.0000000001
 40
0.0
 40
0.0
 40
0.0
 40
0.0
 40
1.0
 40
1.0
 40
1.0
 40
1.0
 10
131.3204
 20
10.5198
 30
0.0
 10
131.3204
 20
10.5198
 30
0.0
 10
128.8204
 20
10.5198
 30
0.0
 10
128.8204
 20
10.5198
 30
0.0
  0
SPLINE
  5
44
330
1F
100
AcDbEntity
  8
LC-012-007-KH--0
370
    13
100
AcDbSpline
210
0.0
220
0.0
230
1.0
 70
    27
 71
     3
 72
     8
 73
     4
 74
     0
 42
0.0000000001
 43
0.0000000001
 40
0.0
 40
0.0
 40
0.0
 40
0.0
 40
1.0
 40
1.0
 40
1.0
 40
1.0
 10
129.1871
 20
21.0198
 30
0.0
 10
129.1871
 20
21.0198
 30
0.0
 10
129.1871
 20
21.0198
 30
0.0
 10
129.1871
 20
21.0198
 30
0.0
  0
SPLINE
  5
45
330
1F
100
AcDbEntity
  8
LC-012-007-KH--0
370
    13
100
AcDbSpline
210
0.0
220
0.0
230
1.0
 70
    24
 71
     3
 72
     8
 73
     4
 74
     0
 42
0.0000000001
 43
0.0000000001
 40
0.0
 40
0.0
 40
0.0
 40
0.0
 40
1.0
 40
1.0
 40
1.0
 40
1.0
 10
129.1871
 20
21.0198
 30
0.0
 10
129.1871
 20
21.0198
 30
0.0
 10
128.8204
 20
10.5198
 30
0.0
 10
128.8204
 20
10.5198
 30
0.0
  0
SPLINE
  5
46
330
1F
100
AcDbEntity
  8
LC-012-007-KH--0
370
    13
100
AcDbSpline
210
0.0
220
0.0
230
1.0
 70
    27
 71
     3
 72
     8
 73
     4
 74
     0
 42
0.0000000001
 43
0.0000000001
 40
0.0
 40
0.0
 40
0.0
 40
0.0
 40
1.0
 40
1.0
 40
1.0
 40
1.0
 10
136.7038
 20
21.0198
 30
0.0
 10
136.7038
 20
21.0198
 30
0.0
 10
136.7038
 20
21.0198
 30
0.0
 10
136.7038
 20
21.0198
 30
0.0
  0
SPLINE
  5
47
330
1F
100
AcDbEntity
  8
LC-012-007-KH--0
370
    13
100
AcDbSpline
210
0.0
220
0.0
230
1.0
 70
    24
 71
     3
 72
     8
 73
     4
 74
     0
 42
0.0000000001
 43
0.0000000001
 40
0.0
 40
0.0
 40
0.0
 40
0.0
 40
1.0
 40
1.0
 40
1.0
 40
1.0
 10
136.7038
 20
21.0198
 30
0.0
 10
136.7038
 20
21.0198
 30
0.0
 10
129.1871
 20
21.0198
 30
0.0
 10
129.1871
 20
21.0198
 30
0.0
  0
SPLINE
  5
48
330
1F
100
AcDbEntity
  8
LC-012-007-KH--0
370
    13
100
AcDbSpline
210
0.0
220
0.0
230
1.0
 70
    24
 71
     3
 72
     8
 73
     4
 74
     0
 42
0.0000000001
 43
0.0000000001
 40
0.0
 40
0.0
 40
0.0
 40
0.0
 40
1.0
 40
1.0
 40
1.0
 40
1.0
 10
137.0704
 20
10.5198
 30
0.0
 10
137.0704
 20
10.5198
 30
0.0
 10
136.7038
 20
21.0198
 30
0.0
 10
136.7038
 20
21.0198
 30
0.0
  0
SPLINE
  5
49
330
1F
100
AcDbEntity
  8
LC-012-007-KH--0
370
    13
100
AcDbSpline
210
0.0
220
0.0
230
1.0
 70
    24
 71
     3
 72
     8
 73
     4
 74
     0
 42
0.0000000001
 43
0.0000000001
 40
0.0
 40
0.0
 40
0.0
 40
0.0
 40
1.0
 40
1.0
 40
1.0
 40
1.0
 10
135.0704
 20
10.5198
 30
0.0
 10
135.0704
 20
10.5198
 30
0.0
 10
134.8609
 20
16.5198
 30
0.0
 10
134.8609
 20
16.5198
 30
0.0
  0
SPLINE
  5
4A
330
1F
100
AcDbEntity
  8
LC-012-007-KH--0
370
    13
100
AcDbSpline
210
0.0
220
0.0
230
1.0
 70
    27
 71
     3
 72
     8
 73
     4
 74
     0
 42
0.0000000001
 43
0.0000000001
 40
0.0
 40
0.0
 40
0.0
 40
0.0
 40
1.0
 40
1.0
 40
1.0
 40
1.0
 10
137.0704
 20
10.5198
 30
0.0
 10
137.0704
 20
10.5198
 30
0.0
 10
137.0704
 20
10.5198
 30
0.0
 10
137.0704
 20
10.5198
 30
0.0
  0
SPLINE
  5
4B
330
1F
100
AcDbEntity
  8
LC-012-007-KH--0
370
    13
100
AcDbSpline
210
0.0
220
0.0
230
1.0
 70
    24
 71
     3
 72
     8
 73
     4
 74
     0
 42
0.0000000001
 43
0.0000000001
 40
0.0
 40
0.0
 40
0.0
 40
0.0
 40
1.0
 40
1.0
 40
1.0
 40
1.0
 10
137.0704
 20
10.5198
 30
0.0
 10
137.0704
 20
10.5198
 30
0.0
 10
135.0704
 20
10.5198
 30
0.0
 10
135.0704
 20
10.5198
 30
0.0
  0
SPLINE
  5
4C
330
1F
100
AcDbEntity
  8
LC-012-007-KH--0
370
    13
100
AcDbSpline
210
0.0
220
0.0
230
1.0
 70
    24
 71
     3
 72
     8
 73
     4
 74
     0
 42
0.0000000001
 43
0.0000000001
 40
0.0
 40
0.0
 40
0.0
 40
0.0
 40
1.0
 40
1.0
 40
1.0
 40
1.0
 10
-38.5461
 20
21.0198
 30
0.0
 10
-38.5461
 20
21.0198
 30
0.0
 10
-46.0628
 20
21.0198
 30
0.0
 10
-46.0628
 20
21.0198
 30
0.0
  0
SPLINE
  5
4D
330
1F
100
AcDbEntity
  8
LC-012-007-KH--0
370
    13
100
AcDbSpline
210
0.0
220
0.0
230
1.0
 70
    24
 71
     3
 72
     8
 73
     4
 74
     0
 42
0.0000000001
 43
0.0000000001
 40
0.0
 40
0.0
 40
0.0
 40
0.0
 40
1.0
 40
1.0
 40
1.0
 40
1.0
 10
-40.6795
 20
10.5198
 30
0.0
 10
-40.6795
 20
10.5198
 30
0.0
 10
-40.889
 20
16.5198
 30
0.0
 10
-40.889
 20
16.5198
 30
0.0
  0
SPLINE
  5
4E
330
1F
100
AcDbEntity
  8
LC-012-007-KH--0
370
    13
100
AcDbSpline
210
0.0
220
0.0
230
1.0
 70
    24
 71
     3
 72
     8
 73
     4
 74
     0
 42
0.0000000001
 43
0.0000000001
 40
0.0
 40
0.0
 40
0.0
 40
0.0
 40
1.0
 40
1.0
 40
1.0
 40
1.0
 10
-44.2199
 20
16.5198
 30
0.0
 10
-44.2199
 20
16.5198
 30
0.0
 10
-40.889
 20
16.5198
 30
0.0
 10
-40.889
 20
16.5198
 30
0.0
  0
SPLINE
  5
4F
330
1F
100
AcDbEntity
  8
LC-012-007-KH--0
370
    13
100
AcDbSpline
210
0.0
220
0.0
230
1.0
 70
    24
 71
     3
 72
     8
 73
     4
 74
     0
 42
0.0000000001
 43
0.0000000001
 40
0.0
 40
0.0
 40
0.0
 40
0.0
 40
1.0
 40
1.0
 40
1.0
 40
1.0
 10
-38.1795
 20
10.5198
 30
0.0
 10
-38.1795
 20
10.5198
 30
0.0
 10
-40.6795
 20
10.5198
 30
0.0
 10
-40.6795
 20
10.5198
 30
0.0
  0
SPLINE
  5
50
330
1F
100
AcDbEntity
  8
LC-012-007-KH--0
370
    13
100
AcDbSpline
210
0.0
220
0.0
230
1.0
 70
    24
 71
     3
 72
     8
 73
     4
 74
     0
 42
0.0000000001
 43
0.0000000001
 40
0.0
 40
0.0
 40
0.0
 40
0.0
 40
1.0
 40
1.0
 40
1.0
 40
1.0
 10
-38.1795
 20
10.5198
 30
0.0
 10
-38.1795
 20
10.5198
 30
0.0
 10
-38.5461
 20
21.0198
 30
0.0
 10
-38.5461
 20
21.0198
 30
0.0
  0
SPLINE
  5
51
330
1F
100
AcDbEntity
  8
LC-012-007-KH--0
370
    13
100
AcDbSpline
210
0.0
220
0.0
230
1.0
 70
    24
 71
     3
 72
     8
 73
     4
 74
     0
 42
0.0000000001
 43
0.0000000001
 40
0.0
 40
0.0
 40
0.0
 40
0.0
 40
1.0
 40
1.0
 40
1.0
 40
1.0
 10
-46.0628
 20
21.0198
 30
0.0
 10
-46.0628
 20
21.0198
 30
0.0
 10
-46.4295
 20
10.5198
 30
0.0
 10
-46.4295
 20
10.5198
 30
0.0
  0
SPLINE
  5
52
330
1F
100
AcDbEntity
  8
LC-012-007-KH--0
370
    13
100
AcDbSpline
210
0.0
220
0.0
230
1.0
 70
    24
 71
     3
 72
     8
 73
     4
 74
     0
 42
0.0000000001
 43
0.0000000001
 40
0.0
 40
0.0
 40
0.0
 40
0.0
 40
1.0
 40
1.0
 40
1.0
 40
1.0
 10
-44.2199
 20
16.5198
 30
0.0
 10
-44.2199
 20
16.5198
 30
0.0
 10
-44.4295
 20
10.5198
 30
0.0
 10
-44.4295
 20
10.5198
 30
0.0
  0
SPLINE
  5
53
330
1F
100
AcDbEntity
  8
LC-012-007-KH--0
370
    13
100
AcDbSpline
210
0.0
220
0.0
230
1.0
 70
    24
 71
     3
 72
     8
 73
     4
 74
     0
 42
0.0000000001
 43
0.0000000001
 40
0.0
 40
0.0
 40
0.0
 40
0.0
 40
1.0
 40
1.0
 40
1.0
 40
1.0
 10
-44.4295
 20
10.5198
 30
0.0
 10
-44.4295
 20
10.5198
 30
0.0
 10
-46.4295
 20
10.5198
 30
0.0
 10
-46.4295
 20
10.5198
 30
0.0
  0
SPLINE
  5
54
330
1F
100
AcDbEntity
  8
LC-012-007-KH--0
370
    13
100
AcDbSpline
210
0.0
220
0.0
230
1.0
 70
    24
 71
     3
 72
     8
 73
     4
 74
     0
 42
0.0000000001
 43
0.0000000001
 40
0.0
 40
0.0
 40
0.0
 40
0.0
 40
1.0
 40
1.0
 40
1.0
 40
1.0
 10
-38.5461
 20
21.0198
 30
0.0
 10
-38.5461
 20
21.0198
 30
0.0
 10
129.1871
 20
21.0198
 30
0.0
 10
129.1871
 20
21.0198
 30
0.0
  0
SPLINE
  5
55
330
1F
100
AcDbEntity
  8
LC-012-007-KH--0
370
    13
100
AcDbSpline
210
0.0
220
0.0
230
1.0
 70
    27
 71
     3
 72
     8
 73
     4
 74
     0
 42
0.0000000001
 43
0.0000000001
 40
0.0
 40
0.0
 40
0.0
 40
0.0
 40
1.0
 40
1.0
 40
1.0
 40
1.0
 10
128.8204
 20
10.5198
 30
0.0
 10
128.8204
 20
10.5198
 30
0.0
 10
128.8204
 20
10.5198
 30
0.0
 10
128.8204
 20
10.5198
 30
0.0
  0
SPLINE
  5
56
330
1F
100
AcDbEntity
  8
LC-012-007-KH--0
370
    13
100
AcDbSpline
210
0.0
220
0.0
230
1.0
 70
    24
 71
     3
 72
     8
 73
     4
 74
     0
 42
0.0000000001
 43
0.0000000001
 40
0.0
 40
0.0
 40
0.0
 40
0.0
 40
1.0
 40
1.0
 40
1.0
 40
1.0
 10
128.8204
 20
10.5198
 30
0.0
 10
128.8204
 20
10.5198
 30
0.0
 10
-38.1795
 20
10.5198
 30
0.0
 10
-38.1795
 20
10.5198
 30
0.0
  0
SPLINE
  5
57
330
1F
100
AcDbEntity
  8
LC-012-007-KH--0
370
    13
100
AcDbSpline
210
0.0
220
0.0
230
1.0
 70
    27
 71
     3
 72
     8
 73
     4
 74
     0
 42
0.0000000001
 43
0.0000000001
 40
0.0
 40
0.0
 40
0.0
 40
0.0
 40
1.0
 40
1.0
 40
1.0
 40
1.0
 10
135.0704
 20
10.5198
 30
0.0
 10
135.0704
 20
10.5198
 30
0.0
 10
135.0704
 20
10.5198
 30
0.0
 10
135.0704
 20
10.5198
 30
0.0
  0
SPLINE
  5
58
330
1F
100
AcDbEntity
  8
LC-012-007-KH--0
370
    13
100
AcDbSpline
210
0.0
220
0.0
230
1.0
 70
    24
 71
     3
 72
     8
 73
     4
 74
     0
 42
0.0000000001
 43
0.0000000001
 40
0.0
 40
0.0
 40
0.0
 40
0.0
 40
1.0
 40
1.0
 40
1.0
 40
1.0
 10
135.0704
 20
10.5198
 30
0.0
 10
135.0704
 20
10.5198
 30
0.0
 10
131.3204
 20
10.5198
 30
0.0
 10
131.3204
 20
10.5198
 30
0.0
  0
SPLINE
  5
59
330
1F
100
AcDbEntity
  8
LC-012-007-KH--0
370
    13
100
AcDbSpline
210
0.0
220
0.0
230
1.0
 70
    24
 71
     3
 72
     8
 73
     4
 74
     0
 42
0.0000000001
 43
0.0000000001
 40
0.0
 40
0.0
 40
0.0
 40
0.0
 40
1.0
 40
1.0
 40
1.0
 40
1.0
 10
-40.6795
 20
10.5198
 30
0.0
 10
-40.6795
 20
10.5198
 30
0.0
 10
-44.4295
 20
10.5198
 30
0.0
 10
-44.4295
 20
10.5198
 30
0.0
  0
SPLINE
  5
5A
330
1F
100
AcDbEntity
  8
LC-012-007-KH--0
100
AcDbSpline
210
0.0
220
0.0
230
1.0
 70
    27
 71
     3
 72
    12
 73
     8
 74
     0
 42
0.0000000001
 43
0.0000000001
 40
0.0
 40
0.0
 40
0.0
 40
0.0
 40
0.5
 40
0.5
 40
0.5
 40
0.5
 40
1.0
 40
1.0
 40
1.0
 40
1.0
 10
-46.4295
 20
34.8069
 30
0.0
 10
-46.4295
 20
34.8069
 30
0.0
 10
-40.4295
 20
35.70690000000001
 30
0.0
 10
-40.4295
 20
35.70690000000001
 30
0.0
 10
-40.4295
 20
35.70690000000001
 30
0.0
 10
-40.4295
 20
35.70690000000001
 30
0.0
 10
-46.4295
 20
34.8069
 30
0.0
 10
-46.4295
 20
34.8069
 30
0.0
  0
SPLINE
  5
5B
330
1F
100
AcDbEntity
  8
LC-012-007-KH--0
100
AcDbSpline
210
0.0
220
0.0
230
1.0
 70
     8
 71
     3
 72
    12
 73
     8
 74
     0
 42
0.0000000001
 43
0.0000000001
 40
0.0
 40
0.0
 40
0.0
 40
0.0
 40
0.5
 40
0.5
 40
0.5
 40
0.5
 40
1.0
 40
1.0
 40
1.0
 40
1.0
 10
-40.4295
 20
35.70690000000001
 30
0.0
 10
-40.4295
 20
35.70690000000001
 30
0.0
 10
-40.4295
 20
33.9069
 30
0.0
 10
-40.4295
 20
33.9069
 30
0.0
 10
-40.4295
 20
33.9069
 30
0.0
 10
-40.4295
 20
33.9069
 30
0.0
 10
-46.4295
 20
34.8069
 30
0.0
 10
-46.4295
 20
34.8069
 30
0.0
  0
SPLINE
  5
5C
330
1F
100
AcDbEntity
  8
LC-012-007-KH--0
370
     5
100
AcDbSpline
210
0.0
220
0.0
230
1.0
 70
    24
 71
     3
 72
     8
 73
     4
 74
     0
 42
0.0000000001
 43
0.0000000001
 40
0.0
 40
0.0
 40
0.0
 40
0.0
 40
1.0
 40
1.0
 40
1.0
 40
1.0
 10
-46.4295
 20
34.8069
 30
0.0
 10
-46.4295
 20
34.8069
 30
0.0
 10
-40.4295
 20
35.70690000000001
 30
0.0
 10
-40.4295
 20
35.70690000000001
 30
0.0
  0
SPLINE
  5
5D
330
1F
100
AcDbEntity
  8
LC-012-007-KH--0
370
     5
100
AcDbSpline
210
0.0
220
0.0
230
1.0
 70
     8
 71
     3
 72
    12
 73
     8
 74
     0
 42
0.0000000001
 43
0.0000000001
 40
0.0
 40
0.0
 40
0.0
 40
0.0
 40
0.5
 40
0.5
 40
0.5
 40
0.5
 40
1.0
 40
1.0
 40
1.0
 40
1.0
 10
-40.4295
 20
35.70690000000001
 30
0.0
 10
-40.4295
 20
35.70690000000001
 30
0.0
 10
-40.4295
 20
33.9069
 30
0.0
 10
-40.4295
 20
33.9069
 30
0.0
 10
-40.4295
 20
33.9069
 30
0.0
 10
-40.4295
 20
33.9069
 30
0.0
 10
-46.4295
 20
34.8069
 30
0.0
 10
-46.4295
 20
34.8069
 30
0.0
  0
SPLINE
  5
5E
330
1F
100
AcDbEntity
  8
LC-012-007-KH--0
100
AcDbSpline
210
0.0
220
0.0
230
1.0
 70
    27
 71
     3
 72
    12
 73
     8
 74
     0
 42
0.0000000001
 43
0.0000000001
 40
0.0
 40
0.0
 40
0.0
 40
0.0
 40
0.5
 40
0.5
 40
0.5
 40
0.5
 40
1.0
 40
1.0
 40
1.0
 40
1.0
 10
137.0704
 20
34.8069
 30
0.0
 10
137.0704
 20
34.8069
 30
0.0
 10
131.0704
 20
33.9069
 30
0.0
 10
131.0704
 20
33.9069
 30
0.0
 10
131.0704
 20
33.9069
 30
0.0
 10
131.0704
 20
33.9069
 30
0.0
 10
137.0704
 20
34.8069
 30
0.0
 10
137.0704
 20
34.8069
 30
0.0
  0
SPLINE
  5
5F
330
1F
100
AcDbEntity
  8
LC-012-007-KH--0
100
AcDbSpline
210
0.0
220
0.0
230
1.0
 70
     8
 71
     3
 72
    12
 73
     8
 74
     0
 42
0.0000000001
 43
0.0000000001
 40
0.0
 40
0.0
 40
0.0
 40
0.0
 40
0.5
 40
0.5
 40
0.5
 40
0.5
 40
1.0
 40
1.0
 40
1.0
 40
1.0
 10
131.0704
 20
33.9069
 30
0.0
 10
131.0704
 20
33.9069
 30
0.0
 10
131.0704
 20
35.70690000000001
 30
0.0
 10
131.0704
 20
35.70690000000001
 30
0.0
 10
131.0704
 20
35.70690000000001
 30
0.0
 10
131.0704
 20
35.70690000000001
 30
0.0
 10
137.0704
 20
34.8069
 30
0.0
 10
137.0704
 20
34.8069
 30
0.0
  0
SPLINE
  5
60
330
1F
100
AcDbEntity
  8
LC-012-007-KH--0
370
     5
100
AcDbSpline
210
0.0
220
0.0
230
1.0
 70
    24
 71
     3
 72
     8
 73
     4
 74
     0
 42
0.0000000001
 43
0.0000000001
 40
0.0
 40
0.0
 40
0.0
 40
0.0
 40
1.0
 40
1.0
 40
1.0
 40
1.0
 10
137.0704
 20
34.8069
 30
0.0
 10
137.0704
 20
34.8069
 30
0.0
 10
131.0704
 20
33.9069
 30
0.0
 10
131.0704
 20
33.9069
 30
0.0
  0
SPLINE
  5
61
330
1F
100
AcDbEntity
  8
LC-012-007-KH--0
370
     5
100
AcDbSpline
210
0.0
220
0.0
230
1.0
 70
     8
 71
     3
 72
    12
 73
     8
 74
     0
 42
0.0000000001
 43
0.0000000001
 40
0.0
 40
0.0
 40
0.0
 40
0.0
 40
0.5
 40
0.5
 40
0.5
 40
0.5
 40
1.0
 40
1.0
 40
1.0
 40
1.0
 10
131.0704
 20
33.9069
 30
0.0
 10
131.0704
 20
33.9069
 30
0.0
 10
131.0704
 20
35.70690000000001
 30
0.0
 10
131.0704
 20
35.70690000000001
 30
0.0
 10
131.0704
 20
35.70690000000001
 30
0.0
 10
131.0704
 20
35.70690000000001
 30
0.0
 10
137.0704
 20
34.8069
 30
0.0
 10
137.0704
 20
34.8069
 30
0.0
  0
SPLINE
  5
62
330
1F
100
AcDbEntity
  8
LC-012-007-KH--0
370
     5
100
AcDbSpline
210
0.0
220
0.0
230
1.0
 70
    24
 71
     3
 72
     8
 73
     4
 74
     0
 42
0.0000000001
 43
0.0000000001
 40
0.0
 40
0.0
 40
0.0
 40
0.0
 40
1.0
 40
1.0
 40
1.0
 40
1.0
 10
-46.4295
 20
11.5198
 30
0.0
 10
-46.4295
 20
11.5198
 30
0.0
 10
-46.4295
 20
35.8069
 30
0.0
 10
-46.4295
 20
35.8069
 30
0.0
  0
SPLINE
  5
63
330
1F
100
AcDbEntity
  8
LC-012-007-KH--0
370
     5
100
AcDbSpline
210
0.0
220
0.0
230
1.0
 70
    27
 71
     3
 72
     8
 73
     4
 74
     0
 42
0.0000000001
 43
0.0000000001
 40
0.0
 40
0.0
 40
0.0
 40
0.0
 40
1.0
 40
1.0
 40
1.0
 40
1.0
 10
137.0704
 20
35.8069
 30
0.0
 10
137.0704
 20
35.8069
 30
0.0
 10
137.0704
 20
35.8069
 30
0.0
 10
137.0704
 20
35.8069
 30
0.0
  0
SPLINE
  5
64
330
1F
100
AcDbEntity
  8
LC-012-007-KH--0
370
     5
100
AcDbSpline
210
0.0
220
0.0
230
1.0
 70
    24
 71
     3
 72
     8
 73
     4
 74
     0
 42
0.0000000001
 43
0.0000000001
 40
0.0
 40
0.0
 40
0.0
 40
0.0
 40
1.0
 40
1.0
 40
1.0
 40
1.0
 10
137.0704
 20
11.5198
 30
0.0
 10
137.0704
 20
11.5198
 30
0.0
 10
137.0704
 20
35.8069
 30
0.0
 10
137.0704
 20
35.8069
 30
0.0
  0
SPLINE
  5
65
330
1F
100
AcDbEntity
  8
LC-012-007-KH--0
370
     5
100
AcDbSpline
210
0.0
220
0.0
230
1.0
 70
    24
 71
     3
 72
     8
 73
     4
 74
     0
 42
0.0000000001
 43
0.0000000001
 40
0.0
 40
0.0
 40
0.0
 40
0.0
 40
1.0
 40
1.0
 40
1.0
 40
1.0
 10
-46.4295
 20
34.8069
 30
0.0
 10
-46.4295
 20
34.8069
 30
0.0
 10
137.0704
 20
34.8069
 30
0.0
 10
137.0704
 20
34.8069
 30
0.0
  0
SPLINE
  5
66
330
1F
100
AcDbEntity
  8
LC-012-007-KH--0
100
AcDbSpline
210
0.0
220
0.0
230
1.0
 70
    27
 71
     3
 72
    12
 73
     8
 74
     0
 42
0.0000000001
 43
0.0000000001
 40
0.0
 40
0.0
 40
0.0
 40
0.0
 40
0.5
 40
0.5
 40
0.5
 40
0.5
 40
1.0
 40
1.0
 40
1.0
 40
1.0
 10
-58.1921
 20
21.0198
 30
0.0
 10
-58.1921
 20
21.0198
 30
0.0
 10
-59.0921
 20
27.0198
 30
0.0
 10
-59.0921
 20
27.0198
 30
0.0
 10
-59.0921
 20
27.0198
 30
0.0
 10
-59.0921
 20
27.0198
 30
0.0
 10
-58.1921
 20
21.0198
 30
0.0
 10
-58.1921
 20
21.0198
 30
0.0
  0
SPLINE
  5
67
330
1F
100
AcDbEntity
  8
LC-012-007-KH--0
100
AcDbSpline
210
0.0
220
0.0
230
1.0
 70
     8
 71
     3
 72
    12
 73
     8
 74
     0
 42
0.0000000001
 43
0.0000000001
 40
0.0
 40
0.0
 40
0.0
 40
0.0
 40
0.5
 40
0.5
 40
0.5
 40
0.5
 40
1.0
 40
1.0
 40
1.0
 40
1.0
 10
-59.0921
 20
27.0198
 30
0.0
 10
-59.0921
 20
27.0198
 30
0.0
 10
-57.29210000000001
 20
27.0198
 30
0.0
 10
-57.29210000000001
 20
27.0198
 30
0.0
 10
-57.29210000000001
 20
27.0198
 30
0.0
 10
-57.29210000000001
 20
27.0198
 30
0.0
 10
-58.1921
 20
21.0198
 30
0.0
 10
-58.1921
 20
21.0198
 30
0.0
  0
SPLINE
  5
68
330
1F
100
AcDbEntity
  8
LC-012-007-KH--0
370
     5
100
AcDbSpline
210
0.0
220
0.0
230
1.0
 70
    24
 71
     3
 72
     8
 73
     4
 74
     0
 42
0.0000000001
 43
0.0000000001
 40
0.0
 40
0.0
 40
0.0
 40
0.0
 40
1.0
 40
1.0
 40
1.0
 40
1.0
 10
-58.1921
 20
21.0198
 30
0.0
 10
-58.1921
 20
21.0198
 30
0.0
 10
-59.0921
 20
27.0198
 30
0.0
 10
-59.0921
 20
27.0198
 30
0.0
  0
SPLINE
  5
69
330
1F
100
AcDbEntity
  8
LC-012-007-KH--0
370
     5
100
AcDbSpline
210
0.0
220
0.0
230
1.0
 70
     8
 71
     3
 72
    12
 73
     8
 74
     0
 42
0.0000000001
 43
0.0000000001
 40
0.0
 40
0.0
 40
0.0
 40
0.0
 40
0.5
 40
0.5
 40
0.5
 40
0.5
 40
1.0
 40
1.0
 40
1.0
 40
1.0
 10
-59.0921
 20
27.0198
 30
0.0
 10
-59.0921
 20
27.0198
 30
0.0
 10
-57.29210000000001
 20
27.0198
 30
0.0
 10
-57.29210000000001
 20
27.0198
 30
0.0
 10
-57.29210000000001
 20
27.0198
 30
0.0
 10
-57.29210000000001
 20
27.0198
 30
0.0
 10
-58.1921
 20
21.0198
 30
0.0
 10
-58.1921
 20
21.0198
 30
0.0
  0
SPLINE
  5
6A
330
1F
100
AcDbEntity
  8
LC-012-007-KH--0
100
AcDbSpline
210
0.0
220
0.0
230
1.0
 70
    27
 71
     3
 72
    12
 73
     8
 74
     0
 42
0.0000000001
 43
0.0000000001
 40
0.0
 40
0.0
 40
0.0
 40
0.0
 40
0.5
 40
0.5
 40
0.5
 40
0.5
 40
1.0
 40
1.0
 40
1.0
 40
1.0
 10
-58.1921
 20
10.5198
 30
0.0
 10
-58.1921
 20
10.5198
 30
0.0
 10
-57.29210000000001
 20
4.5198
 30
0.0
 10
-57.29210000000001
 20
4.5198
 30
0.0
 10
-57.29210000000001
 20
4.5198
 30
0.0
 10
-57.29210000000001
 20
4.5198
 30
0.0
 10
-58.1921
 20
10.5198
 30
0.0
 10
-58.1921
 20
10.5198
 30
0.0
  0
SPLINE
  5
6B
330
1F
100
AcDbEntity
  8
LC-012-007-KH--0
100
AcDbSpline
210
0.0
220
0.0
230
1.0
 70
     8
 71
     3
 72
    12
 73
     8
 74
     0
 42
0.0000000001
 43
0.0000000001
 40
0.0
 40
0.0
 40
0.0
 40
0.0
 40
0.5
 40
0.5
 40
0.5
 40
0.5
 40
1.0
 40
1.0
 40
1.0
 40
1.0
 10
-57.29210000000001
 20
4.5198
 30
0.0
 10
-57.29210000000001
 20
4.5198
 30
0.0
 10
-59.0921
 20
4.5198
 30
0.0
 10
-59.0921
 20
4.5198
 30
0.0
 10
-59.0921
 20
4.5198
 30
0.0
 10
-59.0921
 20
4.5198
 30
0.0
 10
-58.1921
 20
10.5198
 30
0.0
 10
-58.1921
 20
10.5198
 30
0.0
  0
SPLINE
  5
6C
330
1F
100
AcDbEntity
  8
LC-012-007-KH--0
370
     5
100
AcDbSpline
210
0.0
220
0.0
230
1.0
 70
    24
 71
     3
 72
     8
 73
     4
 74
     0
 42
0.0000000001
 43
0.0000000001
 40
0.0
 40
0.0
 40
0.0
 40
0.0
 40
1.0
 40
1.0
 40
1.0
 40
1.0
 10
-58.1921
 20
10.5198
 30
0.0
 10
-58.1921
 20
10.5198
 30
0.0
 10
-57.29210000000001
 20
4.5198
 30
0.0
 10
-57.29210000000001
 20
4.5198
 30
0.0
  0
SPLINE
  5
6D
330
1F
100
AcDbEntity
  8
LC-012-007-KH--0
370
     5
100
AcDbSpline
210
0.0
220
0.0
230
1.0
 70
     8
 71
     3
 72
    12
 73
     8
 74
     0
 42
0.0000000001
 43
0.0000000001
 40
0.0
 40
0.0
 40
0.0
 40
0.0
 40
0.5
 40
0.5
 40
0.5
 40
0.5
 40
1.0
 40
1.0
 40
1.0
 40
1.0
 10
-57.29210000000001
 20
4.5198
 30
0.0
 10
-57.29210000000001
 20
4.5198
 30
0.0
 10
-59.0921
 20
4.5198
 30
0.0
 10
-59.0921
 20
4.5198
 30
0.0
 10
-59.0921
 20
4.5198
 30
0.0
 10
-59.0921
 20
4.5198
 30
0.0
 10
-58.1921
 20
10.5198
 30
0.0
 10
-58.1921
 20
10.5198
 30
0.0
  0
SPLINE
  5
6E
330
1F
100
AcDbEntity
  8
LC-012-007-KH--0
370
     5
100
AcDbSpline
210
0.0
220
0.0
230
1.0
 70
    24
 71
     3
 72
     8
 73
     4
 74
     0
 42
0.0000000001
 43
0.0000000001
 40
0.0
 40
0.0
 40
0.0
 40
0.0
 40
1.0
 40
1.0
 40
1.0
 40
1.0
 10
-47.0628
 20
21.0198
 30
0.0
 10
-47.0628
 20
21.0198
 30
0.0
 10
-59.1921
 20
21.0198
 30
0.0
 10
-59.1921
 20
21.0198
 30
0.0
  0
SPLINE
  5
6F
330
1F
100
AcDbEntity
  8
LC-012-007-KH--0
370
     5
100
AcDbSpline
210
0.0
220
0.0
230
1.0
 70
    24
 71
     3
 72
     8
 73
     4
 74
     0
 42
0.0000000001
 43
0.0000000001
 40
0.0
 40
0.0
 40
0.0
 40
0.0
 40
1.0
 40
1.0
 40
1.0
 40
1.0
 10
-41.6795
 20
10.5198
 30
0.0
 10
-41.6795
 20
10.5198
 30
0.0
 10
-59.1921
 20
10.5198
 30
0.0
 10
-59.1921
 20
10.5198
 30
0.0
  0
SPLINE
  5
70
330
1F
100
AcDbEntity
  8
LC-012-007-KH--0
370
     5
100
AcDbSpline
210
0.0
220
0.0
230
1.0
 70
    24
 71
     3
 72
     8
 73
     4
 74
     0
 42
0.0000000001
 43
0.0000000001
 40
0.0
 40
0.0
 40
0.0
 40
0.0
 40
1.0
 40
1.0
 40
1.0
 40
1.0
 10
-58.1921
 20
21.0198
 30
0.0
 10
-58.1921
 20
21.0198
 30
0.0
 10
-58.1921
 20
49.665
 30
0.0
 10
-58.1921
 20
49.665
 30
0.0
  0
SPLINE
  5
71
330
1F
100
AcDbEntity
  8
LC-012-007-KH--0
370
     5
100
AcDbSpline
210
0.0
220
0.0
230
1.0
 70
    24
 71
     3
 72
     8
 73
     4
 74
     0
 42
0.0000000001
 43
0.0000000001
 40
0.0
 40
0.0
 40
0.0
 40
0.0
 40
1.0
 40
1.0
 40
1.0
 40
1.0
 10
-58.1921
 20
21.0198
 30
0.0
 10
-58.1921
 20
21.0198
 30
0.0
 10
-58.1921
 20
10.5198
 30
0.0
 10
-58.1921
 20
10.5198
 30
0.0
  0
SPLINE
  5
72
330
1F
100
AcDbEntity
  8
LC-012-007-KH--0
370
     5
100
AcDbSpline
210
0.0
220
0.0
230
1.0
 70
    24
 71
     3
 72
     8
 73
     4
 74
     0
 42
0.0000000001
 43
0.0000000001
 40
0.0
 40
0.0
 40
0.0
 40
0.0
 40
1.0
 40
1.0
 40
1.0
 40
1.0
 10
-58.1921
 20
10.5198
 30
0.0
 10
-58.1921
 20
10.5198
 30
0.0
 10
-58.1921
 20
-1.4802
 30
0.0
 10
-58.1921
 20
-1.4802
 30
0.0
  0
SPLINE
  5
73
330
1F
100
AcDbEntity
  8
LC-012-007-KH--0
  6
New Line1
370
     5
100
AcDbSpline
210
0.0
220
0.0
230
1.0
 70
    24
 71
     3
 72
     8
 73
     4
 74
     0
 42
0.0000000001
 43
0.0000000001
 40
0.0
 40
0.0
 40
0.0
 40
0.0
 40
1.0
 40
1.0
 40
1.0
 40
1.0
 10
45.3205
 20
8.5198
 30
0.0
 10
45.3205
 20
8.5198
 30
0.0
 10
45.3205
 20
23.0198
 30
0.0
 10
45.3205
 20
23.0198
 30
0.0
  0
ENDSEC
  0
SECTION
  2
OBJECTS
  0
DICTIONARY
  5
C
330
0
100
AcDbDictionary
281
     1
  3
ACAD_GROUP
350
D
  3
ACAD_LAYOUT
350
1A
  3
ACAD_MLINESTYLE
350
17
  3
ACAD_PLOTSETTINGS
350
19
  3
ACAD_PLOTSTYLENAME
350
E
  0
DICTIONARY
  5
D
102
{ACAD_REACTORS
330
C
102
}
330
C
100
AcDbDictionary
281
     1
  0
DICTIONARY
  5
1A
102
{ACAD_REACTORS
330
C
102
}
330
C
100
AcDbDictionary
281
     1
  3
Layout1
350
1E
  3
Layout2
350
26
  3
Model
350
22
  0
DICTIONARY
  5
17
102
{ACAD_REACTORS
330
C
102
}
330
C
100
AcDbDictionary
281
     1
  3
Standard
350
18
  0
DICTIONARY
  5
19
102
{ACAD_REACTORS
330
C
102
}
330
C
100
AcDbDictionary
281
     1
  0
ACDBDICTIONARYWDFLT
  5
E
102
{ACAD_REACTORS
330
C
102
}
330
C
100
AcDbDictionary
281
     1
  3
Normal
350
F
100
AcDbDictionaryWithDefault
340
F
  0
LAYOUT
  5
1E
102
{ACAD_REACTORS
330
1A
102
}
330
1A
100
AcDbPlotSettings
  1

  2

  4

  6

 40
0.0
 41
0.0
 42
0.0
 43
0.0
 44
0.0
 45
0.0
 46
0.0
 47
0.0
 48
0.0
 49
0.0
140
0.0
141
0.0
142
1.0
143
1.0
 70
   688
 72
     0
 73
     0
 74
     5
  7

 75
    16
 76
     0
 77
     2
 78
   300
147
1.0
148
0.0
149
0.0
100
AcDbLayout
  1
Layout1
 70
     1
 71
     1
 10
0.0
 20
0.0
 11
12.0
 21
9.0
 12
0.0
 22
0.0
 32
0.0
 14
1.000000000000000E+20
 24
1.000000000000000E+20
 34
1.000000000000000E+20
 15
-1.000000000000000E+20
 25
-1.000000000000000E+20
 35
-1.000000000000000E+20
146
0.0
 13
0.0
 23
0.0
 33
0.0
 16
1.0
 26
0.0
 36
0.0
 17
0.0
 27
1.0
 37
0.0
 76
     0
330
1B
  0
LAYOUT
  5
26
102
{ACAD_REACTORS
330
1A
102
}
330
1A
100
AcDbPlotSettings
  1

  2

  4

  6

 40
0.0
 41
0.0
 42
0.0
 43
0.0
 44
0.0
 45
0.0
 46
0.0
 47
0.0
 48
0.0
 49
0.0
140
0.0
141
0.0
142
1.0
143
1.0
 70
   688
 72
     0
 73
     0
 74
     5
  7

 75
    16
 76
     0
 77
     2
 78
   300
147
1.0
148
0.0
149
0.0
100
AcDbLayout
  1
Layout2
 70
     1
 71
     2
 10
0.0
 20
0.0
 11
0.0
 21
0.0
 12
0.0
 22
0.0
 32
0.0
 14
0.0
 24
0.0
 34
0.0
 15
0.0
 25
0.0
 35
0.0
146
0.0
 13
0.0
 23
0.0
 33
0.0
 16
1.0
 26
0.0
 36
0.0
 17
0.0
 27
1.0
 37
0.0
 76
     0
330
23
  0
LAYOUT
  5
22
102
{ACAD_REACTORS
330
1A
102
}
330
1A
100
AcDbPlotSettings
  1

  2

  4

  6

 40
0.0
 41
0.0
 42
0.0
 43
0.0
 44
0.0
 45
0.0
 46
0.0
 47
0.0
 48
0.0
 49
0.0
140
0.0
141
0.0
142
1.0
143
1.0
 70
  1712
 72
     0
 73
     0
 74
     0
  7

 75
     0
 76
     0
 77
     2
 78
   300
147
1.0
148
0.0
149
0.0
100
AcDbLayout
  1
Model
 70
     1
 71
     0
 10
0.0
 20
0.0
 11
0.0
 21
0.0
 12
0.0
 22
0.0
 32
0.0
 14
-68.9765
 24
-1.4802
 34
0.0
 15
137.1451
 25
49.665
 35
0.0
146
0.0
 13
0.0
 23
0.0
 33
0.0
 16
1.0
 26
0.0
 36
0.0
 17
0.0
 27
1.0
 37
0.0
 76
     0
330
1F
  0
MLINESTYLE
  5
18
102
{ACAD_REACTORS
330
17
102
}
330
17
100
AcDbMlineStyle
  2
Standard
 70
     0
  3

 62
   256
 51
90.0
 52
90.0
 71
     2
 49
0.5
 62
   256
  6
BYLAYER
 49
-0.5
 62
   256
  6
BYLAYER
  0
ACDBPLACEHOLDER
  5
F
102
{ACAD_REACTORS
330
E
102
}
330
E
  0
ENDSEC
  0
EOF
