  0
SECTION
  2
HEADER
  9
$ACADVER
  1
AC1015
  9
$ACADMAINTVER
 70
     6
  9
$DWGCODEPAGE
  3
ANSI_1252
  9
$INSBASE
 10
0.0
 20
0.0
 30
0.0
  9
$EXTMIN
 10
0.0
 20
0.0
 30
0.0
  9
$EXTMAX
 10
420.0
 20
297.0
 30
0.0
  9
$LIMMIN
 10
0.0
 20
0.0
  9
$LIMMAX
 10
420.0
 20
297.0
  9
$ORTHOMODE
 70
     0
  9
$REGENMODE
 70
     1
  9
$FILLMODE
 70
     1
  9
$QTEXTMODE
 70
     0
  9
$MIRRTEXT
 70
     1
  9
$LTSCALE
 40
1.0
  9
$ATTMODE
 70
     1
  9
$TEXTSIZE
 40
3.5
  9
$TRACEWID
 40
1.0
  9
$TEXTSTYLE
  7
Standard
  9
$CLAYER
  8
0
  9
$CELTYPE
  6
ByLayer
  9
$CECOLOR
 62
   256
  9
$CELTSCALE
 40
1.0
  9
$DISPSILH
 70
     0
  9
$DIMSCALE
 40
1.0
  9
$DIMASZ
 40
6.0
  9
$DIMEXO
 40
1.0
  9
$DIMDLI
 40
3.75
  9
$DIMRND
 40
0.0
  9
$DIMDLE
 40
0.0
  9
$DIMEXE
 40
1.0
  9
$DIMTP
 40
0.0
  9
$DIMTM
 40
0.0
  9
$DIMTXT
 40
3.5
  9
$DIMCEN
 40
2.5
  9
$DIMTSZ
 40
0.0
  9
$DIMTOL
 70
     0
  9
$DIMLIM
 70
     0
  9
$DIMTIH
 70
     1
  9
$DIMTOH
 70
     1
  9
$DIMSE1
 70
     0
  9
$DIMSE2
 70
     0
  9
$DIMTAD
 70
     1
  9
$DIMZIN
 70
     1
  9
$DIMBLK
  1

  9
$DIMASO
 70
     1
  9
$DIMSHO
 70
     1
  9
$DIMPOST
  1

  9
$DIMAPOST
  1

  9
$DIMALT
 70
     0
  9
$DIMALTD
 70
     3
  9
$DIMALTF
 40
0.0393700787
  9
$DIMLFAC
 40
5.0
  9
$DIMTOFL
 70
     1
  9
$DIMTVP
 40
0.0
  9
$DIMTIX
 70
     0
  9
$DIMSOXD
 70
     0
  9
$DIMSAH
 70
     0
  9
$DIMBLK1
  1

  9
$DIMBLK2
  1

  9
$DIMSTYLE
  2
ISO-25
  9
$DIMCLRD
 70
     0
  9
$DIMCLRE
 70
     0
  9
$DIMCLRT
 70
     0
  9
$DIMTFAC
 40
1.0
  9
$DIMGAP
 40
1.524
  9
$DIMJUST
 70
     0
  9
$DIMSD1
 70
     0
  9
$DIMSD2
 70
     0
  9
$DIMTOLJ
 70
     0
  9
$DIMTZIN
 70
     1
  9
$DIMALTZ
 70
     0
  9
$DIMALTTZ
 70
     0
  9
$DIMUPT
 70
     0
  9
$DIMDEC
 70
     2
  9
$DIMTDEC
 70
     2
  9
$DIMALTU
 70
     2
  9
$DIMALTTD
 70
     3
  9
$DIMTXSTY
  7
Standard
  9
$DIMAUNIT
 70
     0
  9
$DIMADEC
 70
     2
  9
$DIMALTRND
 40
0.0
  9
$DIMAZIN
 70
     0
  9
$DIMDSEP
 70
    44
  9
$DIMATFIT
 70
     3
  9
$DIMFRAC
 70
     0
  9
$DIMLDRBLK
  1

  9
$DIMLUNIT
 70
     2
  9
$DIMLWD
 70
    -2
  9
$DIMLWE
 70
    -2
  9
$DIMTMOVE
 70
     0
  9
$LUNITS
 70
     2
  9
$LUPREC
 70
     2
  9
$SKETCHINC
 40
1.0
  9
$FILLETRAD
 40
10.0
  9
$AUNITS
 70
     0
  9
$AUPREC
 70
     2
  9
$MENU
  1
.
  9
$ELEVATION
 40
0.0
  9
$PELEVATION
 40
0.0
  9
$THICKNESS
 40
0.0
  9
$LIMCHECK
 70
     0
  9
$CHAMFERA
 40
0.0
  9
$CHAMFERB
 40
0.0
  9
$CHAMFERC
 40
0.0
  9
$CHAMFERD
 40
0.0
  9
$SKPOLY
 70
     0
  9
$TDCREATE
 40
2458015.339608796
  9
$TDUCREATE
 40
2458015.256275463
  9
$TDUPDATE
 40
2458015.339609421
  9
$TDUUPDATE
 40
2458015.256276088
  9
$TDINDWG
 40
0.0000000116
  9
$TDUSRTIMER
 40
0.0000000116
  9
$USRTIMER
 70
     1
  9
$ANGBASE
 50
0.0
  9
$ANGDIR
 70
     0
  9
$PDMODE
 70
     0
  9
$PDSIZE
 40
-1.0
  9
$PLINEWID
 40
0.0
  9
$SPLFRAME
 70
     0
  9
$SPLINETYPE
 70
     6
  9
$SPLINESEGS
 70
     8
  9
$HANDSEED
  5
5B6
  9
$SURFTAB1
 70
     6
  9
$SURFTAB2
 70
     6
  9
$SURFTYPE
 70
     6
  9
$SURFU
 70
     6
  9
$SURFV
 70
     6
  9
$UCSBASE
  2

  9
$UCSNAME
  2

  9
$UCSORG
 10
0.0
 20
0.0
 30
0.0
  9
$UCSXDIR
 10
1.0
 20
0.0
 30
0.0
  9
$UCSYDIR
 10
0.0
 20
1.0
 30
0.0
  9
$UCSORTHOREF
  2

  9
$UCSORTHOVIEW
 70
     0
  9
$UCSORGTOP
 10
0.0
 20
0.0
 30
0.0
  9
$UCSORGBOTTOM
 10
0.0
 20
0.0
 30
0.0
  9
$UCSORGLEFT
 10
0.0
 20
0.0
 30
0.0
  9
$UCSORGRIGHT
 10
0.0
 20
0.0
 30
0.0
  9
$UCSORGFRONT
 10
0.0
 20
0.0
 30
0.0
  9
$UCSORGBACK
 10
0.0
 20
0.0
 30
0.0
  9
$PUCSBASE
  2

  9
$PUCSNAME
  2

  9
$PUCSORG
 10
0.0
 20
0.0
 30
0.0
  9
$PUCSXDIR
 10
1.0
 20
0.0
 30
0.0
  9
$PUCSYDIR
 10
0.0
 20
1.0
 30
0.0
  9
$PUCSORTHOREF
  2

  9
$PUCSORTHOVIEW
 70
     0
  9
$PUCSORGTOP
 10
0.0
 20
0.0
 30
0.0
  9
$PUCSORGBOTTOM
 10
0.0
 20
0.0
 30
0.0
  9
$PUCSORGLEFT
 10
0.0
 20
0.0
 30
0.0
  9
$PUCSORGRIGHT
 10
0.0
 20
0.0
 30
0.0
  9
$PUCSORGFRONT
 10
0.0
 20
0.0
 30
0.0
  9
$PUCSORGBACK
 10
0.0
 20
0.0
 30
0.0
  9
$USERI1
 70
     0
  9
$USERI2
 70
     0
  9
$USERI3
 70
     0
  9
$USERI4
 70
     0
  9
$USERI5
 70
     0
  9
$USERR1
 40
0.0
  9
$USERR2
 40
0.0
  9
$USERR3
 40
0.0
  9
$USERR4
 40
0.0
  9
$USERR5
 40
0.0
  9
$WORLDVIEW
 70
     1
  9
$SHADEDGE
 70
     3
  9
$SHADEDIF
 70
    70
  9
$TILEMODE
 70
     1
  9
$MAXACTVP
 70
    64
  9
$PINSBASE
 10
0.0
 20
0.0
 30
0.0
  9
$PLIMCHECK
 70
     0
  9
$PEXTMIN
 10
1.0000000000E+20
 20
1.0000000000E+20
 30
1.0000000000E+20
  9
$PEXTMAX
 10
-1.0000000000E+20
 20
-1.0000000000E+20
 30
-1.0000000000E+20
  9
$PLIMMIN
 10
0.0
 20
0.0
  9
$PLIMMAX
 10
420.0
 20
297.0
  9
$UNITMODE
 70
     0
  9
$VISRETAIN
 70
     1
  9
$PLINEGEN
 70
     0
  9
$PSLTSCALE
 70
     1
  9
$TREEDEPTH
 70
  3020
  9
$CMLSTYLE
  2
Standard
  9
$CMLJUST
 70
     0
  9
$CMLSCALE
 40
20.0
  9
$PROXYGRAPHICS
 70
     1
  9
$MEASUREMENT
 70
     1
  9
$CELWEIGHT
370
    -1
  9
$ENDCAPS
280
     0
  9
$JOINSTYLE
280
     0
  9
$LWDISPLAY
290
     1
  9
$INSUNITS
 70
     4
  9
$HYPERLINKBASE
  1

  9
$STYLESHEET
  1

  9
$XEDIT
290
     1
  9
$CEPSNTYPE
380
     0
  9
$PSTYLEMODE
290
     1
  9
$FINGERPRINTGUID
  2
{C852100E-3683-4AD6-9DCE-305C80FBBD9B}
  9
$VERSIONGUID
  2
{FAEB1C32-E019-11D5-929B-00C0DF256EC4}
  9
$EXTNAMES
290
     1
  9
$PSVPSCALE
 40
0.0
  9
$OLESTARTUP
290
     0
  0
ENDSEC
  0
SECTION
  2
CLASSES
  0
CLASS
  1
ACDBDICTIONARYWDFLT
  2
AcDbDictionaryWithDefault
  3
ObjectDBX Classes
 90
        0
280
     0
281
     0
  0
CLASS
  1
VISUALSTYLE
  2
AcDbVisualStyle
  3
ObjectDBX Classes
 90
     4095
280
     0
281
     0
  0
CLASS
  1
MATERIAL
  2
AcDbMaterial
  3
ObjectDBX Classes
 90
     1153
280
     0
281
     0
  0
CLASS
  1
SCALE
  2
AcDbScale
  3
ObjectDBX Classes
 90
     1153
280
     0
281
     0
  0
CLASS
  1
TABLESTYLE
  2
AcDbTableStyle
  3
ObjectDBX Classes
 90
     4095
280
     0
281
     0
  0
CLASS
  1
MLEADERSTYLE
  2
AcDbMLeaderStyle
  3
ACDB_MLEADERSTYLE_CLASS
 90
     4095
280
     0
281
     0
  0
CLASS
  1
SUN
  2
AcDbSun
  3
SCENEOE
 90
     1153
280
     0
281
     0
  0
CLASS
  1
ACDBPLACEHOLDER
  2
AcDbPlaceHolder
  3
ObjectDBX Classes
 90
        0
280
     0
281
     0
  0
CLASS
  1
LAYOUT
  2
AcDbLayout
  3
ObjectDBX Classes
 90
        0
280
     0
281
     0
  0
ENDSEC
  0
SECTION
  2
TABLES
  0
TABLE
  2
VPORT
  5
8
330
0
100
AcDbSymbolTable
 70
     1
  0
VPORT
  5
29
330
8
100
AcDbSymbolTableRecord
100
AcDbViewportTableRecord
  2
*Active
 70
     0
 10
0.0
 20
0.0
 11
1.0
 21
1.0
 12
210.0
 22
148.5
 13
0.0
 23
0.0
 14
10.0
 24
10.0
 15
10.0
 25
10.0
 16
0.0
 26
0.0
 36
1.0
 17
0.0
 27
0.0
 37
0.0
 40
297.0
 41
1.4141414141
 42
50.0
 43
0.0
 44
0.0
 50
0.0
 51
0.0
 71
     0
 72
  2000
 73
     1
 74
     3
 75
     0
 76
     0
 77
     0
 78
     0
281
     0
 65
     1
110
0.0
120
0.0
130
0.0
111
1.0
121
0.0
131
0.0
112
0.0
122
1.0
132
0.0
 79
     0
146
0.0
  0
ENDTAB
  0
TABLE
  2
LTYPE
  5
5
330
0
100
AcDbSymbolTable
 70
     8
  0
LTYPE
  5
14
330
5
100
AcDbSymbolTableRecord
100
AcDbLinetypeTableRecord
  2
ByBlock
 70
     0
  3

 72
    65
 73
     0
 40
0.0
  0
LTYPE
  5
15
330
5
100
AcDbSymbolTableRecord
100
AcDbLinetypeTableRecord
  2
ByLayer
 70
     0
  3

 72
    65
 73
     0
 40
0.0
  0
LTYPE
  5
16
330
5
100
AcDbSymbolTableRecord
100
AcDbLinetypeTableRecord
  2
Continuous
 70
     0
  3
Solid line
 72
    65
 73
     0
 40
0.0
  0
LTYPE
  5
6E
330
5
100
AcDbSymbolTableRecord
100
AcDbLinetypeTableRecord
  2
SLD-Durchgehend
 70
     0
  3
SolidWorks Line Style
 72
    65
 73
     0
 40
0.0
  0
LTYPE
  5
6F
330
5
100
AcDbSymbolTableRecord
100
AcDbLinetypeTableRecord
  2
SLD-Gestrichelt
 70
     0
  3
SolidWorks Line Style
 72
    65
 73
     2
 40
1.905
 49
1.27
 74
     0
 49
-0.635
 74
     0
  0
LTYPE
  5
70
330
5
100
AcDbSymbolTableRecord
100
AcDbLinetypeTableRecord
  2
SLD-Phantom
 70
     0
  3
SolidWorks Line Style
 72
    65
 73
     6
 40
12.7
 49
6.35
 74
     0
 49
-1.27
 74
     0
 49
1.27
 74
     0
 49
-1.27
 74
     0
 49
1.27
 74
     0
 49
-1.27
 74
     0
  0
LTYPE
  5
71
330
5
100
AcDbSymbolTableRecord
100
AcDbLinetypeTableRecord
  2
SLD-Kette
 70
     0
  3
SolidWorks Line Style
 72
    65
 73
     4
 40
10.16
 49
6.35
 74
     0
 49
-1.27
 74
     0
 49
1.27
 74
     0
 49
-1.27
 74
     0
  0
LTYPE
  5
72
330
5
100
AcDbSymbolTableRecord
100
AcDbLinetypeTableRecord
  2
SLD-Punktstrich
 70
     0
  3
SolidWorks Line Style
 72
    65
 73
     4
 40
19.05
 49
15.24
 74
     0
 49
-1.27
 74
     0
 49
1.27
 74
     0
 49
-1.27
 74
     0
  0
LTYPE
  5
73
330
5
100
AcDbSymbolTableRecord
100
AcDbLinetypeTableRecord
  2
SLD-Naht
 70
     0
  3
SolidWorks Line Style
 72
    65
 73
     2
 40
0.635
 49
0.0
 74
     0
 49
-0.635
 74
     0
  0
LTYPE
  5
74
330
5
100
AcDbSymbolTableRecord
100
AcDbLinetypeTableRecord
  2
SLD-Dicke-Dünne-Kette
 70
     0
  3
SolidWorks Line Style
 72
    65
 73
     4
 40
10.16
 49
6.35
 74
     0
 49
-1.27
 74
     0
 49
1.27
 74
     0
 49
-1.27
 74
     0
  0
ENDTAB
  0
TABLE
  2
LAYER
  5
2
330
0
100
AcDbSymbolTable
 70
     1
  0
LAYER
  5
10
330
2
100
AcDbSymbolTableRecord
100
AcDbLayerTableRecord
  2
0
 70
     0
 62
     7
  6
Continuous
370
    -3
390
F
  0
ENDTAB
  0
TABLE
  2
STYLE
  5
3
330
0
100
AcDbSymbolTable
 70
     1
  0
STYLE
  5
11
330
3
100
AcDbSymbolTableRecord
100
AcDbTextStyleTableRecord
  2
Standard
 70
     0
 40
0.0
 41
1.0
 50
0.0
 71
     0
 42
3.5
  3
txt
  4

  0
ENDTAB
  0
TABLE
  2
VIEW
  5
6
330
0
100
AcDbSymbolTable
 70
     0
  0
ENDTAB
  0
TABLE
  2
UCS
  5
7
330
0
100
AcDbSymbolTable
 70
     0
  0
ENDTAB
  0
TABLE
  2
APPID
  5
9
330
0
100
AcDbSymbolTable
 70
     1
  0
APPID
  5
12
330
9
100
AcDbSymbolTableRecord
100
AcDbRegAppTableRecord
  2
ACAD
 70
     0
  0
ENDTAB
  0
TABLE
  2
DIMSTYLE
  5
A
330
0
100
AcDbSymbolTable
 70
     1
100
AcDbDimStyleTable
  0
DIMSTYLE
105
27
330
A
100
AcDbSymbolTableRecord
100
AcDbDimStyleTableRecord
  2
ISO-25
 70
     0
 41
2.5
 42
0.625
 43
3.75
 44
1.25
 73
     0
 74
     0
 77
     1
 78
     8
140
2.5
141
2.5
143
0.0393700787
147
0.625
171
     3
172
     1
178
     0
271
     2
272
     2
274
     3
278
    44
283
     0
284
     8
340
11
  0
ENDTAB
  0
TABLE
  2
BLOCK_RECORD
  5
1
330
0
100
AcDbSymbolTable
 70
     1
  0
BLOCK_RECORD
  5
1F
330
1
100
AcDbSymbolTableRecord
100
AcDbBlockTableRecord
  2
*Model_Space
340
22
  0
BLOCK_RECORD
  5
1B
330
1
100
AcDbSymbolTableRecord
100
AcDbBlockTableRecord
  2
*Paper_Space
340
1E
  0
BLOCK_RECORD
  5
23
330
1
100
AcDbSymbolTableRecord
100
AcDbBlockTableRecord
  2
*Paper_Space0
340
26
  0
ENDTAB
  0
ENDSEC
  0
SECTION
  2
BLOCKS
  0
BLOCK
  5
20
330
1F
100
AcDbEntity
  8
0
100
AcDbBlockBegin
  2
*Model_Space
 70
     0
 10
0.0
 20
0.0
 30
0.0
  3
*Model_Space
  1

  0
ENDBLK
  5
21
330
1F
100
AcDbEntity
  8
0
100
AcDbBlockEnd
  0
BLOCK
  5
1C
330
1B
100
AcDbEntity
 67
     1
  8
0
100
AcDbBlockBegin
  2
*Paper_Space
 70
     0
 10
0.0
 20
0.0
 30
0.0
  3
*Paper_Space
  1

  0
ENDBLK
  5
1D
330
1B
100
AcDbEntity
 67
     1
  8
0
100
AcDbBlockEnd
  0
BLOCK
  5
24
330
23
100
AcDbEntity
  8
0
100
AcDbBlockBegin
  2
*Paper_Space0
 70
     0
 10
0.0
 20
0.0
 30
0.0
  3
*Paper_Space0
  1

  0
ENDBLK
  5
25
330
23
100
AcDbEntity
  8
0
100
AcDbBlockEnd
  0
ENDSEC
  0
SECTION
  2
ENTITIES
  0
LINE
  5
75
330
1F
100
AcDbEntity
  8
0
  6
SLD-Durchgehend
 62
     7
100
AcDbLine
 10
178.2193710209
 20
145.4587359127
 30
0.0
 11
178.2193710209
 21
149.8818128358
 31
0.0
  0
LINE
  5
76
330
1F
100
AcDbEntity
  8
0
  6
SLD-Durchgehend
 62
     7
100
AcDbLine
 10
178.2193710209
 20
149.8818128358
 30
0.0
 11
176.6168069183
 21
149.8818128358
 31
0.0
  0
LINE
  5
77
330
1F
100
AcDbEntity
  8
0
  6
SLD-Durchgehend
 62
     7
100
AcDbLine
 10
176.6168069183
 20
149.8818128358
 30
0.0
 11
176.6168069183
 21
150.4587359127
 31
0.0
  0
LINE
  5
78
330
1F
100
AcDbEntity
  8
0
  6
SLD-Durchgehend
 62
     7
100
AcDbLine
 10
176.6168069183
 20
150.4587359127
 30
0.0
 11
180.5270633165
 21
150.4587359127
 31
0.0
  0
LINE
  5
79
330
1F
100
AcDbEntity
  8
0
  6
SLD-Durchgehend
 62
     7
100
AcDbLine
 10
180.5270633165
 20
150.4587359127
 30
0.0
 11
180.5270633165
 21
149.8818128358
 31
0.0
  0
LINE
  5
7A
330
1F
100
AcDbEntity
  8
0
  6
SLD-Durchgehend
 62
     7
100
AcDbLine
 10
180.5270633165
 20
149.8818128358
 30
0.0
 11
178.924499214
 21
149.8818128358
 31
0.0
  0
LINE
  5
7B
330
1F
100
AcDbEntity
  8
0
  6
SLD-Durchgehend
 62
     7
100
AcDbLine
 10
178.924499214
 20
149.8818128358
 30
0.0
 11
178.924499214
 21
145.4587359127
 31
0.0
  0
LINE
  5
7C
330
1F
100
AcDbEntity
  8
0
  6
SLD-Durchgehend
 62
     7
100
AcDbLine
 10
178.924499214
 20
145.4587359127
 30
0.0
 11
178.2193710209
 21
145.4587359127
 31
0.0
  0
LINE
  5
7D
330
1F
100
AcDbEntity
  8
0
  6
SLD-Durchgehend
 62
     7
100
AcDbLine
 10
181.1680962565
 20
145.4587359127
 30
0.0
 11
181.1680889696
 21
149.1125820666
 31
0.0
  0
LINE
  5
7E
330
1F
100
AcDbEntity
  8
0
  6
SLD-Durchgehend
 62
     7
100
AcDbLine
 10
181.1680889696
 20
149.1125820666
 30
0.0
 11
181.7450120465
 21
149.1125820666
 31
0.0
  0
LINE
  5
7F
330
1F
100
AcDbEntity
  8
0
  6
SLD-Durchgehend
 62
     7
100
AcDbLine
 10
181.7450120465
 20
149.1125820666
 30
0.0
 11
181.7450120465
 21
148.6027663614
 31
0.0
  0
LINE
  5
80
330
1F
100
AcDbEntity
  8
0
  6
SLD-Durchgehend
 62
     7
100
AcDbLine
 10
181.7450120465
 20
148.6027663614
 30
0.0
 11
181.8441707003
 21
148.7630227717
 31
0.0
  0
LINE
  5
81
330
1F
100
AcDbEntity
  8
0
  6
SLD-Durchgehend
 62
     7
100
AcDbLine
 10
181.8441707003
 20
148.7630227717
 30
0.0
 11
181.9383213414
 21
148.893231105
 31
0.0
  0
LINE
  5
82
330
1F
100
AcDbEntity
  8
0
  6
SLD-Durchgehend
 62
     7
100
AcDbLine
 10
181.9383213414
 20
148.893231105
 30
0.0
 11
182.0294671747
 21
148.994392964
 31
0.0
  0
LINE
  5
83
330
1F
100
AcDbEntity
  8
0
  6
SLD-Durchgehend
 62
     7
100
AcDbLine
 10
182.0294671747
 20
148.994392964
 30
0.0
 11
182.1166065978
 21
149.0645051435
 31
0.0
  0
LINE
  5
84
330
1F
100
AcDbEntity
  8
0
  6
SLD-Durchgehend
 62
     7
100
AcDbLine
 10
182.1166065978
 20
149.0645051435
 30
0.0
 11
182.2037460209
 21
149.1135836691
 31
0.0
  0
LINE
  5
85
330
1F
100
AcDbEntity
  8
0
  6
SLD-Durchgehend
 62
     7
100
AcDbLine
 10
182.2037460209
 20
149.1135836691
 30
0.0
 11
182.2958934568
 21
149.1486397589
 31
0.0
  0
LINE
  5
86
330
1F
100
AcDbEntity
  8
0
  6
SLD-Durchgehend
 62
     7
100
AcDbLine
 10
182.2958934568
 20
149.1486397589
 30
0.0
 11
182.3910457003
 21
149.1696734127
 31
0.0
  0
LINE
  5
87
330
1F
100
AcDbEntity
  8
0
  6
SLD-Durchgehend
 62
     7
100
AcDbLine
 10
182.3910457003
 20
149.1696734127
 30
0.0
 11
182.4912059568
 21
149.1766846307
 31
0.0
  0
LINE
  5
88
330
1F
100
AcDbEntity
  8
0
  6
SLD-Durchgehend
 62
     7
100
AcDbLine
 10
182.4912059568
 20
149.1766846307
 30
0.0
 11
182.6394431362
 21
149.1656670025
 31
0.0
  0
LINE
  5
89
330
1F
100
AcDbEntity
  8
0
  6
SLD-Durchgehend
 62
     7
100
AcDbLine
 10
182.6394431362
 20
149.1656670025
 30
0.0
 11
182.7886819183
 21
149.1336157204
 31
0.0
  0
LINE
  5
8A
330
1F
100
AcDbEntity
  8
0
  6
SLD-Durchgehend
 62
     7
100
AcDbLine
 10
182.7886819183
 20
149.1336157204
 30
0.0
 11
182.9399239055
 21
149.0805307845
 31
0.0
  0
LINE
  5
8B
330
1F
100
AcDbEntity
  8
0
  6
SLD-Durchgehend
 62
     7
100
AcDbLine
 10
182.9399239055
 20
149.0805307845
 30
0.0
 11
183.0911658926
 21
149.0054105922
 31
0.0
  0
LINE
  5
8C
330
1F
100
AcDbEntity
  8
0
  6
SLD-Durchgehend
 62
     7
100
AcDbLine
 10
183.0911658926
 20
149.0054105922
 30
0.0
 11
182.8908453798
 21
148.4495211691
 31
0.0
  0
LINE
  5
8D
330
1F
100
AcDbEntity
  8
0
  6
SLD-Durchgehend
 62
     7
100
AcDbLine
 10
182.8908453798
 20
148.4495211691
 30
0.0
 11
182.784675508
 21
148.5156269384
 31
0.0
  0
LINE
  5
8E
330
1F
100
AcDbEntity
  8
0
  6
SLD-Durchgehend
 62
     7
100
AcDbLine
 10
182.784675508
 20
148.5156269384
 30
0.0
 11
182.6785056362
 21
148.5627022589
 31
0.0
  0
LINE
  5
8F
330
1F
100
AcDbEntity
  8
0
  6
SLD-Durchgehend
 62
     7
100
AcDbLine
 10
182.6785056362
 20
148.5627022589
 30
0.0
 11
182.5723357644
 21
148.5907471307
 31
0.0
  0
LINE
  5
90
330
1F
100
AcDbEntity
  8
0
  6
SLD-Durchgehend
 62
     7
100
AcDbLine
 10
182.5723357644
 20
148.5907471307
 30
0.0
 11
182.4661658926
 21
148.5997615537
 31
0.0
  0
LINE
  5
91
330
1F
100
AcDbEntity
  8
0
  6
SLD-Durchgehend
 62
     7
100
AcDbLine
 10
182.4661658926
 20
148.5997615537
 30
0.0
 11
182.3740184568
 21
148.5917487332
 31
0.0
  0
LINE
  5
92
330
1F
100
AcDbEntity
  8
0
  6
SLD-Durchgehend
 62
     7
100
AcDbLine
 10
182.3740184568
 20
148.5917487332
 30
0.0
 11
182.2868790337
 21
148.5687118743
 31
0.0
  0
LINE
  5
93
330
1F
100
AcDbEntity
  8
0
  6
SLD-Durchgehend
 62
     7
100
AcDbLine
 10
182.2868790337
 20
148.5687118743
 30
0.0
 11
182.2037460209
 21
148.5296493743
 31
0.0
  0
LINE
  5
94
330
1F
100
AcDbEntity
  8
0
  6
SLD-Durchgehend
 62
     7
100
AcDbLine
 10
182.2037460209
 20
148.5296493743
 30
0.0
 11
182.1256210209
 21
148.4755628358
 31
0.0
  0
LINE
  5
95
330
1F
100
AcDbEntity
  8
0
  6
SLD-Durchgehend
 62
     7
100
AcDbLine
 10
182.1256210209
 20
148.4755628358
 30
0.0
 11
182.0555088414
 21
148.4074538614
 31
0.0
  0
LINE
  5
96
330
1F
100
AcDbEntity
  8
0
  6
SLD-Durchgehend
 62
     7
100
AcDbLine
 10
182.0555088414
 20
148.4074538614
 30
0.0
 11
181.9954126875
 21
148.3283272589
 31
0.0
  0
LINE
  5
97
330
1F
100
AcDbEntity
  8
0
  6
SLD-Durchgehend
 62
     7
100
AcDbLine
 10
181.9954126875
 20
148.3283272589
 30
0.0
 11
181.9463341619
 21
148.236179823
 31
0.0
  0
LINE
  5
98
330
1F
100
AcDbEntity
  8
0
  6
SLD-Durchgehend
 62
     7
100
AcDbLine
 10
181.9463341619
 20
148.236179823
 30
0.0
 11
181.9082732644
 21
148.1320131563
 31
0.0
  0
LINE
  5
99
330
1F
100
AcDbEntity
  8
0
  6
SLD-Durchgehend
 62
     7
100
AcDbLine
 10
181.9082732644
 20
148.1320131563
 30
0.0
 11
181.8652043542
 21
147.9607391179
 31
0.0
  0
LINE
  5
9A
330
1F
100
AcDbEntity
  8
0
  6
SLD-Durchgehend
 62
     7
100
AcDbLine
 10
181.8652043542
 20
147.9607391179
 30
0.0
 11
181.8341546747
 21
147.7814522589
 31
0.0
  0
LINE
  5
9B
330
1F
100
AcDbEntity
  8
0
  6
SLD-Durchgehend
 62
     7
100
AcDbLine
 10
181.8341546747
 20
147.7814522589
 30
0.0
 11
181.815124226
 21
147.595154182
 31
0.0
  0
LINE
  5
9C
330
1F
100
AcDbEntity
  8
0
  6
SLD-Durchgehend
 62
     7
100
AcDbLine
 10
181.815124226
 20
147.595154182
 30
0.0
 11
181.8091146106
 21
147.399841682
 31
0.0
  0
LINE
  5
9D
330
1F
100
AcDbEntity
  8
0
  6
SLD-Durchgehend
 62
     7
100
AcDbLine
 10
181.8091146106
 20
147.399841682
 30
0.0
 11
181.8091146106
 21
145.4587359127
 31
0.0
  0
LINE
  5
9E
330
1F
100
AcDbEntity
  8
0
  6
SLD-Durchgehend
 62
     7
100
AcDbLine
 10
181.8091146106
 20
145.4587359127
 30
0.0
 11
181.1680889696
 21
145.4587359127
 31
0.0
  0
LINE
  5
9F
330
1F
100
AcDbEntity
  8
0
  6
SLD-Durchgehend
 62
     7
100
AcDbLine
 10
183.2834770205
 20
147.2856589896
 30
0.0
 11
183.292488008
 21
147.5290484127
 31
0.0
  0
LINE
  5
A0
330
1F
100
AcDbEntity
  8
0
  6
SLD-Durchgehend
 62
     7
100
AcDbLine
 10
183.292488008
 20
147.5290484127
 30
0.0
 11
183.3175280721
 21
147.7554105922
 31
0.0
  0
LINE
  5
A1
330
1F
100
AcDbEntity
  8
0
  6
SLD-Durchgehend
 62
     7
100
AcDbLine
 10
183.3175280721
 20
147.7554105922
 30
0.0
 11
183.3605969824
 21
147.9667487332
 31
0.0
  0
LINE
  5
A2
330
1F
100
AcDbEntity
  8
0
  6
SLD-Durchgehend
 62
     7
100
AcDbLine
 10
183.3605969824
 20
147.9667487332
 30
0.0
 11
183.4206931362
 21
148.1610596307
 31
0.0
  0
LINE
  5
A3
330
1F
100
AcDbEntity
  8
0
  6
SLD-Durchgehend
 62
     7
100
AcDbLine
 10
183.4206931362
 20
148.1610596307
 30
0.0
 11
183.4978165337
 21
148.3383432845
 31
0.0
  0
LINE
  5
A4
330
1F
100
AcDbEntity
  8
0
  6
SLD-Durchgehend
 62
     7
100
AcDbLine
 10
183.4978165337
 20
148.3383432845
 30
0.0
 11
183.5929687773
 21
148.5006028999
 31
0.0
  0
LINE
  5
A5
330
1F
100
AcDbEntity
  8
0
  6
SLD-Durchgehend
 62
     7
100
AcDbLine
 10
183.5929687773
 20
148.5006028999
 30
0.0
 11
183.7041466619
 21
148.6458352717
 31
0.0
  0
LINE
  5
A6
330
1F
100
AcDbEntity
  8
0
  6
SLD-Durchgehend
 62
     7
100
AcDbLine
 10
183.7041466619
 20
148.6458352717
 30
0.0
 11
183.8333533927
 21
148.7750420025
 31
0.0
  0
LINE
  5
A7
330
1F
100
AcDbEntity
  8
0
  6
SLD-Durchgehend
 62
     7
100
AcDbLine
 10
183.8333533927
 20
148.7750420025
 30
0.0
 11
183.9515424953
 21
148.8691926435
 31
0.0
  0
LINE
  5
A8
330
1F
100
AcDbEntity
  8
0
  6
SLD-Durchgehend
 62
     7
100
AcDbLine
 10
183.9515424953
 20
148.8691926435
 30
0.0
 11
184.0757412133
 21
148.9503224512
 31
0.0
  0
LINE
  5
A9
330
1F
100
AcDbEntity
  8
0
  6
SLD-Durchgehend
 62
     7
100
AcDbLine
 10
184.0757412133
 20
148.9503224512
 30
0.0
 11
184.2059495466
 21
149.019433028
 31
0.0
  0
LINE
  5
AA
330
1F
100
AcDbEntity
  8
0
  6
SLD-Durchgehend
 62
     7
100
AcDbLine
 10
184.2059495466
 20
149.019433028
 30
0.0
 11
184.3421674953
 21
149.0765243742
 31
0.0
  0
LINE
  5
AB
330
1F
100
AcDbEntity
  8
0
  6
SLD-Durchgehend
 62
     7
100
AcDbLine
 10
184.3421674953
 20
149.0765243742
 30
0.0
 11
184.485396662
 21
149.1205948871
 31
0.0
  0
LINE
  5
AC
330
1F
100
AcDbEntity
  8
0
  6
SLD-Durchgehend
 62
     7
100
AcDbLine
 10
184.485396662
 20
149.1205948871
 30
0.0
 11
184.634635444
 21
149.1516445666
 31
0.0
  0
LINE
  5
AD
330
1F
100
AcDbEntity
  8
0
  6
SLD-Durchgehend
 62
     7
100
AcDbLine
 10
184.634635444
 20
149.1516445666
 30
0.0
 11
184.7898838415
 21
149.1706750152
 31
0.0
  0
LINE
  5
AE
330
1F
100
AcDbEntity
  8
0
  6
SLD-Durchgehend
 62
     7
100
AcDbLine
 10
184.7898838415
 20
149.1706750152
 30
0.0
 11
184.9521434569
 21
149.1766846307
 31
0.0
  0
LINE
  5
AF
330
1F
100
AcDbEntity
  8
0
  6
SLD-Durchgehend
 62
     7
100
AcDbLine
 10
184.9521434569
 20
149.1766846307
 30
0.0
 11
185.1314303158
 21
149.1686718102
 31
0.0
  0
LINE
  5
B0
330
1F
100
AcDbEntity
  8
0
  6
SLD-Durchgehend
 62
     7
100
AcDbLine
 10
185.1314303158
 20
149.1686718102
 30
0.0
 11
185.3017027517
 21
149.1466365536
 31
0.0
  0
LINE
  5
B1
330
1F
100
AcDbEntity
  8
0
  6
SLD-Durchgehend
 62
     7
100
AcDbLine
 10
185.3017027517
 20
149.1466365536
 30
0.0
 11
185.4639623671
 21
149.1075740537
 31
0.0
  0
LINE
  5
B2
330
1F
100
AcDbEntity
  8
0
  6
SLD-Durchgehend
 62
     7
100
AcDbLine
 10
185.4639623671
 20
149.1075740537
 30
0.0
 11
185.618209162
 21
149.0544891178
 31
0.0
  0
LINE
  5
B3
330
1F
100
AcDbEntity
  8
0
  6
SLD-Durchgehend
 62
     7
100
AcDbLine
 10
185.618209162
 20
149.0544891178
 30
0.0
 11
185.7644431363
 21
148.9853785409
 31
0.0
  0
LINE
  5
B4
330
1F
100
AcDbEntity
  8
0
  6
SLD-Durchgehend
 62
     7
100
AcDbLine
 10
185.7644431363
 20
148.9853785409
 30
0.0
 11
185.9016626876
 21
148.9022455281
 31
0.0
  0
LINE
  5
B5
330
1F
100
AcDbEntity
  8
0
  6
SLD-Durchgehend
 62
     7
100
AcDbLine
 10
185.9016626876
 20
148.9022455281
 30
0.0
 11
186.0308694184
 21
148.8020852717
 31
0.0
  0
LINE
  5
B6
330
1F
100
AcDbEntity
  8
0
  6
SLD-Durchgehend
 62
     7
100
AcDbLine
 10
186.0308694184
 20
148.8020852717
 30
0.0
 11
186.1510617261
 21
148.6879025794
 31
0.0
  0
LINE
  5
B7
330
1F
100
AcDbEntity
  8
0
  6
SLD-Durchgehend
 62
     7
100
AcDbLine
 10
186.1510617261
 20
148.6879025794
 30
0.0
 11
186.2602364056
 21
148.5596974512
 31
0.0
  0
LINE
  5
B8
330
1F
100
AcDbEntity
  8
0
  6
SLD-Durchgehend
 62
     7
100
AcDbLine
 10
186.2602364056
 20
148.5596974512
 30
0.0
 11
186.3543870466
 21
148.4204746947
 31
0.0
  0
LINE
  5
B9
330
1F
100
AcDbEntity
  8
0
  6
SLD-Durchgehend
 62
     7
100
AcDbLine
 10
186.3543870466
 20
148.4204746947
 30
0.0
 11
186.4345152517
 21
148.2692327076
 31
0.0
  0
LINE
  5
BA
330
1F
100
AcDbEntity
  8
0
  6
SLD-Durchgehend
 62
     7
100
AcDbLine
 10
186.4345152517
 20
148.2692327076
 30
0.0
 11
186.500621021
 21
148.1059714896
 31
0.0
  0
LINE
  5
BB
330
1F
100
AcDbEntity
  8
0
  6
SLD-Durchgehend
 62
     7
100
AcDbLine
 10
186.500621021
 20
148.1059714896
 30
0.0
 11
186.5517027517
 21
147.9306910409
 31
0.0
  0
LINE
  5
BC
330
1F
100
AcDbEntity
  8
0
  6
SLD-Durchgehend
 62
     7
100
AcDbLine
 10
186.5517027517
 20
147.9306910409
 30
0.0
 11
186.587760444
 21
147.7443929639
 31
0.0
  0
LINE
  5
BD
330
1F
100
AcDbEntity
  8
0
  6
SLD-Durchgehend
 62
     7
100
AcDbLine
 10
186.587760444
 20
147.7443929639
 30
0.0
 11
186.6097957004
 21
147.5460756562
 31
0.0
  0
LINE
  5
BE
330
1F
100
AcDbEntity
  8
0
  6
SLD-Durchgehend
 62
     7
100
AcDbLine
 10
186.6097957004
 20
147.5460756562
 30
0.0
 11
186.6168069184
 21
147.3367407204
 31
0.0
  0
LINE
  5
BF
330
1F
100
AcDbEntity
  8
0
  6
SLD-Durchgehend
 62
     7
100
AcDbLine
 10
186.6168069184
 20
147.3367407204
 30
0.0
 11
186.6138021106
 21
147.1664682845
 31
0.0
  0
LINE
  5
C0
330
1F
100
AcDbEntity
  8
0
  6
SLD-Durchgehend
 62
     7
100
AcDbLine
 10
186.6138021106
 20
147.1664682845
 30
0.0
 11
186.6037860851
 21
147.0062118742
 31
0.0
  0
LINE
  5
C1
330
1F
100
AcDbEntity
  8
0
  6
SLD-Durchgehend
 62
     7
100
AcDbLine
 10
186.6037860851
 20
147.0062118742
 30
0.0
 11
186.587760444
 21
146.8549698871
 31
0.0
  0
LINE
  5
C2
330
1F
100
AcDbEntity
  8
0
  6
SLD-Durchgehend
 62
     7
100
AcDbLine
 10
186.587760444
 20
146.8549698871
 30
0.0
 11
186.5657251876
 21
146.7127423229
 31
0.0
  0
LINE
  5
C3
330
1F
100
AcDbEntity
  8
0
  6
SLD-Durchgehend
 62
     7
100
AcDbLine
 10
186.5657251876
 20
146.7127423229
 30
0.0
 11
186.5366787133
 21
146.5805307844
 31
0.0
  0
LINE
  5
C4
330
1F
100
AcDbEntity
  8
0
  6
SLD-Durchgehend
 62
     7
100
AcDbLine
 10
186.5366787133
 20
146.5805307844
 30
0.0
 11
186.500621021
 21
146.457333669
 31
0.0
  0
LINE
  5
C5
330
1F
100
AcDbEntity
  8
0
  6
SLD-Durchgehend
 62
     7
100
AcDbLine
 10
186.500621021
 20
146.457333669
 30
0.0
 11
186.4585537133
 21
146.3431509767
 31
0.0
  0
LINE
  5
C6
330
1F
100
AcDbEntity
  8
0
  6
SLD-Durchgehend
 62
     7
100
AcDbLine
 10
186.4585537133
 20
146.3431509767
 30
0.0
 11
186.4104767902
 21
146.2379827076
 31
0.0
  0
LINE
  5
C7
330
1F
100
AcDbEntity
  8
0
  6
SLD-Durchgehend
 62
     7
100
AcDbLine
 10
186.4104767902
 20
146.2379827076
 30
0.0
 11
186.3563902517
 21
146.1408272589
 31
0.0
  0
LINE
  5
C8
330
1F
100
AcDbEntity
  8
0
  6
SLD-Durchgehend
 62
     7
100
AcDbLine
 10
186.3563902517
 20
146.1408272589
 30
0.0
 11
186.2962940978
 21
146.0486798229
 31
0.0
  0
LINE
  5
C9
330
1F
100
AcDbEntity
  8
0
  6
SLD-Durchgehend
 62
     7
100
AcDbLine
 10
186.2962940978
 20
146.0486798229
 30
0.0
 11
186.2301883286
 21
145.9625420025
 31
0.0
  0
LINE
  5
CA
330
1F
100
AcDbEntity
  8
0
  6
SLD-Durchgehend
 62
     7
100
AcDbLine
 10
186.2301883286
 20
145.9625420025
 30
0.0
 11
186.158072944
 21
145.8824137972
 31
0.0
  0
LINE
  5
CB
330
1F
100
AcDbEntity
  8
0
  6
SLD-Durchgehend
 62
     7
100
AcDbLine
 10
186.158072944
 20
145.8824137972
 30
0.0
 11
186.079947944
 21
145.807293605
 31
0.0
  0
LINE
  5
CC
330
1F
100
AcDbEntity
  8
0
  6
SLD-Durchgehend
 62
     7
100
AcDbLine
 10
186.079947944
 20
145.807293605
 30
0.0
 11
185.9968149312
 21
145.7381830281
 31
0.0
  0
LINE
  5
CD
330
1F
100
AcDbEntity
  8
0
  6
SLD-Durchgehend
 62
     7
100
AcDbLine
 10
185.9968149312
 20
145.7381830281
 30
0.0
 11
185.9066707004
 21
145.6740804639
 31
0.0
  0
LINE
  5
CE
330
1F
100
AcDbEntity
  8
0
  6
SLD-Durchgehend
 62
     7
100
AcDbLine
 10
185.9066707004
 20
145.6740804639
 30
0.0
 11
185.8115184569
 21
145.6159875152
 31
0.0
  0
LINE
  5
CF
330
1F
100
AcDbEntity
  8
0
  6
SLD-Durchgehend
 62
     7
100
AcDbLine
 10
185.8115184569
 20
145.6159875152
 30
0.0
 11
185.6101963415
 21
145.5188320666
 31
0.0
  0
LINE
  5
D0
330
1F
100
AcDbEntity
  8
0
  6
SLD-Durchgehend
 62
     7
100
AcDbLine
 10
185.6101963415
 20
145.5188320666
 30
0.0
 11
185.399859803
 21
145.4497214896
 31
0.0
  0
LINE
  5
D1
330
1F
100
AcDbEntity
  8
0
  6
SLD-Durchgehend
 62
     7
100
AcDbLine
 10
185.399859803
 20
145.4497214896
 30
0.0
 11
185.1805088415
 21
145.4086557845
 31
0.0
  0
LINE
  5
D2
330
1F
100
AcDbEntity
  8
0
  6
SLD-Durchgehend
 62
     7
100
AcDbLine
 10
185.1805088415
 20
145.4086557845
 30
0.0
 11
184.9521434569
 21
145.3946333486
 31
0.0
  0
LINE
  5
D3
330
1F
100
AcDbEntity
  8
0
  6
SLD-Durchgehend
 62
     7
100
AcDbLine
 10
184.9521434569
 20
145.3946333486
 30
0.0
 11
184.7698517901
 21
145.4026461691
 31
0.0
  0
LINE
  5
D4
330
1F
100
AcDbEntity
  8
0
  6
SLD-Durchgehend
 62
     7
100
AcDbLine
 10
184.7698517901
 20
145.4026461691
 30
0.0
 11
184.5965745466
 21
145.4246814255
 31
0.0
  0
LINE
  5
D5
330
1F
100
AcDbEntity
  8
0
  6
SLD-Durchgehend
 62
     7
100
AcDbLine
 10
184.5965745466
 20
145.4246814255
 30
0.0
 11
184.4323117261
 21
145.4627423229
 31
0.0
  0
LINE
  5
D6
330
1F
100
AcDbEntity
  8
0
  6
SLD-Durchgehend
 62
     7
100
AcDbLine
 10
184.4323117261
 20
145.4627423229
 30
0.0
 11
184.2770633286
 21
145.5168288614
 31
0.0
  0
LINE
  5
D7
330
1F
100
AcDbEntity
  8
0
  6
SLD-Durchgehend
 62
     7
100
AcDbLine
 10
184.2770633286
 20
145.5168288614
 30
0.0
 11
184.1298277517
 21
145.5849378357
 31
0.0
  0
LINE
  5
D8
330
1F
100
AcDbEntity
  8
0
  6
SLD-Durchgehend
 62
     7
100
AcDbLine
 10
184.1298277517
 20
145.5849378357
 30
0.0
 11
183.9926082004
 21
145.6680708486
 31
0.0
  0
LINE
  5
D9
330
1F
100
AcDbEntity
  8
0
  6
SLD-Durchgehend
 62
     7
100
AcDbLine
 10
183.9926082004
 20
145.6680708486
 30
0.0
 11
183.8634014697
 21
145.7672295024
 31
0.0
  0
LINE
  5
DA
330
1F
100
AcDbEntity
  8
0
  6
SLD-Durchgehend
 62
     7
100
AcDbLine
 10
183.8634014697
 20
145.7672295024
 30
0.0
 11
183.7442107645
 21
145.8814121947
 31
0.0
  0
LINE
  5
DB
330
1F
100
AcDbEntity
  8
0
  6
SLD-Durchgehend
 62
     7
100
AcDbLine
 10
183.7442107645
 20
145.8814121947
 30
0.0
 11
183.6360376876
 21
146.009617323
 31
0.0
  0
LINE
  5
DC
330
1F
100
AcDbEntity
  8
0
  6
SLD-Durchgehend
 62
     7
100
AcDbLine
 10
183.6360376876
 20
146.009617323
 30
0.0
 11
183.5428886492
 21
146.1518448871
 31
0.0
  0
LINE
  5
DD
330
1F
100
AcDbEntity
  8
0
  6
SLD-Durchgehend
 62
     7
100
AcDbLine
 10
183.5428886492
 20
146.1518448871
 30
0.0
 11
183.4637620466
 21
146.3070932844
 31
0.0
  0
LINE
  5
DE
330
1F
100
AcDbEntity
  8
0
  6
SLD-Durchgehend
 62
     7
100
AcDbLine
 10
183.4637620466
 20
146.3070932844
 30
0.0
 11
183.3986578799
 21
146.4763641179
 31
0.0
  0
LINE
  5
DF
330
1F
100
AcDbEntity
  8
0
  6
SLD-Durchgehend
 62
     7
100
AcDbLine
 10
183.3986578799
 20
146.4763641179
 30
0.0
 11
183.3485777517
 21
146.6586557844
 31
0.0
  0
LINE
  5
E0
330
1F
100
AcDbEntity
  8
0
  6
SLD-Durchgehend
 62
     7
100
AcDbLine
 10
183.3485777517
 20
146.6586557844
 30
0.0
 11
183.3125200594
 21
146.8539682845
 31
0.0
  0
LINE
  5
E1
330
1F
100
AcDbEntity
  8
0
  6
SLD-Durchgehend
 62
     7
100
AcDbLine
 10
183.3125200594
 20
146.8539682845
 30
0.0
 11
183.290484803
 21
147.0633032204
 31
0.0
  0
LINE
  5
E2
330
1F
100
AcDbEntity
  8
0
  6
SLD-Durchgehend
 62
     7
100
AcDbLine
 10
183.290484803
 20
147.0633032204
 30
0.0
 11
183.2834735851
 21
147.2856589896
 31
0.0
  0
LINE
  5
E3
330
1F
100
AcDbEntity
  8
0
  6
SLD-Durchgehend
 62
     7
100
AcDbLine
 10
183.9245011332
 20
147.2876621948
 30
0.0
 11
183.9295072388
 21
147.1274057845
 31
0.0
  0
LINE
  5
E4
330
1F
100
AcDbEntity
  8
0
  6
SLD-Durchgehend
 62
     7
100
AcDbLine
 10
183.9295072388
 20
147.1274057845
 30
0.0
 11
183.9425280721
 21
146.9781670025
 31
0.0
  0
LINE
  5
E5
330
1F
100
AcDbEntity
  8
0
  6
SLD-Durchgehend
 62
     7
100
AcDbLine
 10
183.9425280721
 20
146.9781670025
 30
0.0
 11
183.9655649311
 21
146.8389442461
 31
0.0
  0
LINE
  5
E6
330
1F
100
AcDbEntity
  8
0
  6
SLD-Durchgehend
 62
     7
100
AcDbLine
 10
183.9655649311
 20
146.8389442461
 30
0.0
 11
183.9976162132
 21
146.7107391179
 31
0.0
  0
LINE
  5
E7
330
1F
100
AcDbEntity
  8
0
  6
SLD-Durchgehend
 62
     7
100
AcDbLine
 10
183.9976162132
 20
146.7107391179
 30
0.0
 11
184.0386819183
 21
146.5925500153
 31
0.0
  0
LINE
  5
E8
330
1F
100
AcDbEntity
  8
0
  6
SLD-Durchgehend
 62
     7
100
AcDbLine
 10
184.0386819183
 20
146.5925500153
 30
0.0
 11
184.0887620465
 21
146.4843769384
 31
0.0
  0
LINE
  5
E9
330
1F
100
AcDbEntity
  8
0
  6
SLD-Durchgehend
 62
     7
100
AcDbLine
 10
184.0887620465
 20
146.4843769384
 30
0.0
 11
184.1478565978
 21
146.3862198871
 31
0.0
  0
LINE
  5
EA
330
1F
100
AcDbEntity
  8
0
  6
SLD-Durchgehend
 62
     7
100
AcDbLine
 10
184.1478565978
 20
146.3862198871
 30
0.0
 11
184.2159655721
 21
146.299080464
 31
0.0
  0
LINE
  5
EB
330
1F
100
AcDbEntity
  8
0
  6
SLD-Durchgehend
 62
     7
100
AcDbLine
 10
184.2159655721
 20
146.299080464
 30
0.0
 11
184.2910857644
 21
146.2219570666
 31
0.0
  0
LINE
  5
EC
330
1F
100
AcDbEntity
  8
0
  6
SLD-Durchgehend
 62
     7
100
AcDbLine
 10
184.2910857644
 20
146.2219570666
 30
0.0
 11
184.3712139696
 21
146.1558512973
 31
0.0
  0
LINE
  5
ED
330
1F
100
AcDbEntity
  8
0
  6
SLD-Durchgehend
 62
     7
100
AcDbLine
 10
184.3712139696
 20
146.1558512973
 30
0.0
 11
184.4563501875
 21
146.0997615537
 31
0.0
  0
LINE
  5
EE
330
1F
100
AcDbEntity
  8
0
  6
SLD-Durchgehend
 62
     7
100
AcDbLine
 10
184.4563501875
 20
146.0997615537
 30
0.0
 11
184.5464944183
 21
146.0536878358
 31
0.0
  0
LINE
  5
EF
330
1F
100
AcDbEntity
  8
0
  6
SLD-Durchgehend
 62
     7
100
AcDbLine
 10
184.5464944183
 20
146.0536878358
 30
0.0
 11
184.6406450593
 21
146.0176301435
 31
0.0
  0
LINE
  5
F0
330
1F
100
AcDbEntity
  8
0
  6
SLD-Durchgehend
 62
     7
100
AcDbLine
 10
184.6406450593
 20
146.0176301435
 30
0.0
 11
184.7398037132
 21
145.9915884768
 31
0.0
  0
LINE
  5
F1
330
1F
100
AcDbEntity
  8
0
  6
SLD-Durchgehend
 62
     7
100
AcDbLine
 10
184.7398037132
 20
145.9915884768
 30
0.0
 11
184.8439703798
 21
145.9765644384
 31
0.0
  0
LINE
  5
F2
330
1F
100
AcDbEntity
  8
0
  6
SLD-Durchgehend
 62
     7
100
AcDbLine
 10
184.8439703798
 20
145.9765644384
 30
0.0
 11
184.9521434568
 21
145.9715564255
 31
0.0
  0
LINE
  5
F3
330
1F
100
AcDbEntity
  8
0
  6
SLD-Durchgehend
 62
     7
100
AcDbLine
 10
184.9521434568
 20
145.9715564255
 30
0.0
 11
185.0593149311
 21
145.9765644384
 31
0.0
  0
LINE
  5
F4
330
1F
100
AcDbEntity
  8
0
  6
SLD-Durchgehend
 62
     7
100
AcDbLine
 10
185.0593149311
 20
145.9765644384
 30
0.0
 11
185.1624799952
 21
145.9925900794
 31
0.0
  0
LINE
  5
F5
330
1F
100
AcDbEntity
  8
0
  6
SLD-Durchgehend
 62
     7
100
AcDbLine
 10
185.1624799952
 20
145.9925900794
 30
0.0
 11
185.2606370465
 21
146.0176301435
 31
0.0
  0
LINE
  5
F6
330
1F
100
AcDbEntity
  8
0
  6
SLD-Durchgehend
 62
     7
100
AcDbLine
 10
185.2606370465
 20
146.0176301435
 30
0.0
 11
185.3547876875
 21
146.0536878358
 31
0.0
  0
LINE
  5
F7
330
1F
100
AcDbEntity
  8
0
  6
SLD-Durchgehend
 62
     7
100
AcDbLine
 10
185.3547876875
 20
146.0536878358
 30
0.0
 11
185.4439303157
 21
146.1007631563
 31
0.0
  0
LINE
  5
F8
330
1F
100
AcDbEntity
  8
0
  6
SLD-Durchgehend
 62
     7
100
AcDbLine
 10
185.4439303157
 20
146.1007631563
 30
0.0
 11
185.5280649311
 21
146.1568528999
 31
0.0
  0
LINE
  5
F9
330
1F
100
AcDbEntity
  8
0
  6
SLD-Durchgehend
 62
     7
100
AcDbLine
 10
185.5280649311
 20
146.1568528999
 30
0.0
 11
185.6081931362
 21
146.2239602717
 31
0.0
  0
LINE
  5
FA
330
1F
100
AcDbEntity
  8
0
  6
SLD-Durchgehend
 62
     7
100
AcDbLine
 10
185.6081931362
 20
146.2239602717
 30
0.0
 11
185.6833133285
 21
146.3010836691
 31
0.0
  0
LINE
  5
FB
330
1F
100
AcDbEntity
  8
0
  6
SLD-Durchgehend
 62
     7
100
AcDbLine
 10
185.6833133285
 20
146.3010836691
 30
0.0
 11
185.7514223029
 21
146.3892246948
 31
0.0
  0
LINE
  5
FC
330
1F
100
AcDbEntity
  8
0
  6
SLD-Durchgehend
 62
     7
100
AcDbLine
 10
185.7514223029
 20
146.3892246948
 30
0.0
 11
185.8115184568
 21
146.4873817461
 31
0.0
  0
LINE
  5
FD
330
1F
100
AcDbEntity
  8
0
  6
SLD-Durchgehend
 62
     7
100
AcDbLine
 10
185.8115184568
 20
146.4873817461
 30
0.0
 11
185.861598585
 21
146.5965564255
 31
0.0
  0
LINE
  5
FE
330
1F
100
AcDbEntity
  8
0
  6
SLD-Durchgehend
 62
     7
100
AcDbLine
 10
185.861598585
 20
146.5965564255
 30
0.0
 11
185.9026642901
 21
146.7177503358
 31
0.0
  0
LINE
  5
FF
330
1F
100
AcDbEntity
  8
0
  6
SLD-Durchgehend
 62
     7
100
AcDbLine
 10
185.9026642901
 20
146.7177503358
 30
0.0
 11
185.9347155721
 21
146.8479586691
 31
0.0
  0
LINE
  5
100
330
1F
100
AcDbEntity
  8
0
  6
SLD-Durchgehend
 62
     7
100
AcDbLine
 10
185.9347155721
 20
146.8479586691
 30
0.0
 11
185.9577524311
 21
146.9901862332
 31
0.0
  0
LINE
  5
101
330
1F
100
AcDbEntity
  8
0
  6
SLD-Durchgehend
 62
     7
100
AcDbLine
 10
185.9577524311
 20
146.9901862332
 30
0.0
 11
185.9707732644
 21
147.1434314255
 31
0.0
  0
LINE
  5
102
330
1F
100
AcDbEntity
  8
0
  6
SLD-Durchgehend
 62
     7
100
AcDbLine
 10
185.9707732644
 20
147.1434314255
 30
0.0
 11
185.9757812773
 21
147.3066926435
 31
0.0
  0
LINE
  5
103
330
1F
100
AcDbEntity
  8
0
  6
SLD-Durchgehend
 62
     7
100
AcDbLine
 10
185.9757812773
 20
147.3066926435
 30
0.0
 11
185.9707732644
 21
147.4609394384
 31
0.0
  0
LINE
  5
104
330
1F
100
AcDbEntity
  8
0
  6
SLD-Durchgehend
 62
     7
100
AcDbLine
 10
185.9707732644
 20
147.4609394384
 30
0.0
 11
185.9577524311
 21
147.6061718102
 31
0.0
  0
LINE
  5
105
330
1F
100
AcDbEntity
  8
0
  6
SLD-Durchgehend
 62
     7
100
AcDbLine
 10
185.9577524311
 20
147.6061718102
 30
0.0
 11
185.9347155721
 21
147.7413881563
 31
0.0
  0
LINE
  5
106
330
1F
100
AcDbEntity
  8
0
  6
SLD-Durchgehend
 62
     7
100
AcDbLine
 10
185.9347155721
 20
147.7413881563
 30
0.0
 11
185.9026642901
 21
147.8665884768
 31
0.0
  0
LINE
  5
107
330
1F
100
AcDbEntity
  8
0
  6
SLD-Durchgehend
 62
     7
100
AcDbLine
 10
185.9026642901
 20
147.8665884768
 30
0.0
 11
185.8605969824
 21
147.9817727717
 31
0.0
  0
LINE
  5
108
330
1F
100
AcDbEntity
  8
0
  6
SLD-Durchgehend
 62
     7
100
AcDbLine
 10
185.8605969824
 20
147.9817727717
 30
0.0
 11
185.8105168542
 21
148.0879426435
 31
0.0
  0
LINE
  5
109
330
1F
100
AcDbEntity
  8
0
  6
SLD-Durchgehend
 62
     7
100
AcDbLine
 10
185.8105168542
 20
148.0879426435
 30
0.0
 11
185.7504207003
 21
148.1840964896
 31
0.0
  0
LINE
  5
10A
330
1F
100
AcDbEntity
  8
0
  6
SLD-Durchgehend
 62
     7
100
AcDbLine
 10
185.7504207003
 20
148.1840964896
 30
0.0
 11
185.6813101234
 21
148.2712359127
 31
0.0
  0
LINE
  5
10B
330
1F
100
AcDbEntity
  8
0
  6
SLD-Durchgehend
 62
     7
100
AcDbLine
 10
185.6813101234
 20
148.2712359127
 30
0.0
 11
185.6061899311
 21
148.3483593102
 31
0.0
  0
LINE
  5
10C
330
1F
100
AcDbEntity
  8
0
  6
SLD-Durchgehend
 62
     7
100
AcDbLine
 10
185.6061899311
 20
148.3483593102
 30
0.0
 11
185.526061726
 21
148.415466682
 31
0.0
  0
LINE
  5
10D
330
1F
100
AcDbEntity
  8
0
  6
SLD-Durchgehend
 62
     7
100
AcDbLine
 10
185.526061726
 20
148.415466682
 30
0.0
 11
185.440925508
 21
148.4715564255
 31
0.0
  0
LINE
  5
10E
330
1F
100
AcDbEntity
  8
0
  6
SLD-Durchgehend
 62
     7
100
AcDbLine
 10
185.440925508
 20
148.4715564255
 30
0.0
 11
185.3527844824
 21
148.5176301435
 31
0.0
  0
LINE
  5
10F
330
1F
100
AcDbEntity
  8
0
  6
SLD-Durchgehend
 62
     7
100
AcDbLine
 10
185.3527844824
 20
148.5176301435
 30
0.0
 11
185.2586338414
 21
148.5536878358
 31
0.0
  0
LINE
  5
110
330
1F
100
AcDbEntity
  8
0
  6
SLD-Durchgehend
 62
     7
100
AcDbLine
 10
185.2586338414
 20
148.5536878358
 30
0.0
 11
185.1614783926
 21
148.5797295025
 31
0.0
  0
LINE
  5
111
330
1F
100
AcDbEntity
  8
0
  6
SLD-Durchgehend
 62
     7
100
AcDbLine
 10
185.1614783926
 20
148.5797295025
 30
0.0
 11
185.0593149311
 21
148.5947535409
 31
0.0
  0
LINE
  5
112
330
1F
100
AcDbEntity
  8
0
  6
SLD-Durchgehend
 62
     7
100
AcDbLine
 10
185.0593149311
 20
148.5947535409
 30
0.0
 11
184.9521434568
 21
148.5997615537
 31
0.0
  0
LINE
  5
113
330
1F
100
AcDbEntity
  8
0
  6
SLD-Durchgehend
 62
     7
100
AcDbLine
 10
184.9521434568
 20
148.5997615537
 30
0.0
 11
184.8439703798
 21
148.5947535409
 31
0.0
  0
LINE
  5
114
330
1F
100
AcDbEntity
  8
0
  6
SLD-Durchgehend
 62
     7
100
AcDbLine
 10
184.8439703798
 20
148.5947535409
 30
0.0
 11
184.7398037132
 21
148.5797295025
 31
0.0
  0
LINE
  5
115
330
1F
100
AcDbEntity
  8
0
  6
SLD-Durchgehend
 62
     7
100
AcDbLine
 10
184.7398037132
 20
148.5797295025
 30
0.0
 11
184.6406450593
 21
148.5536878358
 31
0.0
  0
LINE
  5
116
330
1F
100
AcDbEntity
  8
0
  6
SLD-Durchgehend
 62
     7
100
AcDbLine
 10
184.6406450593
 20
148.5536878358
 30
0.0
 11
184.5464944183
 21
148.5186317461
 31
0.0
  0
LINE
  5
117
330
1F
100
AcDbEntity
  8
0
  6
SLD-Durchgehend
 62
     7
100
AcDbLine
 10
184.5464944183
 20
148.5186317461
 30
0.0
 11
184.4563501875
 21
148.4725580281
 31
0.0
  0
LINE
  5
118
330
1F
100
AcDbEntity
  8
0
  6
SLD-Durchgehend
 62
     7
100
AcDbLine
 10
184.4563501875
 20
148.4725580281
 30
0.0
 11
184.3712139696
 21
148.4164682845
 31
0.0
  0
LINE
  5
119
330
1F
100
AcDbEntity
  8
0
  6
SLD-Durchgehend
 62
     7
100
AcDbLine
 10
184.3712139696
 20
148.4164682845
 30
0.0
 11
184.2910857644
 21
148.3493609127
 31
0.0
  0
LINE
  5
11A
330
1F
100
AcDbEntity
  8
0
  6
SLD-Durchgehend
 62
     7
100
AcDbLine
 10
184.2910857644
 20
148.3493609127
 30
0.0
 11
184.2159655721
 21
148.2732391179
 31
0.0
  0
LINE
  5
11B
330
1F
100
AcDbEntity
  8
0
  6
SLD-Durchgehend
 62
     7
100
AcDbLine
 10
184.2159655721
 20
148.2732391179
 30
0.0
 11
184.1478565978
 21
148.1860996948
 31
0.0
  0
LINE
  5
11C
330
1F
100
AcDbEntity
  8
0
  6
SLD-Durchgehend
 62
     7
100
AcDbLine
 10
184.1478565978
 20
148.1860996948
 30
0.0
 11
184.0887620465
 21
148.0889442461
 31
0.0
  0
LINE
  5
11D
330
1F
100
AcDbEntity
  8
0
  6
SLD-Durchgehend
 62
     7
100
AcDbLine
 10
184.0887620465
 20
148.0889442461
 30
0.0
 11
184.0386819183
 21
147.9817727717
 31
0.0
  0
LINE
  5
11E
330
1F
100
AcDbEntity
  8
0
  6
SLD-Durchgehend
 62
     7
100
AcDbLine
 10
184.0386819183
 20
147.9817727717
 30
0.0
 11
183.9976162132
 21
147.8635836691
 31
0.0
  0
LINE
  5
11F
330
1F
100
AcDbEntity
  8
0
  6
SLD-Durchgehend
 62
     7
100
AcDbLine
 10
183.9976162132
 20
147.8635836691
 30
0.0
 11
183.9655649311
 21
147.7353785409
 31
0.0
  0
LINE
  5
120
330
1F
100
AcDbEntity
  8
0
  6
SLD-Durchgehend
 62
     7
100
AcDbLine
 10
183.9655649311
 20
147.7353785409
 30
0.0
 11
183.9425280721
 21
147.5961557845
 31
0.0
  0
LINE
  5
121
330
1F
100
AcDbEntity
  8
0
  6
SLD-Durchgehend
 62
     7
100
AcDbLine
 10
183.9425280721
 20
147.5961557845
 30
0.0
 11
183.9295072388
 21
147.4469170025
 31
0.0
  0
LINE
  5
122
330
1F
100
AcDbEntity
  8
0
  6
SLD-Durchgehend
 62
     7
100
AcDbLine
 10
183.9295072388
 20
147.4469170025
 30
0.0
 11
183.9245011332
 21
147.2876621948
 31
0.0
  0
LINE
  5
123
330
1F
100
AcDbEntity
  8
0
  6
SLD-Durchgehend
 62
     7
100
AcDbLine
 10
189.6296312334
 20
146.8048897589
 30
0.0
 11
190.2706530721
 21
146.7407871948
 31
0.0
  0
LINE
  5
124
330
1F
100
AcDbEntity
  8
0
  6
SLD-Durchgehend
 62
     7
100
AcDbLine
 10
190.2706530721
 20
146.7407871948
 30
0.0
 11
190.2416065978
 21
146.5875420025
 31
0.0
  0
LINE
  5
125
330
1F
100
AcDbEntity
  8
0
  6
SLD-Durchgehend
 62
     7
100
AcDbLine
 10
190.2416065978
 20
146.5875420025
 30
0.0
 11
190.2025440978
 21
146.4423096307
 31
0.0
  0
LINE
  5
126
330
1F
100
AcDbEntity
  8
0
  6
SLD-Durchgehend
 62
     7
100
AcDbLine
 10
190.2025440978
 20
146.4423096307
 30
0.0
 11
190.1534655721
 21
146.3050900794
 31
0.0
  0
LINE
  5
127
330
1F
100
AcDbEntity
  8
0
  6
SLD-Durchgehend
 62
     7
100
AcDbLine
 10
190.1534655721
 20
146.3050900794
 30
0.0
 11
190.0953726234
 21
146.1778865537
 31
0.0
  0
LINE
  5
128
330
1F
100
AcDbEntity
  8
0
  6
SLD-Durchgehend
 62
     7
100
AcDbLine
 10
190.0953726234
 20
146.1778865537
 30
0.0
 11
190.0272636491
 21
146.0576942461
 31
0.0
  0
LINE
  5
129
330
1F
100
AcDbEntity
  8
0
  6
SLD-Durchgehend
 62
     7
100
AcDbLine
 10
190.0272636491
 20
146.0576942461
 30
0.0
 11
189.9501402516
 21
145.947517964
 31
0.0
  0
LINE
  5
12A
330
1F
100
AcDbEntity
  8
0
  6
SLD-Durchgehend
 62
     7
100
AcDbLine
 10
189.9501402516
 20
145.947517964
 30
0.0
 11
189.8630008285
 21
145.8453545025
 31
0.0
  0
LINE
  5
12B
330
1F
100
AcDbEntity
  8
0
  6
SLD-Durchgehend
 62
     7
100
AcDbLine
 10
189.8630008285
 20
145.8453545025
 30
0.0
 11
189.7658453798
 21
145.7512038614
 31
0.0
  0
LINE
  5
12C
330
1F
100
AcDbEntity
  8
0
  6
SLD-Durchgehend
 62
     7
100
AcDbLine
 10
189.7658453798
 20
145.7512038614
 30
0.0
 11
189.6616787132
 21
145.6680708486
 31
0.0
  0
LINE
  5
12D
330
1F
100
AcDbEntity
  8
0
  6
SLD-Durchgehend
 62
     7
100
AcDbLine
 10
189.6616787132
 20
145.6680708486
 30
0.0
 11
189.5515024311
 21
145.5949538614
 31
0.0
  0
LINE
  5
12E
330
1F
100
AcDbEntity
  8
0
  6
SLD-Durchgehend
 62
     7
100
AcDbLine
 10
189.5515024311
 20
145.5949538614
 30
0.0
 11
189.4353165337
 21
145.533856105
 31
0.0
  0
LINE
  5
12F
330
1F
100
AcDbEntity
  8
0
  6
SLD-Durchgehend
 62
     7
100
AcDbLine
 10
189.4353165337
 20
145.533856105
 30
0.0
 11
189.3141226234
 21
145.4837759768
 31
0.0
  0
LINE
  5
130
330
1F
100
AcDbEntity
  8
0
  6
SLD-Durchgehend
 62
     7
100
AcDbLine
 10
189.3141226234
 20
145.4837759768
 30
0.0
 11
189.1869190978
 21
145.4447134768
 31
0.0
  0
LINE
  5
131
330
1F
100
AcDbEntity
  8
0
  6
SLD-Durchgehend
 62
     7
100
AcDbLine
 10
189.1869190978
 20
145.4447134768
 30
0.0
 11
189.0537059568
 21
145.416668605
 31
0.0
  0
LINE
  5
132
330
1F
100
AcDbEntity
  8
0
  6
SLD-Durchgehend
 62
     7
100
AcDbLine
 10
189.0537059568
 20
145.416668605
 30
0.0
 11
188.9144832003
 21
145.400642964
 31
0.0
  0
LINE
  5
133
330
1F
100
AcDbEntity
  8
0
  6
SLD-Durchgehend
 62
     7
100
AcDbLine
 10
188.9144832003
 20
145.400642964
 30
0.0
 11
188.7702524311
 21
145.3946333486
 31
0.0
  0
LINE
  5
134
330
1F
100
AcDbEntity
  8
0
  6
SLD-Durchgehend
 62
     7
100
AcDbLine
 10
188.7702524311
 20
145.3946333486
 30
0.0
 11
188.5899639696
 21
145.4026461691
 31
0.0
  0
LINE
  5
135
330
1F
100
AcDbEntity
  8
0
  6
SLD-Durchgehend
 62
     7
100
AcDbLine
 10
188.5899639696
 20
145.4026461691
 30
0.0
 11
188.4176883285
 21
145.4246814255
 31
0.0
  0
LINE
  5
136
330
1F
100
AcDbEntity
  8
0
  6
SLD-Durchgehend
 62
     7
100
AcDbLine
 10
188.4176883285
 20
145.4246814255
 30
0.0
 11
188.2554287132
 21
145.462742323
 31
0.0
  0
LINE
  5
137
330
1F
100
AcDbEntity
  8
0
  6
SLD-Durchgehend
 62
     7
100
AcDbLine
 10
188.2554287132
 20
145.462742323
 30
0.0
 11
188.1021835209
 21
145.5158272589
 31
0.0
  0
LINE
  5
138
330
1F
100
AcDbEntity
  8
0
  6
SLD-Durchgehend
 62
     7
100
AcDbLine
 10
188.1021835209
 20
145.5158272589
 30
0.0
 11
187.9579527516
 21
145.5839362332
 31
0.0
  0
LINE
  5
139
330
1F
100
AcDbEntity
  8
0
  6
SLD-Durchgehend
 62
     7
100
AcDbLine
 10
187.9579527516
 20
145.5839362332
 30
0.0
 11
187.8227364055
 21
145.6680708486
 31
0.0
  0
LINE
  5
13A
330
1F
100
AcDbEntity
  8
0
  6
SLD-Durchgehend
 62
     7
100
AcDbLine
 10
187.8227364055
 20
145.6680708486
 30
0.0
 11
187.6965344824
 21
145.7662278999
 31
0.0
  0
LINE
  5
13B
330
1F
100
AcDbEntity
  8
0
  6
SLD-Durchgehend
 62
     7
100
AcDbLine
 10
187.6965344824
 20
145.7662278999
 30
0.0
 11
187.5793469824
 21
145.8804105922
 31
0.0
  0
LINE
  5
13C
330
1F
100
AcDbEntity
  8
0
  6
SLD-Durchgehend
 62
     7
100
AcDbLine
 10
187.5793469824
 20
145.8804105922
 30
0.0
 11
187.4741787132
 21
146.0086157204
 31
0.0
  0
LINE
  5
13D
330
1F
100
AcDbEntity
  8
0
  6
SLD-Durchgehend
 62
     7
100
AcDbLine
 10
187.4741787132
 20
146.0086157204
 30
0.0
 11
187.3830328798
 21
146.149841682
 31
0.0
  0
LINE
  5
13E
330
1F
100
AcDbEntity
  8
0
  6
SLD-Durchgehend
 62
     7
100
AcDbLine
 10
187.3830328798
 20
146.149841682
 30
0.0
 11
187.3049078798
 21
146.3040884768
 31
0.0
  0
LINE
  5
13F
330
1F
100
AcDbEntity
  8
0
  6
SLD-Durchgehend
 62
     7
100
AcDbLine
 10
187.3049078798
 20
146.3040884768
 30
0.0
 11
187.2418069183
 21
146.471356105
 31
0.0
  0
LINE
  5
140
330
1F
100
AcDbEntity
  8
0
  6
SLD-Durchgehend
 62
     7
100
AcDbLine
 10
187.2418069183
 20
146.471356105
 30
0.0
 11
187.1927283926
 21
146.6516445666
 31
0.0
  0
LINE
  5
141
330
1F
100
AcDbEntity
  8
0
  6
SLD-Durchgehend
 62
     7
100
AcDbLine
 10
187.1927283926
 20
146.6516445666
 30
0.0
 11
187.1576723029
 21
146.8449538614
 31
0.0
  0
LINE
  5
142
330
1F
100
AcDbEntity
  8
0
  6
SLD-Durchgehend
 62
     7
100
AcDbLine
 10
187.1576723029
 20
146.8449538614
 30
0.0
 11
187.1366386491
 21
147.0522855922
 31
0.0
  0
LINE
  5
143
330
1F
100
AcDbEntity
  8
0
  6
SLD-Durchgehend
 62
     7
100
AcDbLine
 10
187.1366386491
 20
147.0522855922
 30
0.0
 11
187.1296274311
 21
147.2716365537
 31
0.0
  0
LINE
  5
144
330
1F
100
AcDbEntity
  8
0
  6
SLD-Durchgehend
 62
     7
100
AcDbLine
 10
187.1296274311
 20
147.2716365537
 30
0.0
 11
187.1326322388
 21
147.415867323
 31
0.0
  0
LINE
  5
145
330
1F
100
AcDbEntity
  8
0
  6
SLD-Durchgehend
 62
     7
100
AcDbLine
 10
187.1326322388
 20
147.415867323
 30
0.0
 11
187.1416466619
 21
147.556091682
 31
0.0
  0
LINE
  5
146
330
1F
100
AcDbEntity
  8
0
  6
SLD-Durchgehend
 62
     7
100
AcDbLine
 10
187.1416466619
 20
147.556091682
 30
0.0
 11
187.1566707003
 21
147.6913080281
 31
0.0
  0
LINE
  5
147
330
1F
100
AcDbEntity
  8
0
  6
SLD-Durchgehend
 62
     7
100
AcDbLine
 10
187.1566707003
 20
147.6913080281
 30
0.0
 11
187.1777043542
 21
147.8215163614
 31
0.0
  0
LINE
  5
148
330
1F
100
AcDbEntity
  8
0
  6
SLD-Durchgehend
 62
     7
100
AcDbLine
 10
187.1777043542
 20
147.8215163614
 30
0.0
 11
187.2047476234
 21
147.9477182845
 31
0.0
  0
LINE
  5
149
330
1F
100
AcDbEntity
  8
0
  6
SLD-Durchgehend
 62
     7
100
AcDbLine
 10
187.2047476234
 20
147.9477182845
 30
0.0
 11
187.2388021106
 21
148.0689121948
 31
0.0
  0
LINE
  5
14A
330
1F
100
AcDbEntity
  8
0
  6
SLD-Durchgehend
 62
     7
100
AcDbLine
 10
187.2388021106
 20
148.0689121948
 30
0.0
 11
187.2778646106
 21
148.1850980922
 31
0.0
  0
LINE
  5
14B
330
1F
100
AcDbEntity
  8
0
  6
SLD-Durchgehend
 62
     7
100
AcDbLine
 10
187.2778646106
 20
148.1850980922
 30
0.0
 11
187.322936726
 21
148.2972775794
 31
0.0
  0
LINE
  5
14C
330
1F
100
AcDbEntity
  8
0
  6
SLD-Durchgehend
 62
     7
100
AcDbLine
 10
187.322936726
 20
148.2972775794
 30
0.0
 11
187.3740184568
 21
148.4034474512
 31
0.0
  0
LINE
  5
14D
330
1F
100
AcDbEntity
  8
0
  6
SLD-Durchgehend
 62
     7
100
AcDbLine
 10
187.3740184568
 20
148.4034474512
 30
0.0
 11
187.4321114055
 21
148.5036077076
 31
0.0
  0
LINE
  5
14E
330
1F
100
AcDbEntity
  8
0
  6
SLD-Durchgehend
 62
     7
100
AcDbLine
 10
187.4321114055
 20
148.5036077076
 30
0.0
 11
187.4962139696
 21
148.5957551435
 31
0.0
  0
LINE
  5
14F
330
1F
100
AcDbEntity
  8
0
  6
SLD-Durchgehend
 62
     7
100
AcDbLine
 10
187.4962139696
 20
148.5957551435
 30
0.0
 11
187.5663261491
 21
148.681892964
 31
0.0
  0
LINE
  5
150
330
1F
100
AcDbEntity
  8
0
  6
SLD-Durchgehend
 62
     7
100
AcDbLine
 10
187.5663261491
 20
148.681892964
 30
0.0
 11
187.6434495465
 21
148.7610195666
 31
0.0
  0
LINE
  5
151
330
1F
100
AcDbEntity
  8
0
  6
SLD-Durchgehend
 62
     7
100
AcDbLine
 10
187.6434495465
 20
148.7610195666
 30
0.0
 11
187.7265825593
 21
148.8331349512
 31
0.0
  0
LINE
  5
152
330
1F
100
AcDbEntity
  8
0
  6
SLD-Durchgehend
 62
     7
100
AcDbLine
 10
187.7265825593
 20
148.8331349512
 30
0.0
 11
187.8157251875
 21
148.8982391179
 31
0.0
  0
LINE
  5
153
330
1F
100
AcDbEntity
  8
0
  6
SLD-Durchgehend
 62
     7
100
AcDbLine
 10
187.8157251875
 20
148.8982391179
 30
0.0
 11
187.9108774311
 21
148.9563320666
 31
0.0
  0
LINE
  5
154
330
1F
100
AcDbEntity
  8
0
  6
SLD-Durchgehend
 62
     7
100
AcDbLine
 10
187.9108774311
 20
148.9563320666
 30
0.0
 11
188.1121995465
 21
149.0524859127
 31
0.0
  0
LINE
  5
155
330
1F
100
AcDbEntity
  8
0
  6
SLD-Durchgehend
 62
     7
100
AcDbLine
 10
188.1121995465
 20
149.0524859127
 30
0.0
 11
188.322536085
 21
149.1215964896
 31
0.0
  0
LINE
  5
156
330
1F
100
AcDbEntity
  8
0
  6
SLD-Durchgehend
 62
     7
100
AcDbLine
 10
188.322536085
 20
149.1215964896
 30
0.0
 11
188.5418870465
 21
149.1626621948
 31
0.0
  0
LINE
  5
157
330
1F
100
AcDbEntity
  8
0
  6
SLD-Durchgehend
 62
     7
100
AcDbLine
 10
188.5418870465
 20
149.1626621948
 30
0.0
 11
188.7692508285
 21
149.1766846307
 31
0.0
  0
LINE
  5
158
330
1F
100
AcDbEntity
  8
0
  6
SLD-Durchgehend
 62
     7
100
AcDbLine
 10
188.7692508285
 20
149.1766846307
 30
0.0
 11
188.9124799952
 21
149.1716766179
 31
0.0
  0
LINE
  5
159
330
1F
100
AcDbEntity
  8
0
  6
SLD-Durchgehend
 62
     7
100
AcDbLine
 10
188.9124799952
 20
149.1716766179
 30
0.0
 11
189.0496995465
 21
149.157654182
 31
0.0
  0
LINE
  5
15A
330
1F
100
AcDbEntity
  8
0
  6
SLD-Durchgehend
 62
     7
100
AcDbLine
 10
189.0496995465
 20
149.157654182
 30
0.0
 11
189.1789062773
 21
149.134617323
 31
0.0
  0
LINE
  5
15B
330
1F
100
AcDbEntity
  8
0
  6
SLD-Durchgehend
 62
     7
100
AcDbLine
 10
189.1789062773
 20
149.134617323
 30
0.0
 11
189.3031049952
 21
149.1015644384
 31
0.0
  0
LINE
  5
15C
330
1F
100
AcDbEntity
  8
0
  6
SLD-Durchgehend
 62
     7
100
AcDbLine
 10
189.3031049952
 20
149.1015644384
 30
0.0
 11
189.4192908926
 21
149.0594971307
 31
0.0
  0
LINE
  5
15D
330
1F
100
AcDbEntity
  8
0
  6
SLD-Durchgehend
 62
     7
100
AcDbLine
 10
189.4192908926
 20
149.0594971307
 30
0.0
 11
189.5294671747
 21
149.0074137973
 31
0.0
  0
LINE
  5
15E
330
1F
100
AcDbEntity
  8
0
  6
SLD-Durchgehend
 62
     7
100
AcDbLine
 10
189.5294671747
 20
149.0074137973
 30
0.0
 11
189.6326322388
 21
148.9463160409
 31
0.0
  0
LINE
  5
15F
330
1F
100
AcDbEntity
  8
0
  6
SLD-Durchgehend
 62
     7
100
AcDbLine
 10
189.6326322388
 20
148.9463160409
 30
0.0
 11
189.728786085
 21
148.8762038614
 31
0.0
  0
LINE
  5
160
330
1F
100
AcDbEntity
  8
0
  6
SLD-Durchgehend
 62
     7
100
AcDbLine
 10
189.728786085
 20
148.8762038614
 30
0.0
 11
189.8179287132
 21
148.7970772589
 31
0.0
  0
LINE
  5
161
330
1F
100
AcDbEntity
  8
0
  6
SLD-Durchgehend
 62
     7
100
AcDbLine
 10
189.8179287132
 20
148.7970772589
 30
0.0
 11
189.8980569183
 21
148.7099378358
 31
0.0
  0
LINE
  5
162
330
1F
100
AcDbEntity
  8
0
  6
SLD-Durchgehend
 62
     7
100
AcDbLine
 10
189.8980569183
 20
148.7099378358
 30
0.0
 11
189.9701723029
 21
148.6157871948
 31
0.0
  0
LINE
  5
163
330
1F
100
AcDbEntity
  8
0
  6
SLD-Durchgehend
 62
     7
100
AcDbLine
 10
189.9701723029
 20
148.6157871948
 30
0.0
 11
190.034274867
 21
148.5126221307
 31
0.0
  0
LINE
  5
164
330
1F
100
AcDbEntity
  8
0
  6
SLD-Durchgehend
 62
     7
100
AcDbLine
 10
190.034274867
 20
148.5126221307
 30
0.0
 11
190.0903646106
 21
148.4024458486
 31
0.0
  0
LINE
  5
165
330
1F
100
AcDbEntity
  8
0
  6
SLD-Durchgehend
 62
     7
100
AcDbLine
 10
190.0903646106
 20
148.4024458486
 30
0.0
 11
190.1374399311
 21
148.2832551435
 31
0.0
  0
LINE
  5
166
330
1F
100
AcDbEntity
  8
0
  6
SLD-Durchgehend
 62
     7
100
AcDbLine
 10
190.1374399311
 20
148.2832551435
 30
0.0
 11
190.1765024311
 21
148.1570532204
 31
0.0
  0
LINE
  5
167
330
1F
100
AcDbEntity
  8
0
  6
SLD-Durchgehend
 62
     7
100
AcDbLine
 10
190.1765024311
 20
148.1570532204
 30
0.0
 11
190.206550508
 21
148.0228384768
 31
0.0
  0
LINE
  5
168
330
1F
100
AcDbEntity
  8
0
  6
SLD-Durchgehend
 62
     7
100
AcDbLine
 10
190.206550508
 20
148.0228384768
 30
0.0
 11
189.565524867
 21
147.9587359127
 31
0.0
  0
LINE
  5
169
330
1F
100
AcDbEntity
  8
0
  6
SLD-Durchgehend
 62
     7
100
AcDbLine
 10
189.565524867
 20
147.9587359127
 30
0.0
 11
189.5164463414
 21
148.1089762973
 31
0.0
  0
LINE
  5
16A
330
1F
100
AcDbEntity
  8
0
  6
SLD-Durchgehend
 62
     7
100
AcDbLine
 10
189.5164463414
 20
148.1089762973
 30
0.0
 11
189.4523437773
 21
148.2381830281
 31
0.0
  0
LINE
  5
16B
330
1F
100
AcDbEntity
  8
0
  6
SLD-Durchgehend
 62
     7
100
AcDbLine
 10
189.4523437773
 20
148.2381830281
 30
0.0
 11
189.3712139696
 21
148.3483593102
 31
0.0
  0
LINE
  5
16C
330
1F
100
AcDbEntity
  8
0
  6
SLD-Durchgehend
 62
     7
100
AcDbLine
 10
189.3712139696
 20
148.3483593102
 30
0.0
 11
189.2750601234
 21
148.4385035409
 31
0.0
  0
LINE
  5
16D
330
1F
100
AcDbEntity
  8
0
  6
SLD-Durchgehend
 62
     7
100
AcDbLine
 10
189.2750601234
 20
148.4385035409
 30
0.0
 11
189.1658854439
 21
148.5086157204
 31
0.0
  0
LINE
  5
16E
330
1F
100
AcDbEntity
  8
0
  6
SLD-Durchgehend
 62
     7
100
AcDbLine
 10
189.1658854439
 20
148.5086157204
 30
0.0
 11
189.0456931362
 21
148.5596974512
 31
0.0
  0
LINE
  5
16F
330
1F
100
AcDbEntity
  8
0
  6
SLD-Durchgehend
 62
     7
100
AcDbLine
 10
189.0456931362
 20
148.5596974512
 30
0.0
 11
188.9154848029
 21
148.5897455281
 31
0.0
  0
LINE
  5
170
330
1F
100
AcDbEntity
  8
0
  6
SLD-Durchgehend
 62
     7
100
AcDbLine
 10
188.9154848029
 20
148.5897455281
 30
0.0
 11
188.7732572388
 21
148.5997615537
 31
0.0
  0
LINE
  5
171
330
1F
100
AcDbEntity
  8
0
  6
SLD-Durchgehend
 62
     7
100
AcDbLine
 10
188.7732572388
 20
148.5997615537
 30
0.0
 11
188.6640825593
 21
148.5947535409
 31
0.0
  0
LINE
  5
172
330
1F
100
AcDbEntity
  8
0
  6
SLD-Durchgehend
 62
     7
100
AcDbLine
 10
188.6640825593
 20
148.5947535409
 30
0.0
 11
188.5609174952
 21
148.5797295025
 31
0.0
  0
LINE
  5
173
330
1F
100
AcDbEntity
  8
0
  6
SLD-Durchgehend
 62
     7
100
AcDbLine
 10
188.5609174952
 20
148.5797295025
 30
0.0
 11
188.4627604439
 21
148.5556910409
 31
0.0
  0
LINE
  5
174
330
1F
100
AcDbEntity
  8
0
  6
SLD-Durchgehend
 62
     7
100
AcDbLine
 10
188.4627604439
 20
148.5556910409
 30
0.0
 11
188.3696114055
 21
148.5206349512
 31
0.0
  0
LINE
  5
175
330
1F
100
AcDbEntity
  8
0
  6
SLD-Durchgehend
 62
     7
100
AcDbLine
 10
188.3696114055
 20
148.5206349512
 30
0.0
 11
188.2814703798
 21
148.4765644384
 31
0.0
  0
LINE
  5
176
330
1F
100
AcDbEntity
  8
0
  6
SLD-Durchgehend
 62
     7
100
AcDbLine
 10
188.2814703798
 20
148.4765644384
 30
0.0
 11
188.198337367
 21
148.4224778999
 31
0.0
  0
LINE
  5
177
330
1F
100
AcDbEntity
  8
0
  6
SLD-Durchgehend
 62
     7
100
AcDbLine
 10
188.198337367
 20
148.4224778999
 30
0.0
 11
188.1212139696
 21
148.3583753358
 31
0.0
  0
LINE
  5
178
330
1F
100
AcDbEntity
  8
0
  6
SLD-Durchgehend
 62
     7
100
AcDbLine
 10
188.1212139696
 20
148.3583753358
 30
0.0
 11
188.049098585
 21
148.2842567461
 31
0.0
  0
LINE
  5
179
330
1F
100
AcDbEntity
  8
0
  6
SLD-Durchgehend
 62
     7
100
AcDbLine
 10
188.049098585
 20
148.2842567461
 30
0.0
 11
187.9839944183
 21
148.2001221307
 31
0.0
  0
LINE
  5
17A
330
1F
100
AcDbEntity
  8
0
  6
SLD-Durchgehend
 62
     7
100
AcDbLine
 10
187.9839944183
 20
148.2001221307
 30
0.0
 11
187.9269030721
 21
148.1039682845
 31
0.0
  0
LINE
  5
17B
330
1F
100
AcDbEntity
  8
0
  6
SLD-Durchgehend
 62
     7
100
AcDbLine
 10
187.9269030721
 20
148.1039682845
 30
0.0
 11
187.8798277516
 21
147.9967968102
 31
0.0
  0
LINE
  5
17C
330
1F
100
AcDbEntity
  8
0
  6
SLD-Durchgehend
 62
     7
100
AcDbLine
 10
187.8798277516
 20
147.9967968102
 30
0.0
 11
187.8407652516
 21
147.8786077076
 31
0.0
  0
LINE
  5
17D
330
1F
100
AcDbEntity
  8
0
  6
SLD-Durchgehend
 62
     7
100
AcDbLine
 10
187.8407652516
 20
147.8786077076
 30
0.0
 11
187.8097155721
 21
147.7483993743
 31
0.0
  0
LINE
  5
17E
330
1F
100
AcDbEntity
  8
0
  6
SLD-Durchgehend
 62
     7
100
AcDbLine
 10
187.8097155721
 20
147.7483993743
 30
0.0
 11
187.7876803157
 21
147.6061718102
 31
0.0
  0
LINE
  5
17F
330
1F
100
AcDbEntity
  8
0
  6
SLD-Durchgehend
 62
     7
100
AcDbLine
 10
187.7876803157
 20
147.6061718102
 30
0.0
 11
187.7746594824
 21
147.4529266179
 31
0.0
  0
LINE
  5
180
330
1F
100
AcDbEntity
  8
0
  6
SLD-Durchgehend
 62
     7
100
AcDbLine
 10
187.7746594824
 20
147.4529266179
 30
0.0
 11
187.7706530721
 21
147.2886637973
 31
0.0
  0
LINE
  5
181
330
1F
100
AcDbEntity
  8
0
  6
SLD-Durchgehend
 62
     7
100
AcDbLine
 10
187.7706530721
 20
147.2886637973
 30
0.0
 11
187.7746594824
 21
147.1213961691
 31
0.0
  0
LINE
  5
182
330
1F
100
AcDbEntity
  8
0
  6
SLD-Durchgehend
 62
     7
100
AcDbLine
 10
187.7746594824
 20
147.1213961691
 30
0.0
 11
187.7876803157
 21
146.9671493743
 31
0.0
  0
LINE
  5
183
330
1F
100
AcDbEntity
  8
0
  6
SLD-Durchgehend
 62
     7
100
AcDbLine
 10
187.7876803157
 20
146.9671493743
 30
0.0
 11
187.8087139696
 21
146.8239202076
 31
0.0
  0
LINE
  5
184
330
1F
100
AcDbEntity
  8
0
  6
SLD-Durchgehend
 62
     7
100
AcDbLine
 10
187.8087139696
 20
146.8239202076
 30
0.0
 11
187.8387620465
 21
146.6917086691
 31
0.0
  0
LINE
  5
185
330
1F
100
AcDbEntity
  8
0
  6
SLD-Durchgehend
 62
     7
100
AcDbLine
 10
187.8387620465
 20
146.6917086691
 30
0.0
 11
187.8758213414
 21
146.572517964
 31
0.0
  0
LINE
  5
186
330
1F
100
AcDbEntity
  8
0
  6
SLD-Durchgehend
 62
     7
100
AcDbLine
 10
187.8758213414
 20
146.572517964
 30
0.0
 11
187.9228966619
 21
146.4643448871
 31
0.0
  0
LINE
  5
187
330
1F
100
AcDbEntity
  8
0
  6
SLD-Durchgehend
 62
     7
100
AcDbLine
 10
187.9228966619
 20
146.4643448871
 30
0.0
 11
187.9779848029
 21
146.3681910409
 31
0.0
  0
LINE
  5
188
330
1F
100
AcDbEntity
  8
0
  6
SLD-Durchgehend
 62
     7
100
AcDbLine
 10
187.9779848029
 20
146.3681910409
 30
0.0
 11
188.0410857644
 21
146.2840564255
 31
0.0
  0
LINE
  5
189
330
1F
100
AcDbEntity
  8
0
  6
SLD-Durchgehend
 62
     7
100
AcDbLine
 10
188.0410857644
 20
146.2840564255
 30
0.0
 11
188.1111979439
 21
146.2109394384
 31
0.0
  0
LINE
  5
18A
330
1F
100
AcDbEntity
  8
0
  6
SLD-Durchgehend
 62
     7
100
AcDbLine
 10
188.1111979439
 20
146.2109394384
 30
0.0
 11
188.1873197388
 21
146.1478384768
 31
0.0
  0
LINE
  5
18B
330
1F
100
AcDbEntity
  8
0
  6
SLD-Durchgehend
 62
     7
100
AcDbLine
 10
188.1873197388
 20
146.1478384768
 30
0.0
 11
188.2674479439
 21
146.0937519384
 31
0.0
  0
LINE
  5
18C
330
1F
100
AcDbEntity
  8
0
  6
SLD-Durchgehend
 62
     7
100
AcDbLine
 10
188.2674479439
 20
146.0937519384
 30
0.0
 11
188.3535857644
 21
146.0496814255
 31
0.0
  0
LINE
  5
18D
330
1F
100
AcDbEntity
  8
0
  6
SLD-Durchgehend
 62
     7
100
AcDbLine
 10
188.3535857644
 20
146.0496814255
 30
0.0
 11
188.4447315978
 21
146.0156269384
 31
0.0
  0
LINE
  5
18E
330
1F
100
AcDbEntity
  8
0
  6
SLD-Durchgehend
 62
     7
100
AcDbLine
 10
188.4447315978
 20
146.0156269384
 30
0.0
 11
188.5408854439
 21
145.9915884768
 31
0.0
  0
LINE
  5
18F
330
1F
100
AcDbEntity
  8
0
  6
SLD-Durchgehend
 62
     7
100
AcDbLine
 10
188.5408854439
 20
145.9915884768
 30
0.0
 11
188.6420473029
 21
145.9765644384
 31
0.0
  0
LINE
  5
190
330
1F
100
AcDbEntity
  8
0
  6
SLD-Durchgehend
 62
     7
100
AcDbLine
 10
188.6420473029
 20
145.9765644384
 30
0.0
 11
188.7482171747
 21
145.9715564255
 31
0.0
  0
LINE
  5
191
330
1F
100
AcDbEntity
  8
0
  6
SLD-Durchgehend
 62
     7
100
AcDbLine
 10
188.7482171747
 20
145.9715564255
 30
0.0
 11
188.8333533926
 21
145.9745612332
 31
0.0
  0
LINE
  5
192
330
1F
100
AcDbEntity
  8
0
  6
SLD-Durchgehend
 62
     7
100
AcDbLine
 10
188.8333533926
 20
145.9745612332
 30
0.0
 11
188.9154848029
 21
145.9845772589
 31
0.0
  0
LINE
  5
193
330
1F
100
AcDbEntity
  8
0
  6
SLD-Durchgehend
 62
     7
100
AcDbLine
 10
188.9154848029
 20
145.9845772589
 30
0.0
 11
188.9946114055
 21
146.0006028999
 31
0.0
  0
LINE
  5
194
330
1F
100
AcDbEntity
  8
0
  6
SLD-Durchgehend
 62
     7
100
AcDbLine
 10
188.9946114055
 20
146.0006028999
 30
0.0
 11
189.0687299952
 21
146.0226381563
 31
0.0
  0
LINE
  5
195
330
1F
100
AcDbEntity
  8
0
  6
SLD-Durchgehend
 62
     7
100
AcDbLine
 10
189.0687299952
 20
146.0226381563
 30
0.0
 11
189.1398437773
 21
146.0516846307
 31
0.0
  0
LINE
  5
196
330
1F
100
AcDbEntity
  8
0
  6
SLD-Durchgehend
 62
     7
100
AcDbLine
 10
189.1398437773
 20
146.0516846307
 30
0.0
 11
189.2079527516
 21
146.0867407204
 31
0.0
  0
LINE
  5
197
330
1F
100
AcDbEntity
  8
0
  6
SLD-Durchgehend
 62
     7
100
AcDbLine
 10
189.2079527516
 20
146.0867407204
 30
0.0
 11
189.2720553157
 21
146.1278064255
 31
0.0
  0
LINE
  5
198
330
1F
100
AcDbEntity
  8
0
  6
SLD-Durchgehend
 62
     7
100
AcDbLine
 10
189.2720553157
 20
146.1278064255
 30
0.0
 11
189.3321514696
 21
146.1758833486
 31
0.0
  0
LINE
  5
199
330
1F
100
AcDbEntity
  8
0
  6
SLD-Durchgehend
 62
     7
100
AcDbLine
 10
189.3321514696
 20
146.1758833486
 30
0.0
 11
189.3882412132
 21
146.2299698871
 31
0.0
  0
LINE
  5
19A
330
1F
100
AcDbEntity
  8
0
  6
SLD-Durchgehend
 62
     7
100
AcDbLine
 10
189.3882412132
 20
146.2299698871
 30
0.0
 11
189.4383213414
 21
146.2920692461
 31
0.0
  0
LINE
  5
19B
330
1F
100
AcDbEntity
  8
0
  6
SLD-Durchgehend
 62
     7
100
AcDbLine
 10
189.4383213414
 20
146.2920692461
 30
0.0
 11
189.4833934568
 21
146.3601782204
 31
0.0
  0
LINE
  5
19C
330
1F
100
AcDbEntity
  8
0
  6
SLD-Durchgehend
 62
     7
100
AcDbLine
 10
189.4833934568
 20
146.3601782204
 30
0.0
 11
189.5234575593
 21
146.4352984127
 31
0.0
  0
LINE
  5
19D
330
1F
100
AcDbEntity
  8
0
  6
SLD-Durchgehend
 62
     7
100
AcDbLine
 10
189.5234575593
 20
146.4352984127
 30
0.0
 11
189.5585136491
 21
146.517429823
 31
0.0
  0
LINE
  5
19E
330
1F
100
AcDbEntity
  8
0
  6
SLD-Durchgehend
 62
     7
100
AcDbLine
 10
189.5585136491
 20
146.517429823
 30
0.0
 11
189.5875601234
 21
146.6065724512
 31
0.0
  0
LINE
  5
19F
330
1F
100
AcDbEntity
  8
0
  6
SLD-Durchgehend
 62
     7
100
AcDbLine
 10
189.5875601234
 20
146.6065724512
 30
0.0
 11
189.611598585
 21
146.7017246948
 31
0.0
  0
LINE
  5
1A0
330
1F
100
AcDbEntity
  8
0
  6
SLD-Durchgehend
 62
     7
100
AcDbLine
 10
189.611598585
 20
146.7017246948
 30
0.0
 11
189.6296274311
 21
146.8048897589
 31
0.0
  0
LINE
  5
1A1
330
1F
100
AcDbEntity
  8
0
  6
SLD-Durchgehend
 62
     7
100
AcDbLine
 10
190.7944967272
 20
145.4587359127
 30
0.0
 11
190.7944912132
 21
150.4587359127
 31
0.0
  0
LINE
  5
1A2
330
1F
100
AcDbEntity
  8
0
  6
SLD-Durchgehend
 62
     7
100
AcDbLine
 10
190.7944912132
 20
150.4587359127
 30
0.0
 11
191.4355168542
 21
150.4587359127
 31
0.0
  0
LINE
  5
1A3
330
1F
100
AcDbEntity
  8
0
  6
SLD-Durchgehend
 62
     7
100
AcDbLine
 10
191.4355168542
 20
150.4587359127
 30
0.0
 11
191.4355168542
 21
147.806492323
 31
0.0
  0
LINE
  5
1A4
330
1F
100
AcDbEntity
  8
0
  6
SLD-Durchgehend
 62
     7
100
AcDbLine
 10
191.4355168542
 20
147.806492323
 30
0.0
 11
192.775661085
 21
149.1125820666
 31
0.0
  0
LINE
  5
1A5
330
1F
100
AcDbEntity
  8
0
  6
SLD-Durchgehend
 62
     7
100
AcDbLine
 10
192.775661085
 20
149.1125820666
 30
0.0
 11
193.6680889696
 21
149.1125820666
 31
0.0
  0
LINE
  5
1A6
330
1F
100
AcDbEntity
  8
0
  6
SLD-Durchgehend
 62
     7
100
AcDbLine
 10
193.6680889696
 20
149.1125820666
 30
0.0
 11
192.2648437773
 21
147.7463961691
 31
0.0
  0
LINE
  5
1A7
330
1F
100
AcDbEntity
  8
0
  6
SLD-Durchgehend
 62
     7
100
AcDbLine
 10
192.2648437773
 20
147.7463961691
 30
0.0
 11
193.7321915337
 21
145.4587359127
 31
0.0
  0
LINE
  5
1A8
330
1F
100
AcDbEntity
  8
0
  6
SLD-Durchgehend
 62
     7
100
AcDbLine
 10
193.7321915337
 20
145.4587359127
 30
0.0
 11
192.9829928157
 21
145.4587359127
 31
0.0
  0
LINE
  5
1A9
330
1F
100
AcDbEntity
  8
0
  6
SLD-Durchgehend
 62
     7
100
AcDbLine
 10
192.9829928157
 20
145.4587359127
 30
0.0
 11
191.8031049952
 21
147.2966766179
 31
0.0
  0
LINE
  5
1AA
330
1F
100
AcDbEntity
  8
0
  6
SLD-Durchgehend
 62
     7
100
AcDbLine
 10
191.8031049952
 20
147.2966766179
 30
0.0
 11
191.4355168542
 21
146.9381028999
 31
0.0
  0
LINE
  5
1AB
330
1F
100
AcDbEntity
  8
0
  6
SLD-Durchgehend
 62
     7
100
AcDbLine
 10
191.4355168542
 20
146.9381028999
 30
0.0
 11
191.4355168542
 21
145.4587359127
 31
0.0
  0
LINE
  5
1AC
330
1F
100
AcDbEntity
  8
0
  6
SLD-Durchgehend
 62
     7
100
AcDbLine
 10
191.4355168542
 20
145.4587359127
 30
0.0
 11
190.7944912132
 21
145.4587359127
 31
0.0
  0
LINE
  5
1AD
330
1F
100
AcDbEntity
  8
0
  6
SLD-Durchgehend
 62
     7
100
AcDbLine
 10
196.7380036833
 20
146.5484795025
 30
0.0
 11
197.3660056362
 21
146.4843769384
 31
0.0
  0
LINE
  5
1AE
330
1F
100
AcDbEntity
  8
0
  6
SLD-Durchgehend
 62
     7
100
AcDbLine
 10
197.3660056362
 20
146.4843769384
 30
0.0
 11
197.3249399311
 21
146.3581750153
 31
0.0
  0
LINE
  5
1AF
330
1F
100
AcDbEntity
  8
0
  6
SLD-Durchgehend
 62
     7
100
AcDbLine
 10
197.3249399311
 20
146.3581750153
 30
0.0
 11
197.2748598029
 21
146.2399859127
 31
0.0
  0
LINE
  5
1B0
330
1F
100
AcDbEntity
  8
0
  6
SLD-Durchgehend
 62
     7
100
AcDbLine
 10
197.2748598029
 20
146.2399859127
 30
0.0
 11
197.2177684568
 21
146.1288080281
 31
0.0
  0
LINE
  5
1B1
330
1F
100
AcDbEntity
  8
0
  6
SLD-Durchgehend
 62
     7
100
AcDbLine
 10
197.2177684568
 20
146.1288080281
 30
0.0
 11
197.1516626875
 21
146.0246413614
 31
0.0
  0
LINE
  5
1B2
330
1F
100
AcDbEntity
  8
0
  6
SLD-Durchgehend
 62
     7
100
AcDbLine
 10
197.1516626875
 20
146.0246413614
 30
0.0
 11
197.0785457003
 21
145.9274859127
 31
0.0
  0
LINE
  5
1B3
330
1F
100
AcDbEntity
  8
0
  6
SLD-Durchgehend
 62
     7
100
AcDbLine
 10
197.0785457003
 20
145.9274859127
 30
0.0
 11
196.9974158926
 21
145.837341682
 31
0.0
  0
LINE
  5
1B4
330
1F
100
AcDbEntity
  8
0
  6
SLD-Durchgehend
 62
     7
100
AcDbLine
 10
196.9974158926
 20
145.837341682
 30
0.0
 11
196.9072716619
 21
145.7552102717
 31
0.0
  0
LINE
  5
1B5
330
1F
100
AcDbEntity
  8
0
  6
SLD-Durchgehend
 62
     7
100
AcDbLine
 10
196.9072716619
 20
145.7552102717
 30
0.0
 11
196.8101162132
 21
145.6800900794
 31
0.0
  0
LINE
  5
1B6
330
1F
100
AcDbEntity
  8
0
  6
SLD-Durchgehend
 62
     7
100
AcDbLine
 10
196.8101162132
 20
145.6800900794
 30
0.0
 11
196.7049479439
 21
145.6129827076
 31
0.0
  0
LINE
  5
1B7
330
1F
100
AcDbEntity
  8
0
  6
SLD-Durchgehend
 62
     7
100
AcDbLine
 10
196.7049479439
 20
145.6129827076
 30
0.0
 11
196.5937700593
 21
145.5548897589
 31
0.0
  0
LINE
  5
1B8
330
1F
100
AcDbEntity
  8
0
  6
SLD-Durchgehend
 62
     7
100
AcDbLine
 10
196.5937700593
 20
145.5548897589
 30
0.0
 11
196.4745793542
 21
145.5058112332
 31
0.0
  0
LINE
  5
1B9
330
1F
100
AcDbEntity
  8
0
  6
SLD-Durchgehend
 62
     7
100
AcDbLine
 10
196.4745793542
 20
145.5058112332
 30
0.0
 11
196.3493790337
 21
145.4657471307
 31
0.0
  0
LINE
  5
1BA
330
1F
100
AcDbEntity
  8
0
  6
SLD-Durchgehend
 62
     7
100
AcDbLine
 10
196.3493790337
 20
145.4657471307
 30
0.0
 11
196.2161658926
 21
145.4346974512
 31
0.0
  0
LINE
  5
1BB
330
1F
100
AcDbEntity
  8
0
  6
SLD-Durchgehend
 62
     7
100
AcDbLine
 10
196.2161658926
 20
145.4346974512
 30
0.0
 11
196.0759415337
 21
145.4126621948
 31
0.0
  0
LINE
  5
1BC
330
1F
100
AcDbEntity
  8
0
  6
SLD-Durchgehend
 62
     7
100
AcDbLine
 10
196.0759415337
 20
145.4126621948
 30
0.0
 11
195.9297075593
 21
145.3986397589
 31
0.0
  0
LINE
  5
1BD
330
1F
100
AcDbEntity
  8
0
  6
SLD-Durchgehend
 62
     7
100
AcDbLine
 10
195.9297075593
 20
145.3986397589
 30
0.0
 11
195.7754607644
 21
145.3946333486
 31
0.0
  0
LINE
  5
1BE
330
1F
100
AcDbEntity
  8
0
  6
SLD-Durchgehend
 62
     7
100
AcDbLine
 10
195.7754607644
 20
145.3946333486
 30
0.0
 11
195.5821514696
 21
145.4026461691
 31
0.0
  0
LINE
  5
1BF
330
1F
100
AcDbEntity
  8
0
  6
SLD-Durchgehend
 62
     7
100
AcDbLine
 10
195.5821514696
 20
145.4026461691
 30
0.0
 11
195.3998598029
 21
145.4256830281
 31
0.0
  0
LINE
  5
1C0
330
1F
100
AcDbEntity
  8
0
  6
SLD-Durchgehend
 62
     7
100
AcDbLine
 10
195.3998598029
 20
145.4256830281
 30
0.0
 11
195.2265825593
 21
145.4637439255
 31
0.0
  0
LINE
  5
1C1
330
1F
100
AcDbEntity
  8
0
  6
SLD-Durchgehend
 62
     7
100
AcDbLine
 10
195.2265825593
 20
145.4637439255
 30
0.0
 11
195.0643229439
 21
145.5168288614
 31
0.0
  0
LINE
  5
1C2
330
1F
100
AcDbEntity
  8
0
  6
SLD-Durchgehend
 62
     7
100
AcDbLine
 10
195.0643229439
 20
145.5168288614
 30
0.0
 11
194.9120793542
 21
145.5859394384
 31
0.0
  0
LINE
  5
1C3
330
1F
100
AcDbEntity
  8
0
  6
SLD-Durchgehend
 62
     7
100
AcDbLine
 10
194.9120793542
 20
145.5859394384
 30
0.0
 11
194.7708533926
 21
145.6700740537
 31
0.0
  0
LINE
  5
1C4
330
1F
100
AcDbEntity
  8
0
  6
SLD-Durchgehend
 62
     7
100
AcDbLine
 10
194.7708533926
 20
145.6700740537
 30
0.0
 11
194.6386418542
 21
145.7692327076
 31
0.0
  0
LINE
  5
1C5
330
1F
100
AcDbEntity
  8
0
  6
SLD-Durchgehend
 62
     7
100
AcDbLine
 10
194.6386418542
 20
145.7692327076
 30
0.0
 11
194.5174479439
 21
145.8834153999
 31
0.0
  0
LINE
  5
1C6
330
1F
100
AcDbEntity
  8
0
  6
SLD-Durchgehend
 62
     7
100
AcDbLine
 10
194.5174479439
 20
145.8834153999
 30
0.0
 11
194.4082732644
 21
146.0116205281
 31
0.0
  0
LINE
  5
1C7
330
1F
100
AcDbEntity
  8
0
  6
SLD-Durchgehend
 62
     7
100
AcDbLine
 10
194.4082732644
 20
146.0116205281
 30
0.0
 11
194.3141226234
 21
146.1528464896
 31
0.0
  0
LINE
  5
1C8
330
1F
100
AcDbEntity
  8
0
  6
SLD-Durchgehend
 62
     7
100
AcDbLine
 10
194.3141226234
 20
146.1528464896
 30
0.0
 11
194.2339944183
 21
146.3050900794
 31
0.0
  0
LINE
  5
1C9
330
1F
100
AcDbEntity
  8
0
  6
SLD-Durchgehend
 62
     7
100
AcDbLine
 10
194.2339944183
 20
146.3050900794
 30
0.0
 11
194.1688902516
 21
146.4703545025
 31
0.0
  0
LINE
  5
1CA
330
1F
100
AcDbEntity
  8
0
  6
SLD-Durchgehend
 62
     7
100
AcDbLine
 10
194.1688902516
 20
146.4703545025
 30
0.0
 11
194.1178085209
 21
146.6486397589
 31
0.0
  0
LINE
  5
1CB
330
1F
100
AcDbEntity
  8
0
  6
SLD-Durchgehend
 62
     7
100
AcDbLine
 10
194.1178085209
 20
146.6486397589
 30
0.0
 11
194.0817508285
 21
146.8379426435
 31
0.0
  0
LINE
  5
1CC
330
1F
100
AcDbEntity
  8
0
  6
SLD-Durchgehend
 62
     7
100
AcDbLine
 10
194.0817508285
 20
146.8379426435
 30
0.0
 11
194.0597155721
 21
147.0402663614
 31
0.0
  0
LINE
  5
1CD
330
1F
100
AcDbEntity
  8
0
  6
SLD-Durchgehend
 62
     7
100
AcDbLine
 10
194.0597155721
 20
147.0402663614
 30
0.0
 11
194.0527043542
 21
147.2546093102
 31
0.0
  0
LINE
  5
1CE
330
1F
100
AcDbEntity
  8
0
  6
SLD-Durchgehend
 62
     7
100
AcDbLine
 10
194.0527043542
 20
147.2546093102
 30
0.0
 11
194.0597155721
 21
147.4769650794
 31
0.0
  0
LINE
  5
1CF
330
1F
100
AcDbEntity
  8
0
  6
SLD-Durchgehend
 62
     7
100
AcDbLine
 10
194.0597155721
 20
147.4769650794
 30
0.0
 11
194.0817508285
 21
147.6852984127
 31
0.0
  0
LINE
  5
1D0
330
1F
100
AcDbEntity
  8
0
  6
SLD-Durchgehend
 62
     7
100
AcDbLine
 10
194.0817508285
 20
147.6852984127
 30
0.0
 11
194.1188101234
 21
147.8816125153
 31
0.0
  0
LINE
  5
1D1
330
1F
100
AcDbEntity
  8
0
  6
SLD-Durchgehend
 62
     7
100
AcDbLine
 10
194.1188101234
 20
147.8816125153
 30
0.0
 11
194.1698918542
 21
148.0659073871
 31
0.0
  0
LINE
  5
1D2
330
1F
100
AcDbEntity
  8
0
  6
SLD-Durchgehend
 62
     7
100
AcDbLine
 10
194.1698918542
 20
148.0659073871
 30
0.0
 11
194.2359976234
 21
148.236179823
 31
0.0
  0
LINE
  5
1D3
330
1F
100
AcDbEntity
  8
0
  6
SLD-Durchgehend
 62
     7
100
AcDbLine
 10
194.2359976234
 20
148.236179823
 30
0.0
 11
194.3171274311
 21
148.3944330281
 31
0.0
  0
LINE
  5
1D4
330
1F
100
AcDbEntity
  8
0
  6
SLD-Durchgehend
 62
     7
100
AcDbLine
 10
194.3171274311
 20
148.3944330281
 30
0.0
 11
194.4122796747
 21
148.5396653999
 31
0.0
  0
LINE
  5
1D5
330
1F
100
AcDbEntity
  8
0
  6
SLD-Durchgehend
 62
     7
100
AcDbLine
 10
194.4122796747
 20
148.5396653999
 30
0.0
 11
194.5224559568
 21
148.6718769384
 31
0.0
  0
LINE
  5
1D6
330
1F
100
AcDbEntity
  8
0
  6
SLD-Durchgehend
 62
     7
100
AcDbLine
 10
194.5224559568
 20
148.6718769384
 30
0.0
 11
194.6446514696
 21
148.7900660409
 31
0.0
  0
LINE
  5
1D7
330
1F
100
AcDbEntity
  8
0
  6
SLD-Durchgehend
 62
     7
100
AcDbLine
 10
194.6446514696
 20
148.7900660409
 30
0.0
 11
194.7748598029
 21
148.893231105
 31
0.0
  0
LINE
  5
1D8
330
1F
100
AcDbEntity
  8
0
  6
SLD-Durchgehend
 62
     7
100
AcDbLine
 10
194.7748598029
 20
148.893231105
 30
0.0
 11
194.9140825593
 21
148.9793689255
 31
0.0
  0
LINE
  5
1D9
330
1F
100
AcDbEntity
  8
0
  6
SLD-Durchgehend
 62
     7
100
AcDbLine
 10
194.9140825593
 20
148.9793689255
 30
0.0
 11
195.0623197388
 21
149.0504827076
 31
0.0
  0
LINE
  5
1DA
330
1F
100
AcDbEntity
  8
0
  6
SLD-Durchgehend
 62
     7
100
AcDbLine
 10
195.0623197388
 20
149.0504827076
 30
0.0
 11
195.2185697388
 21
149.1055708486
 31
0.0
  0
LINE
  5
1DB
330
1F
100
AcDbEntity
  8
0
  6
SLD-Durchgehend
 62
     7
100
AcDbLine
 10
195.2185697388
 20
149.1055708486
 30
0.0
 11
195.3838341619
 21
149.1456349512
 31
0.0
  0
LINE
  5
1DC
330
1F
100
AcDbEntity
  8
0
  6
SLD-Durchgehend
 62
     7
100
AcDbLine
 10
195.3838341619
 20
149.1456349512
 30
0.0
 11
195.558113008
 21
149.1686718102
 31
0.0
  0
LINE
  5
1DD
330
1F
100
AcDbEntity
  8
0
  6
SLD-Durchgehend
 62
     7
100
AcDbLine
 10
195.558113008
 20
149.1686718102
 30
0.0
 11
195.7414062773
 21
149.1766846307
 31
0.0
  0
LINE
  5
1DE
330
1F
100
AcDbEntity
  8
0
  6
SLD-Durchgehend
 62
     7
100
AcDbLine
 10
195.7414062773
 20
149.1766846307
 30
0.0
 11
195.9186899311
 21
149.1686718102
 31
0.0
  0
LINE
  5
1DF
330
1F
100
AcDbEntity
  8
0
  6
SLD-Durchgehend
 62
     7
100
AcDbLine
 10
195.9186899311
 20
149.1686718102
 30
0.0
 11
196.0869591619
 21
149.1456349512
 31
0.0
  0
LINE
  5
1E0
330
1F
100
AcDbEntity
  8
0
  6
SLD-Durchgehend
 62
     7
100
AcDbLine
 10
196.0869591619
 20
149.1456349512
 30
0.0
 11
196.2482171747
 21
149.1075740537
 31
0.0
  0
LINE
  5
1E1
330
1F
100
AcDbEntity
  8
0
  6
SLD-Durchgehend
 62
     7
100
AcDbLine
 10
196.2482171747
 20
149.1075740537
 30
0.0
 11
196.4004607644
 21
149.0534875153
 31
0.0
  0
LINE
  5
1E2
330
1F
100
AcDbEntity
  8
0
  6
SLD-Durchgehend
 62
     7
100
AcDbLine
 10
196.4004607644
 20
149.0534875153
 30
0.0
 11
196.5436899311
 21
148.9833753358
 31
0.0
  0
LINE
  5
1E3
330
1F
100
AcDbEntity
  8
0
  6
SLD-Durchgehend
 62
     7
100
AcDbLine
 10
196.5436899311
 20
148.9833753358
 30
0.0
 11
196.6799078798
 21
148.8982391179
 31
0.0
  0
LINE
  5
1E4
330
1F
100
AcDbEntity
  8
0
  6
SLD-Durchgehend
 62
     7
100
AcDbLine
 10
196.6799078798
 20
148.8982391179
 30
0.0
 11
196.8071114055
 21
148.7980788614
 31
0.0
  0
LINE
  5
1E5
330
1F
100
AcDbEntity
  8
0
  6
SLD-Durchgehend
 62
     7
100
AcDbLine
 10
196.8071114055
 20
148.7980788614
 30
0.0
 11
196.9263021106
 21
148.681892964
 31
0.0
  0
LINE
  5
1E6
330
1F
100
AcDbEntity
  8
0
  6
SLD-Durchgehend
 62
     7
100
AcDbLine
 10
196.9263021106
 20
148.681892964
 30
0.0
 11
197.0344751875
 21
148.5516846307
 31
0.0
  0
LINE
  5
1E7
330
1F
100
AcDbEntity
  8
0
  6
SLD-Durchgehend
 62
     7
100
AcDbLine
 10
197.0344751875
 20
148.5516846307
 30
0.0
 11
197.127624226
 21
148.4094570666
 31
0.0
  0
LINE
  5
1E8
330
1F
100
AcDbEntity
  8
0
  6
SLD-Durchgehend
 62
     7
100
AcDbLine
 10
197.127624226
 20
148.4094570666
 30
0.0
 11
197.2067508285
 21
148.2542086691
 31
0.0
  0
LINE
  5
1E9
330
1F
100
AcDbEntity
  8
0
  6
SLD-Durchgehend
 62
     7
100
AcDbLine
 10
197.2067508285
 20
148.2542086691
 30
0.0
 11
197.2708533926
 21
148.0869410409
 31
0.0
  0
LINE
  5
1EA
330
1F
100
AcDbEntity
  8
0
  6
SLD-Durchgehend
 62
     7
100
AcDbLine
 10
197.2708533926
 20
148.0869410409
 30
0.0
 11
197.3209335209
 21
147.9056509768
 31
0.0
  0
LINE
  5
1EB
330
1F
100
AcDbEntity
  8
0
  6
SLD-Durchgehend
 62
     7
100
AcDbLine
 10
197.3209335209
 20
147.9056509768
 30
0.0
 11
197.3569912132
 21
147.7133432845
 31
0.0
  0
LINE
  5
1EC
330
1F
100
AcDbEntity
  8
0
  6
SLD-Durchgehend
 62
     7
100
AcDbLine
 10
197.3569912132
 20
147.7133432845
 30
0.0
 11
197.3790264696
 21
147.5080147589
 31
0.0
  0
LINE
  5
1ED
330
1F
100
AcDbEntity
  8
0
  6
SLD-Durchgehend
 62
     7
100
AcDbLine
 10
197.3790264696
 20
147.5080147589
 30
0.0
 11
197.3860376875
 21
147.2896653999
 31
0.0
  0
LINE
  5
1EE
330
1F
100
AcDbEntity
  8
0
  6
SLD-Durchgehend
 62
     7
100
AcDbLine
 10
197.3860376875
 20
147.2896653999
 30
0.0
 11
197.385036085
 21
147.2215564255
 31
0.0
  0
LINE
  5
1EF
330
1F
100
AcDbEntity
  8
0
  6
SLD-Durchgehend
 62
     7
100
AcDbLine
 10
197.385036085
 20
147.2215564255
 30
0.0
 11
197.3830328798
 21
147.1254025794
 31
0.0
  0
LINE
  5
1F0
330
1F
100
AcDbEntity
  8
0
  6
SLD-Durchgehend
 62
     7
100
AcDbLine
 10
197.3830328798
 20
147.1254025794
 30
0.0
 11
194.6937299952
 21
147.1254025794
 31
0.0
  0
LINE
  5
1F1
330
1F
100
AcDbEntity
  8
0
  6
SLD-Durchgehend
 62
     7
100
AcDbLine
 10
194.6937299952
 20
147.1254025794
 30
0.0
 11
194.7067508285
 21
146.9901862332
 31
0.0
  0
LINE
  5
1F2
330
1F
100
AcDbEntity
  8
0
  6
SLD-Durchgehend
 62
     7
100
AcDbLine
 10
194.7067508285
 20
146.9901862332
 30
0.0
 11
194.7277844824
 21
146.861981105
 31
0.0
  0
LINE
  5
1F3
330
1F
100
AcDbEntity
  8
0
  6
SLD-Durchgehend
 62
     7
100
AcDbLine
 10
194.7277844824
 20
146.861981105
 30
0.0
 11
194.7568309568
 21
146.7427903999
 31
0.0
  0
LINE
  5
1F4
330
1F
100
AcDbEntity
  8
0
  6
SLD-Durchgehend
 62
     7
100
AcDbLine
 10
194.7568309568
 20
146.7427903999
 30
0.0
 11
194.7948918542
 21
146.6316125153
 31
0.0
  0
LINE
  5
1F5
330
1F
100
AcDbEntity
  8
0
  6
SLD-Durchgehend
 62
     7
100
AcDbLine
 10
194.7948918542
 20
146.6316125153
 30
0.0
 11
194.8409655721
 21
146.5284474512
 31
0.0
  0
LINE
  5
1F6
330
1F
100
AcDbEntity
  8
0
  6
SLD-Durchgehend
 62
     7
100
AcDbLine
 10
194.8409655721
 20
146.5284474512
 30
0.0
 11
194.8960537132
 21
146.4342968102
 31
0.0
  0
LINE
  5
1F7
330
1F
100
AcDbEntity
  8
0
  6
SLD-Durchgehend
 62
     7
100
AcDbLine
 10
194.8960537132
 20
146.4342968102
 30
0.0
 11
194.9591546747
 21
146.3471573871
 31
0.0
  0
LINE
  5
1F8
330
1F
100
AcDbEntity
  8
0
  6
SLD-Durchgehend
 62
     7
100
AcDbLine
 10
194.9591546747
 20
146.3471573871
 30
0.0
 11
195.0302684568
 21
146.2690323871
 31
0.0
  0
LINE
  5
1F9
330
1F
100
AcDbEntity
  8
0
  6
SLD-Durchgehend
 62
     7
100
AcDbLine
 10
195.0302684568
 20
146.2690323871
 30
0.0
 11
195.1083934568
 21
146.1989202076
 31
0.0
  0
LINE
  5
1FA
330
1F
100
AcDbEntity
  8
0
  6
SLD-Durchgehend
 62
     7
100
AcDbLine
 10
195.1083934568
 20
146.1989202076
 30
0.0
 11
195.190524867
 21
146.1388240537
 31
0.0
  0
LINE
  5
1FB
330
1F
100
AcDbEntity
  8
0
  6
SLD-Durchgehend
 62
     7
100
AcDbLine
 10
195.190524867
 20
146.1388240537
 30
0.0
 11
195.2786658926
 21
146.087742323
 31
0.0
  0
LINE
  5
1FC
330
1F
100
AcDbEntity
  8
0
  6
SLD-Durchgehend
 62
     7
100
AcDbLine
 10
195.2786658926
 20
146.087742323
 30
0.0
 11
195.3708133285
 21
146.0456750153
 31
0.0
  0
LINE
  5
1FD
330
1F
100
AcDbEntity
  8
0
  6
SLD-Durchgehend
 62
     7
100
AcDbLine
 10
195.3708133285
 20
146.0456750153
 30
0.0
 11
195.4669671747
 21
146.0136237332
 31
0.0
  0
LINE
  5
1FE
330
1F
100
AcDbEntity
  8
0
  6
SLD-Durchgehend
 62
     7
100
AcDbLine
 10
195.4669671747
 20
146.0136237332
 30
0.0
 11
195.5681290337
 21
145.9905868743
 31
0.0
  0
LINE
  5
1FF
330
1F
100
AcDbEntity
  8
0
  6
SLD-Durchgehend
 62
     7
100
AcDbLine
 10
195.5681290337
 20
145.9905868743
 30
0.0
 11
195.6742989055
 21
145.9765644384
 31
0.0
  0
LINE
  5
200
330
1F
100
AcDbEntity
  8
0
  6
SLD-Durchgehend
 62
     7
100
AcDbLine
 10
195.6742989055
 20
145.9765644384
 30
0.0
 11
195.7854767901
 21
145.9715564255
 31
0.0
  0
LINE
  5
201
330
1F
100
AcDbEntity
  8
0
  6
SLD-Durchgehend
 62
     7
100
AcDbLine
 10
195.7854767901
 20
145.9715564255
 30
0.0
 11
195.9477364055
 21
145.9805708486
 31
0.0
  0
LINE
  5
202
330
1F
100
AcDbEntity
  8
0
  6
SLD-Durchgehend
 62
     7
100
AcDbLine
 10
195.9477364055
 20
145.9805708486
 30
0.0
 11
196.0979767901
 21
146.0056109127
 31
0.0
  0
LINE
  5
203
330
1F
100
AcDbEntity
  8
0
  6
SLD-Durchgehend
 62
     7
100
AcDbLine
 10
196.0979767901
 20
146.0056109127
 30
0.0
 11
196.2351963414
 21
146.048679823
 31
0.0
  0
LINE
  5
204
330
1F
100
AcDbEntity
  8
0
  6
SLD-Durchgehend
 62
     7
100
AcDbLine
 10
196.2351963414
 20
146.048679823
 30
0.0
 11
196.3603966619
 21
146.1087759768
 31
0.0
  0
LINE
  5
205
330
1F
100
AcDbEntity
  8
0
  6
SLD-Durchgehend
 62
     7
100
AcDbLine
 10
196.3603966619
 20
146.1087759768
 30
0.0
 11
196.4735777516
 21
146.1879025794
 31
0.0
  0
LINE
  5
206
330
1F
100
AcDbEntity
  8
0
  6
SLD-Durchgehend
 62
     7
100
AcDbLine
 10
196.4735777516
 20
146.1879025794
 30
0.0
 11
196.573738008
 21
146.2880628358
 31
0.0
  0
LINE
  5
207
330
1F
100
AcDbEntity
  8
0
  6
SLD-Durchgehend
 62
     7
100
AcDbLine
 10
196.573738008
 20
146.2880628358
 30
0.0
 11
196.6618790337
 21
146.4082551435
 31
0.0
  0
LINE
  5
208
330
1F
100
AcDbEntity
  8
0
  6
SLD-Durchgehend
 62
     7
100
AcDbLine
 10
196.6618790337
 20
146.4082551435
 30
0.0
 11
196.7380008285
 21
146.5484795025
 31
0.0
  0
LINE
  5
209
330
1F
100
AcDbEntity
  8
0
  6
SLD-Durchgehend
 62
     7
100
AcDbLine
 10
194.6937312605
 20
147.7023256563
 30
0.0
 11
196.7450120465
 21
147.7023256563
 31
0.0
  0
LINE
  5
20A
330
1F
100
AcDbEntity
  8
0
  6
SLD-Durchgehend
 62
     7
100
AcDbLine
 10
196.7450120465
 20
147.7023256563
 30
0.0
 11
196.7319912132
 21
147.7974778999
 31
0.0
  0
LINE
  5
20B
330
1F
100
AcDbEntity
  8
0
  6
SLD-Durchgehend
 62
     7
100
AcDbLine
 10
196.7319912132
 20
147.7974778999
 30
0.0
 11
196.7149639696
 21
147.8876221307
 31
0.0
  0
LINE
  5
20C
330
1F
100
AcDbEntity
  8
0
  6
SLD-Durchgehend
 62
     7
100
AcDbLine
 10
196.7149639696
 20
147.8876221307
 30
0.0
 11
196.6929287132
 21
147.9707551435
 31
0.0
  0
LINE
  5
20D
330
1F
100
AcDbEntity
  8
0
  6
SLD-Durchgehend
 62
     7
100
AcDbLine
 10
196.6929287132
 20
147.9707551435
 30
0.0
 11
196.6658854439
 21
148.0478785409
 31
0.0
  0
LINE
  5
20E
330
1F
100
AcDbEntity
  8
0
  6
SLD-Durchgehend
 62
     7
100
AcDbLine
 10
196.6658854439
 20
148.0478785409
 30
0.0
 11
196.6338341619
 21
148.1179907204
 31
0.0
  0
LINE
  5
20F
330
1F
100
AcDbEntity
  8
0
  6
SLD-Durchgehend
 62
     7
100
AcDbLine
 10
196.6338341619
 20
148.1179907204
 30
0.0
 11
196.596774867
 21
148.1830948871
 31
0.0
  0
LINE
  5
210
330
1F
100
AcDbEntity
  8
0
  6
SLD-Durchgehend
 62
     7
100
AcDbLine
 10
196.596774867
 20
148.1830948871
 30
0.0
 11
196.5557091619
 21
148.2411878358
 31
0.0
  0
LINE
  5
211
330
1F
100
AcDbEntity
  8
0
  6
SLD-Durchgehend
 62
     7
100
AcDbLine
 10
196.5557091619
 20
148.2411878358
 30
0.0
 11
196.5096354439
 21
148.2932711691
 31
0.0
  0
LINE
  5
212
330
1F
100
AcDbEntity
  8
0
  6
SLD-Durchgehend
 62
     7
100
AcDbLine
 10
196.5096354439
 20
148.2932711691
 30
0.0
 11
196.4325120465
 21
148.3653865537
 31
0.0
  0
LINE
  5
213
330
1F
100
AcDbEntity
  8
0
  6
SLD-Durchgehend
 62
     7
100
AcDbLine
 10
196.4325120465
 20
148.3653865537
 30
0.0
 11
196.3503806362
 21
148.4274859127
 31
0.0
  0
LINE
  5
214
330
1F
100
AcDbEntity
  8
0
  6
SLD-Durchgehend
 62
     7
100
AcDbLine
 10
196.3503806362
 20
148.4274859127
 30
0.0
 11
196.2622396106
 21
148.4795692461
 31
0.0
  0
LINE
  5
215
330
1F
100
AcDbEntity
  8
0
  6
SLD-Durchgehend
 62
     7
100
AcDbLine
 10
196.2622396106
 20
148.4795692461
 30
0.0
 11
196.1680889696
 21
148.5236397589
 31
0.0
  0
LINE
  5
216
330
1F
100
AcDbEntity
  8
0
  6
SLD-Durchgehend
 62
     7
100
AcDbLine
 10
196.1680889696
 20
148.5236397589
 30
0.0
 11
196.0689303157
 21
148.5566926435
 31
0.0
  0
LINE
  5
217
330
1F
100
AcDbEntity
  8
0
  6
SLD-Durchgehend
 62
     7
100
AcDbLine
 10
196.0689303157
 20
148.5566926435
 30
0.0
 11
195.9647636491
 21
148.580731105
 31
0.0
  0
LINE
  5
218
330
1F
100
AcDbEntity
  8
0
  6
SLD-Durchgehend
 62
     7
100
AcDbLine
 10
195.9647636491
 20
148.580731105
 30
0.0
 11
195.854587367
 21
148.5947535409
 31
0.0
  0
LINE
  5
219
330
1F
100
AcDbEntity
  8
0
  6
SLD-Durchgehend
 62
     7
100
AcDbLine
 10
195.854587367
 20
148.5947535409
 30
0.0
 11
195.7384014696
 21
148.5997615537
 31
0.0
  0
LINE
  5
21A
330
1F
100
AcDbEntity
  8
0
  6
SLD-Durchgehend
 62
     7
100
AcDbLine
 10
195.7384014696
 20
148.5997615537
 30
0.0
 11
195.6332332003
 21
148.5957551435
 31
0.0
  0
LINE
  5
21B
330
1F
100
AcDbEntity
  8
0
  6
SLD-Durchgehend
 62
     7
100
AcDbLine
 10
195.6332332003
 20
148.5957551435
 30
0.0
 11
195.5330729439
 21
148.5847375153
 31
0.0
  0
LINE
  5
21C
330
1F
100
AcDbEntity
  8
0
  6
SLD-Durchgehend
 62
     7
100
AcDbLine
 10
195.5330729439
 20
148.5847375153
 30
0.0
 11
195.4359174952
 21
148.5657070666
 31
0.0
  0
LINE
  5
21D
330
1F
100
AcDbEntity
  8
0
  6
SLD-Durchgehend
 62
     7
100
AcDbLine
 10
195.4359174952
 20
148.5657070666
 30
0.0
 11
195.3437700593
 21
148.5386637973
 31
0.0
  0
LINE
  5
21E
330
1F
100
AcDbEntity
  8
0
  6
SLD-Durchgehend
 62
     7
100
AcDbLine
 10
195.3437700593
 20
148.5386637973
 30
0.0
 11
195.2556290337
 21
148.5046093102
 31
0.0
  0
LINE
  5
21F
330
1F
100
AcDbEntity
  8
0
  6
SLD-Durchgehend
 62
     7
100
AcDbLine
 10
195.2556290337
 20
148.5046093102
 30
0.0
 11
195.1724960209
 21
148.4625420025
 31
0.0
  0
LINE
  5
220
330
1F
100
AcDbEntity
  8
0
  6
SLD-Durchgehend
 62
     7
100
AcDbLine
 10
195.1724960209
 20
148.4625420025
 30
0.0
 11
195.0923678157
 21
148.4124618743
 31
0.0
  0
LINE
  5
221
330
1F
100
AcDbEntity
  8
0
  6
SLD-Durchgehend
 62
     7
100
AcDbLine
 10
195.0923678157
 20
148.4124618743
 30
0.0
 11
195.0172476234
 21
148.3553705281
 31
0.0
  0
LINE
  5
222
330
1F
100
AcDbEntity
  8
0
  6
SLD-Durchgehend
 62
     7
100
AcDbLine
 10
195.0172476234
 20
148.3553705281
 30
0.0
 11
194.9481370465
 21
148.291267964
 31
0.0
  0
LINE
  5
223
330
1F
100
AcDbEntity
  8
0
  6
SLD-Durchgehend
 62
     7
100
AcDbLine
 10
194.9481370465
 20
148.291267964
 30
0.0
 11
194.8870392901
 21
148.2231589896
 31
0.0
  0
LINE
  5
224
330
1F
100
AcDbEntity
  8
0
  6
SLD-Durchgehend
 62
     7
100
AcDbLine
 10
194.8870392901
 20
148.2231589896
 30
0.0
 11
194.8349559568
 21
148.1490403999
 31
0.0
  0
LINE
  5
225
330
1F
100
AcDbEntity
  8
0
  6
SLD-Durchgehend
 62
     7
100
AcDbLine
 10
194.8349559568
 20
148.1490403999
 30
0.0
 11
194.7898838414
 21
148.0699137973
 31
0.0
  0
LINE
  5
226
330
1F
100
AcDbEntity
  8
0
  6
SLD-Durchgehend
 62
     7
100
AcDbLine
 10
194.7898838414
 20
148.0699137973
 30
0.0
 11
194.7538261491
 21
147.985779182
 31
0.0
  0
LINE
  5
227
330
1F
100
AcDbEntity
  8
0
  6
SLD-Durchgehend
 62
     7
100
AcDbLine
 10
194.7538261491
 20
147.985779182
 30
0.0
 11
194.7257812773
 21
147.8966365537
 31
0.0
  0
LINE
  5
228
330
1F
100
AcDbEntity
  8
0
  6
SLD-Durchgehend
 62
     7
100
AcDbLine
 10
194.7257812773
 20
147.8966365537
 30
0.0
 11
194.705749226
 21
147.8014843102
 31
0.0
  0
LINE
  5
229
330
1F
100
AcDbEntity
  8
0
  6
SLD-Durchgehend
 62
     7
100
AcDbLine
 10
194.705749226
 20
147.8014843102
 30
0.0
 11
194.6937312605
 21
147.7023256563
 31
0.0
  0
LINE
  5
22A
330
1F
100
AcDbEntity
  8
0
  6
SLD-Durchgehend
 62
     7
100
AcDbLine
 10
198.0911662104
 20
145.4587359127
 30
0.0
 11
198.0911658926
 21
149.1125820666
 31
0.0
  0
LINE
  5
22B
330
1F
100
AcDbEntity
  8
0
  6
SLD-Durchgehend
 62
     7
100
AcDbLine
 10
198.0911658926
 20
149.1125820666
 30
0.0
 11
198.7321915337
 21
149.1125820666
 31
0.0
  0
LINE
  5
22C
330
1F
100
AcDbEntity
  8
0
  6
SLD-Durchgehend
 62
     7
100
AcDbLine
 10
198.7321915337
 20
149.1125820666
 30
0.0
 11
198.7321915337
 21
148.6027663614
 31
0.0
  0
LINE
  5
22D
330
1F
100
AcDbEntity
  8
0
  6
SLD-Durchgehend
 62
     7
100
AcDbLine
 10
198.7321915337
 20
148.6027663614
 30
0.0
 11
198.8343549952
 21
148.736981105
 31
0.0
  0
LINE
  5
22E
330
1F
100
AcDbEntity
  8
0
  6
SLD-Durchgehend
 62
     7
100
AcDbLine
 10
198.8343549952
 20
148.736981105
 30
0.0
 11
198.9465344824
 21
148.854168605
 31
0.0
  0
LINE
  5
22F
330
1F
100
AcDbEntity
  8
0
  6
SLD-Durchgehend
 62
     7
100
AcDbLine
 10
198.9465344824
 20
148.854168605
 30
0.0
 11
199.0697315978
 21
148.9523256563
 31
0.0
  0
LINE
  5
230
330
1F
100
AcDbEntity
  8
0
  6
SLD-Durchgehend
 62
     7
100
AcDbLine
 10
199.0697315978
 20
148.9523256563
 30
0.0
 11
199.2029447388
 21
149.033455464
 31
0.0
  0
LINE
  5
231
330
1F
100
AcDbEntity
  8
0
  6
SLD-Durchgehend
 62
     7
100
AcDbLine
 10
199.2029447388
 20
149.033455464
 30
0.0
 11
199.347175508
 21
149.095554823
 31
0.0
  0
LINE
  5
232
330
1F
100
AcDbEntity
  8
0
  6
SLD-Durchgehend
 62
     7
100
AcDbLine
 10
199.347175508
 20
149.095554823
 30
0.0
 11
199.5024239055
 21
149.1406269384
 31
0.0
  0
LINE
  5
233
330
1F
100
AcDbEntity
  8
0
  6
SLD-Durchgehend
 62
     7
100
AcDbLine
 10
199.5024239055
 20
149.1406269384
 30
0.0
 11
199.6686899311
 21
149.1676702076
 31
0.0
  0
LINE
  5
234
330
1F
100
AcDbEntity
  8
0
  6
SLD-Durchgehend
 62
     7
100
AcDbLine
 10
199.6686899311
 20
149.1676702076
 30
0.0
 11
199.8449719824
 21
149.1766846307
 31
0.0
  0
LINE
  5
235
330
1F
100
AcDbEntity
  8
0
  6
SLD-Durchgehend
 62
     7
100
AcDbLine
 10
199.8449719824
 20
149.1766846307
 30
0.0
 11
199.9992187773
 21
149.1696734127
 31
0.0
  0
LINE
  5
236
330
1F
100
AcDbEntity
  8
0
  6
SLD-Durchgehend
 62
     7
100
AcDbLine
 10
199.9992187773
 20
149.1696734127
 30
0.0
 11
200.1484575593
 21
149.1476381563
 31
0.0
  0
LINE
  5
237
330
1F
100
AcDbEntity
  8
0
  6
SLD-Durchgehend
 62
     7
100
AcDbLine
 10
200.1484575593
 20
149.1476381563
 30
0.0
 11
200.2896835209
 21
149.1105788614
 31
0.0
  0
LINE
  5
238
330
1F
100
AcDbEntity
  8
0
  6
SLD-Durchgehend
 62
     7
100
AcDbLine
 10
200.2896835209
 20
149.1105788614
 30
0.0
 11
200.4259014696
 21
149.0584955281
 31
0.0
  0
LINE
  5
239
330
1F
100
AcDbEntity
  8
0
  6
SLD-Durchgehend
 62
     7
100
AcDbLine
 10
200.4259014696
 20
149.0584955281
 30
0.0
 11
200.5501001875
 21
148.994392964
 31
0.0
  0
LINE
  5
23A
330
1F
100
AcDbEntity
  8
0
  6
SLD-Durchgehend
 62
     7
100
AcDbLine
 10
200.5501001875
 20
148.994392964
 30
0.0
 11
200.6582732644
 21
148.9222775794
 31
0.0
  0
LINE
  5
23B
330
1F
100
AcDbEntity
  8
0
  6
SLD-Durchgehend
 62
     7
100
AcDbLine
 10
200.6582732644
 20
148.9222775794
 30
0.0
 11
200.7484174952
 21
148.8391445666
 31
0.0
  0
LINE
  5
23C
330
1F
100
AcDbEntity
  8
0
  6
SLD-Durchgehend
 62
     7
100
AcDbLine
 10
200.7484174952
 20
148.8391445666
 30
0.0
 11
200.822536085
 21
148.7479987332
 31
0.0
  0
LINE
  5
23D
330
1F
100
AcDbEntity
  8
0
  6
SLD-Durchgehend
 62
     7
100
AcDbLine
 10
200.822536085
 20
148.7479987332
 30
0.0
 11
200.8836338414
 21
148.6478384768
 31
0.0
  0
LINE
  5
23E
330
1F
100
AcDbEntity
  8
0
  6
SLD-Durchgehend
 62
     7
100
AcDbLine
 10
200.8836338414
 20
148.6478384768
 30
0.0
 11
200.9347155721
 21
148.5386637973
 31
0.0
  0
LINE
  5
23F
330
1F
100
AcDbEntity
  8
0
  6
SLD-Durchgehend
 62
     7
100
AcDbLine
 10
200.9347155721
 20
148.5386637973
 30
0.0
 11
200.9757812773
 21
148.4204746948
 31
0.0
  0
LINE
  5
240
330
1F
100
AcDbEntity
  8
0
  6
SLD-Durchgehend
 62
     7
100
AcDbLine
 10
200.9757812773
 20
148.4204746948
 30
0.0
 11
201.0068309568
 21
148.2932711691
 31
0.0
  0
LINE
  5
241
330
1F
100
AcDbEntity
  8
0
  6
SLD-Durchgehend
 62
     7
100
AcDbLine
 10
201.0068309568
 20
148.2932711691
 30
0.0
 11
201.0148437773
 21
148.2461958486
 31
0.0
  0
LINE
  5
242
330
1F
100
AcDbEntity
  8
0
  6
SLD-Durchgehend
 62
     7
100
AcDbLine
 10
201.0148437773
 20
148.2461958486
 30
0.0
 11
201.0208533926
 21
148.1921093102
 31
0.0
  0
LINE
  5
243
330
1F
100
AcDbEntity
  8
0
  6
SLD-Durchgehend
 62
     7
100
AcDbLine
 10
201.0208533926
 20
148.1921093102
 30
0.0
 11
201.026863008
 21
148.1290083486
 31
0.0
  0
LINE
  5
244
330
1F
100
AcDbEntity
  8
0
  6
SLD-Durchgehend
 62
     7
100
AcDbLine
 10
201.026863008
 20
148.1290083486
 30
0.0
 11
201.0318710209
 21
148.0578945666
 31
0.0
  0
LINE
  5
245
330
1F
100
AcDbEntity
  8
0
  6
SLD-Durchgehend
 62
     7
100
AcDbLine
 10
201.0318710209
 20
148.0578945666
 30
0.0
 11
201.0348758285
 21
147.978767964
 31
0.0
  0
LINE
  5
246
330
1F
100
AcDbEntity
  8
0
  6
SLD-Durchgehend
 62
     7
100
AcDbLine
 10
201.0348758285
 20
147.978767964
 30
0.0
 11
201.0378806362
 21
147.8926301435
 31
0.0
  0
LINE
  5
247
330
1F
100
AcDbEntity
  8
0
  6
SLD-Durchgehend
 62
     7
100
AcDbLine
 10
201.0378806362
 20
147.8926301435
 30
0.0
 11
201.0388822388
 21
147.7974778999
 31
0.0
  0
LINE
  5
248
330
1F
100
AcDbEntity
  8
0
  6
SLD-Durchgehend
 62
     7
100
AcDbLine
 10
201.0388822388
 20
147.7974778999
 30
0.0
 11
201.0398838414
 21
147.6943128358
 31
0.0
  0
LINE
  5
249
330
1F
100
AcDbEntity
  8
0
  6
SLD-Durchgehend
 62
     7
100
AcDbLine
 10
201.0398838414
 20
147.6943128358
 30
0.0
 11
201.0398838414
 21
145.4587359127
 31
0.0
  0
LINE
  5
24A
330
1F
100
AcDbEntity
  8
0
  6
SLD-Durchgehend
 62
     7
100
AcDbLine
 10
201.0398838414
 20
145.4587359127
 30
0.0
 11
200.3988582003
 21
145.4587359127
 31
0.0
  0
LINE
  5
24B
330
1F
100
AcDbEntity
  8
0
  6
SLD-Durchgehend
 62
     7
100
AcDbLine
 10
200.3988582003
 20
145.4587359127
 30
0.0
 11
200.3988582003
 21
147.6402262973
 31
0.0
  0
LINE
  5
24C
330
1F
100
AcDbEntity
  8
0
  6
SLD-Durchgehend
 62
     7
100
AcDbLine
 10
200.3988582003
 20
147.6402262973
 30
0.0
 11
200.3948517901
 21
147.8145051435
 31
0.0
  0
LINE
  5
24D
330
1F
100
AcDbEntity
  8
0
  6
SLD-Durchgehend
 62
     7
100
AcDbLine
 10
200.3948517901
 20
147.8145051435
 30
0.0
 11
200.3818309568
 21
147.9647455281
 31
0.0
  0
LINE
  5
24E
330
1F
100
AcDbEntity
  8
0
  6
SLD-Durchgehend
 62
     7
100
AcDbLine
 10
200.3818309568
 20
147.9647455281
 30
0.0
 11
200.3597957003
 21
148.0919490537
 31
0.0
  0
LINE
  5
24F
330
1F
100
AcDbEntity
  8
0
  6
SLD-Durchgehend
 62
     7
100
AcDbLine
 10
200.3597957003
 20
148.0919490537
 30
0.0
 11
200.3287460209
 21
148.1961157204
 31
0.0
  0
LINE
  5
250
330
1F
100
AcDbEntity
  8
0
  6
SLD-Durchgehend
 62
     7
100
AcDbLine
 10
200.3287460209
 20
148.1961157204
 30
0.0
 11
200.2876803157
 21
148.2832551435
 31
0.0
  0
LINE
  5
251
330
1F
100
AcDbEntity
  8
0
  6
SLD-Durchgehend
 62
     7
100
AcDbLine
 10
200.2876803157
 20
148.2832551435
 30
0.0
 11
200.2325921747
 21
148.3613801435
 31
0.0
  0
LINE
  5
252
330
1F
100
AcDbEntity
  8
0
  6
SLD-Durchgehend
 62
     7
100
AcDbLine
 10
200.2325921747
 20
148.3613801435
 30
0.0
 11
200.1644832003
 21
148.4304907204
 31
0.0
  0
LINE
  5
253
330
1F
100
AcDbEntity
  8
0
  6
SLD-Durchgehend
 62
     7
100
AcDbLine
 10
200.1644832003
 20
148.4304907204
 30
0.0
 11
200.0823517901
 21
148.4895852717
 31
0.0
  0
LINE
  5
254
330
1F
100
AcDbEntity
  8
0
  6
SLD-Durchgehend
 62
     7
100
AcDbLine
 10
200.0823517901
 20
148.4895852717
 30
0.0
 11
199.9902043542
 21
148.5376621948
 31
0.0
  0
LINE
  5
255
330
1F
100
AcDbEntity
  8
0
  6
SLD-Durchgehend
 62
     7
100
AcDbLine
 10
199.9902043542
 20
148.5376621948
 30
0.0
 11
199.8900440978
 21
148.5727182845
 31
0.0
  0
LINE
  5
256
330
1F
100
AcDbEntity
  8
0
  6
SLD-Durchgehend
 62
     7
100
AcDbLine
 10
199.8900440978
 20
148.5727182845
 30
0.0
 11
199.7818710209
 21
148.5927503358
 31
0.0
  0
LINE
  5
257
330
1F
100
AcDbEntity
  8
0
  6
SLD-Durchgehend
 62
     7
100
AcDbLine
 10
199.7818710209
 20
148.5927503358
 30
0.0
 11
199.666686726
 21
148.5997615537
 31
0.0
  0
LINE
  5
258
330
1F
100
AcDbEntity
  8
0
  6
SLD-Durchgehend
 62
     7
100
AcDbLine
 10
199.666686726
 20
148.5997615537
 30
0.0
 11
199.572536085
 21
148.5957551435
 31
0.0
  0
LINE
  5
259
330
1F
100
AcDbEntity
  8
0
  6
SLD-Durchgehend
 62
     7
100
AcDbLine
 10
199.572536085
 20
148.5957551435
 30
0.0
 11
199.4823918542
 21
148.5847375153
 31
0.0
  0
LINE
  5
25A
330
1F
100
AcDbEntity
  8
0
  6
SLD-Durchgehend
 62
     7
100
AcDbLine
 10
199.4823918542
 20
148.5847375153
 30
0.0
 11
199.3952524311
 21
148.564705464
 31
0.0
  0
LINE
  5
25B
330
1F
100
AcDbEntity
  8
0
  6
SLD-Durchgehend
 62
     7
100
AcDbLine
 10
199.3952524311
 20
148.564705464
 30
0.0
 11
199.3111178157
 21
148.5386637973
 31
0.0
  0
LINE
  5
25C
330
1F
100
AcDbEntity
  8
0
  6
SLD-Durchgehend
 62
     7
100
AcDbLine
 10
199.3111178157
 20
148.5386637973
 30
0.0
 11
199.2309896106
 21
148.5036077076
 31
0.0
  0
LINE
  5
25D
330
1F
100
AcDbEntity
  8
0
  6
SLD-Durchgehend
 62
     7
100
AcDbLine
 10
199.2309896106
 20
148.5036077076
 30
0.0
 11
199.1538662132
 21
148.4615403999
 31
0.0
  0
LINE
  5
25E
330
1F
100
AcDbEntity
  8
0
  6
SLD-Durchgehend
 62
     7
100
AcDbLine
 10
199.1538662132
 20
148.4615403999
 30
0.0
 11
199.0797476234
 21
148.4114602717
 31
0.0
  0
LINE
  5
25F
330
1F
100
AcDbEntity
  8
0
  6
SLD-Durchgehend
 62
     7
100
AcDbLine
 10
199.0797476234
 20
148.4114602717
 30
0.0
 11
199.0086338414
 21
148.353367323
 31
0.0
  0
LINE
  5
260
330
1F
100
AcDbEntity
  8
0
  6
SLD-Durchgehend
 62
     7
100
AcDbLine
 10
199.0086338414
 20
148.353367323
 30
0.0
 11
198.9435296747
 21
148.2852583486
 31
0.0
  0
LINE
  5
261
330
1F
100
AcDbEntity
  8
0
  6
SLD-Durchgehend
 62
     7
100
AcDbLine
 10
198.9435296747
 20
148.2852583486
 30
0.0
 11
198.8874399311
 21
148.2021253358
 31
0.0
  0
LINE
  5
262
330
1F
100
AcDbEntity
  8
0
  6
SLD-Durchgehend
 62
     7
100
AcDbLine
 10
198.8874399311
 20
148.2021253358
 30
0.0
 11
198.8403646106
 21
148.1059714896
 31
0.0
  0
LINE
  5
263
330
1F
100
AcDbEntity
  8
0
  6
SLD-Durchgehend
 62
     7
100
AcDbLine
 10
198.8403646106
 20
148.1059714896
 30
0.0
 11
198.8013021106
 21
147.9967968102
 31
0.0
  0
LINE
  5
264
330
1F
100
AcDbEntity
  8
0
  6
SLD-Durchgehend
 62
     7
100
AcDbLine
 10
198.8013021106
 20
147.9967968102
 30
0.0
 11
198.7712540337
 21
147.8725980922
 31
0.0
  0
LINE
  5
265
330
1F
100
AcDbEntity
  8
0
  6
SLD-Durchgehend
 62
     7
100
AcDbLine
 10
198.7712540337
 20
147.8725980922
 30
0.0
 11
198.7492187773
 21
147.7343769384
 31
0.0
  0
LINE
  5
266
330
1F
100
AcDbEntity
  8
0
  6
SLD-Durchgehend
 62
     7
100
AcDbLine
 10
198.7492187773
 20
147.7343769384
 30
0.0
 11
198.7361979439
 21
147.5831349512
 31
0.0
  0
LINE
  5
267
330
1F
100
AcDbEntity
  8
0
  6
SLD-Durchgehend
 62
     7
100
AcDbLine
 10
198.7361979439
 20
147.5831349512
 30
0.0
 11
198.7321915337
 21
147.4178705281
 31
0.0
  0
LINE
  5
268
330
1F
100
AcDbEntity
  8
0
  6
SLD-Durchgehend
 62
     7
100
AcDbLine
 10
198.7321915337
 20
147.4178705281
 30
0.0
 11
198.7321915337
 21
145.4587359127
 31
0.0
  0
LINE
  5
269
330
1F
100
AcDbEntity
  8
0
  6
SLD-Durchgehend
 62
     7
100
AcDbLine
 10
198.7321915337
 20
145.4587359127
 30
0.0
 11
198.0911662104
 21
145.4587359127
 31
0.0
  0
LINE
  5
26A
330
1F
100
AcDbEntity
  8
0
  6
SLD-Durchgehend
 62
     7
100
AcDbLine
 10
201.7450121465
 20
146.6125820666
 30
0.0
 11
202.3860376875
 21
146.6766846307
 31
0.0
  0
LINE
  5
26B
330
1F
100
AcDbEntity
  8
0
  6
SLD-Durchgehend
 62
     7
100
AcDbLine
 10
202.3860376875
 20
146.6766846307
 30
0.0
 11
202.4210937773
 21
146.5154266179
 31
0.0
  0
LINE
  5
26C
330
1F
100
AcDbEntity
  8
0
  6
SLD-Durchgehend
 62
     7
100
AcDbLine
 10
202.4210937773
 20
146.5154266179
 30
0.0
 11
202.4771835209
 21
146.3752022589
 31
0.0
  0
LINE
  5
26D
330
1F
100
AcDbEntity
  8
0
  6
SLD-Durchgehend
 62
     7
100
AcDbLine
 10
202.4771835209
 20
146.3752022589
 30
0.0
 11
202.5543069183
 21
146.2540083486
 31
0.0
  0
LINE
  5
26E
330
1F
100
AcDbEntity
  8
0
  6
SLD-Durchgehend
 62
     7
100
AcDbLine
 10
202.5543069183
 20
146.2540083486
 30
0.0
 11
202.6534655721
 21
146.1528464896
 31
0.0
  0
LINE
  5
26F
330
1F
100
AcDbEntity
  8
0
  6
SLD-Durchgehend
 62
     7
100
AcDbLine
 10
202.6534655721
 20
146.1528464896
 30
0.0
 11
202.7115585209
 21
146.110779182
 31
0.0
  0
LINE
  5
270
330
1F
100
AcDbEntity
  8
0
  6
SLD-Durchgehend
 62
     7
100
AcDbLine
 10
202.7115585209
 20
146.110779182
 30
0.0
 11
202.7746594824
 21
146.0737198871
 31
0.0
  0
LINE
  5
271
330
1F
100
AcDbEntity
  8
0
  6
SLD-Durchgehend
 62
     7
100
AcDbLine
 10
202.7746594824
 20
146.0737198871
 30
0.0
 11
202.8437700593
 21
146.0426702076
 31
0.0
  0
LINE
  5
272
330
1F
100
AcDbEntity
  8
0
  6
SLD-Durchgehend
 62
     7
100
AcDbLine
 10
202.8437700593
 20
146.0426702076
 30
0.0
 11
202.9178886491
 21
146.0166285409
 31
0.0
  0
LINE
  5
273
330
1F
100
AcDbEntity
  8
0
  6
SLD-Durchgehend
 62
     7
100
AcDbLine
 10
202.9178886491
 20
146.0166285409
 30
0.0
 11
202.9970152516
 21
145.9965964896
 31
0.0
  0
LINE
  5
274
330
1F
100
AcDbEntity
  8
0
  6
SLD-Durchgehend
 62
     7
100
AcDbLine
 10
202.9970152516
 20
145.9965964896
 30
0.0
 11
203.0821514696
 21
145.9825740537
 31
0.0
  0
LINE
  5
275
330
1F
100
AcDbEntity
  8
0
  6
SLD-Durchgehend
 62
     7
100
AcDbLine
 10
203.0821514696
 20
145.9825740537
 30
0.0
 11
203.1732973029
 21
145.9745612332
 31
0.0
  0
LINE
  5
276
330
1F
100
AcDbEntity
  8
0
  6
SLD-Durchgehend
 62
     7
100
AcDbLine
 10
203.1732973029
 20
145.9745612332
 30
0.0
 11
203.2694511491
 21
145.9715564255
 31
0.0
  0
LINE
  5
277
330
1F
100
AcDbEntity
  8
0
  6
SLD-Durchgehend
 62
     7
100
AcDbLine
 10
203.2694511491
 20
145.9715564255
 30
0.0
 11
203.3656049952
 21
145.9735596307
 31
0.0
  0
LINE
  5
278
330
1F
100
AcDbEntity
  8
0
  6
SLD-Durchgehend
 62
     7
100
AcDbLine
 10
203.3656049952
 20
145.9735596307
 30
0.0
 11
203.455749226
 21
145.9815724512
 31
0.0
  0
LINE
  5
279
330
1F
100
AcDbEntity
  8
0
  6
SLD-Durchgehend
 62
     7
100
AcDbLine
 10
203.455749226
 20
145.9815724512
 30
0.0
 11
203.5388822388
 21
145.993591682
 31
0.0
  0
LINE
  5
27A
330
1F
100
AcDbEntity
  8
0
  6
SLD-Durchgehend
 62
     7
100
AcDbLine
 10
203.5388822388
 20
145.993591682
 30
0.0
 11
203.6160056362
 21
146.0106189255
 31
0.0
  0
LINE
  5
27B
330
1F
100
AcDbEntity
  8
0
  6
SLD-Durchgehend
 62
     7
100
AcDbLine
 10
203.6160056362
 20
146.0106189255
 30
0.0
 11
203.6861178157
 21
146.032654182
 31
0.0
  0
LINE
  5
27C
330
1F
100
AcDbEntity
  8
0
  6
SLD-Durchgehend
 62
     7
100
AcDbLine
 10
203.6861178157
 20
146.032654182
 30
0.0
 11
203.7502203798
 21
146.0586958486
 31
0.0
  0
LINE
  5
27D
330
1F
100
AcDbEntity
  8
0
  6
SLD-Durchgehend
 62
     7
100
AcDbLine
 10
203.7502203798
 20
146.0586958486
 30
0.0
 11
203.8083133285
 21
146.0907471307
 31
0.0
  0
LINE
  5
27E
330
1F
100
AcDbEntity
  8
0
  6
SLD-Durchgehend
 62
     7
100
AcDbLine
 10
203.8083133285
 20
146.0907471307
 30
0.0
 11
203.8593950593
 21
146.126804823
 31
0.0
  0
LINE
  5
27F
330
1F
100
AcDbEntity
  8
0
  6
SLD-Durchgehend
 62
     7
100
AcDbLine
 10
203.8593950593
 20
146.126804823
 30
0.0
 11
203.9435296747
 21
146.2079346307
 31
0.0
  0
LINE
  5
280
330
1F
100
AcDbEntity
  8
0
  6
SLD-Durchgehend
 62
     7
100
AcDbLine
 10
203.9435296747
 20
146.2079346307
 30
0.0
 11
204.0046274311
 21
146.2960756563
 31
0.0
  0
LINE
  5
281
330
1F
100
AcDbEntity
  8
0
  6
SLD-Durchgehend
 62
     7
100
AcDbLine
 10
204.0046274311
 20
146.2960756563
 30
0.0
 11
204.0406851234
 21
146.3902262973
 31
0.0
  0
LINE
  5
282
330
1F
100
AcDbEntity
  8
0
  6
SLD-Durchgehend
 62
     7
100
AcDbLine
 10
204.0406851234
 20
146.3902262973
 30
0.0
 11
204.0527043542
 21
146.4913881563
 31
0.0
  0
LINE
  5
283
330
1F
100
AcDbEntity
  8
0
  6
SLD-Durchgehend
 62
     7
100
AcDbLine
 10
204.0527043542
 20
146.4913881563
 30
0.0
 11
204.0496995465
 21
146.5374618743
 31
0.0
  0
LINE
  5
284
330
1F
100
AcDbEntity
  8
0
  6
SLD-Durchgehend
 62
     7
100
AcDbLine
 10
204.0496995465
 20
146.5374618743
 30
0.0
 11
204.0386819183
 21
146.5805307845
 31
0.0
  0
LINE
  5
285
330
1F
100
AcDbEntity
  8
0
  6
SLD-Durchgehend
 62
     7
100
AcDbLine
 10
204.0386819183
 20
146.5805307845
 30
0.0
 11
204.0216546747
 21
146.6205948871
 31
0.0
  0
LINE
  5
286
330
1F
100
AcDbEntity
  8
0
  6
SLD-Durchgehend
 62
     7
100
AcDbLine
 10
204.0216546747
 20
146.6205948871
 30
0.0
 11
203.9976162132
 21
146.6586557845
 31
0.0
  0
LINE
  5
287
330
1F
100
AcDbEntity
  8
0
  6
SLD-Durchgehend
 62
     7
100
AcDbLine
 10
203.9976162132
 20
146.6586557845
 30
0.0
 11
203.9665665337
 21
146.6947134768
 31
0.0
  0
LINE
  5
288
330
1F
100
AcDbEntity
  8
0
  6
SLD-Durchgehend
 62
     7
100
AcDbLine
 10
203.9665665337
 20
146.6947134768
 30
0.0
 11
203.9295072388
 21
146.7277663614
 31
0.0
  0
LINE
  5
289
330
1F
100
AcDbEntity
  8
0
  6
SLD-Durchgehend
 62
     7
100
AcDbLine
 10
203.9295072388
 20
146.7277663614
 30
0.0
 11
203.8844351234
 21
146.7588160409
 31
0.0
  0
LINE
  5
28A
330
1F
100
AcDbEntity
  8
0
  6
SLD-Durchgehend
 62
     7
100
AcDbLine
 10
203.8844351234
 20
146.7588160409
 30
0.0
 11
203.8333533926
 21
146.7868609127
 31
0.0
  0
LINE
  5
28B
330
1F
100
AcDbEntity
  8
0
  6
SLD-Durchgehend
 62
     7
100
AcDbLine
 10
203.8333533926
 20
146.7868609127
 30
0.0
 11
203.7902844824
 21
146.8058913614
 31
0.0
  0
LINE
  5
28C
330
1F
100
AcDbEntity
  8
0
  6
SLD-Durchgehend
 62
     7
100
AcDbLine
 10
203.7902844824
 20
146.8058913614
 30
0.0
 11
203.7382011491
 21
146.8259234127
 31
0.0
  0
LINE
  5
28D
330
1F
100
AcDbEntity
  8
0
  6
SLD-Durchgehend
 62
     7
100
AcDbLine
 10
203.7382011491
 20
146.8259234127
 30
0.0
 11
203.6771033926
 21
146.8479586691
 31
0.0
  0
LINE
  5
28E
330
1F
100
AcDbEntity
  8
0
  6
SLD-Durchgehend
 62
     7
100
AcDbLine
 10
203.6771033926
 20
146.8479586691
 30
0.0
 11
203.6059896106
 21
146.8699939255
 31
0.0
  0
LINE
  5
28F
330
1F
100
AcDbEntity
  8
0
  6
SLD-Durchgehend
 62
     7
100
AcDbLine
 10
203.6059896106
 20
146.8699939255
 30
0.0
 11
203.526863008
 21
146.8940323871
 31
0.0
  0
LINE
  5
290
330
1F
100
AcDbEntity
  8
0
  6
SLD-Durchgehend
 62
     7
100
AcDbLine
 10
203.526863008
 20
146.8940323871
 30
0.0
 11
203.4377203798
 21
146.9200740537
 31
0.0
  0
LINE
  5
291
330
1F
100
AcDbEntity
  8
0
  6
SLD-Durchgehend
 62
     7
100
AcDbLine
 10
203.4377203798
 20
146.9200740537
 30
0.0
 11
203.338561726
 21
146.9461157204
 31
0.0
  0
LINE
  5
292
330
1F
100
AcDbEntity
  8
0
  6
SLD-Durchgehend
 62
     7
100
AcDbLine
 10
203.338561726
 20
146.9461157204
 30
0.0
 11
203.2313902516
 21
146.9741605922
 31
0.0
  0
LINE
  5
293
330
1F
100
AcDbEntity
  8
0
  6
SLD-Durchgehend
 62
     7
100
AcDbLine
 10
203.2313902516
 20
146.9741605922
 30
0.0
 11
203.0851562773
 21
147.0172295025
 31
0.0
  0
LINE
  5
294
330
1F
100
AcDbEntity
  8
0
  6
SLD-Durchgehend
 62
     7
100
AcDbLine
 10
203.0851562773
 20
147.0172295025
 30
0.0
 11
202.9499399311
 21
147.0582952076
 31
0.0
  0
LINE
  5
295
330
1F
100
AcDbEntity
  8
0
  6
SLD-Durchgehend
 62
     7
100
AcDbLine
 10
202.9499399311
 20
147.0582952076
 30
0.0
 11
202.8257412132
 21
147.0973577076
 31
0.0
  0
LINE
  5
296
330
1F
100
AcDbEntity
  8
0
  6
SLD-Durchgehend
 62
     7
100
AcDbLine
 10
202.8257412132
 20
147.0973577076
 30
0.0
 11
202.7105569183
 21
147.135418605
 31
0.0
  0
LINE
  5
297
330
1F
100
AcDbEntity
  8
0
  6
SLD-Durchgehend
 62
     7
100
AcDbLine
 10
202.7105569183
 20
147.135418605
 30
0.0
 11
202.6063902516
 21
147.1724778999
 31
0.0
  0
LINE
  5
298
330
1F
100
AcDbEntity
  8
0
  6
SLD-Durchgehend
 62
     7
100
AcDbLine
 10
202.6063902516
 20
147.1724778999
 30
0.0
 11
202.5132412132
 21
147.2075339896
 31
0.0
  0
LINE
  5
299
330
1F
100
AcDbEntity
  8
0
  6
SLD-Durchgehend
 62
     7
100
AcDbLine
 10
202.5132412132
 20
147.2075339896
 30
0.0
 11
202.4301082003
 21
147.2415884768
 31
0.0
  0
LINE
  5
29A
330
1F
100
AcDbEntity
  8
0
  6
SLD-Durchgehend
 62
     7
100
AcDbLine
 10
202.4301082003
 20
147.2415884768
 30
0.0
 11
202.3569912132
 21
147.2736397589
 31
0.0
  0
LINE
  5
29B
330
1F
100
AcDbEntity
  8
0
  6
SLD-Durchgehend
 62
     7
100
AcDbLine
 10
202.3569912132
 20
147.2736397589
 30
0.0
 11
202.2307892901
 21
147.3427503358
 31
0.0
  0
LINE
  5
29C
330
1F
100
AcDbEntity
  8
0
  6
SLD-Durchgehend
 62
     7
100
AcDbLine
 10
202.2307892901
 20
147.3427503358
 30
0.0
 11
202.120613008
 21
147.4238801435
 31
0.0
  0
LINE
  5
29D
330
1F
100
AcDbEntity
  8
0
  6
SLD-Durchgehend
 62
     7
100
AcDbLine
 10
202.120613008
 20
147.4238801435
 30
0.0
 11
202.026462367
 21
147.5180307845
 31
0.0
  0
LINE
  5
29E
330
1F
100
AcDbEntity
  8
0
  6
SLD-Durchgehend
 62
     7
100
AcDbLine
 10
202.026462367
 20
147.5180307845
 30
0.0
 11
201.948337367
 21
147.6231990537
 31
0.0
  0
LINE
  5
29F
330
1F
100
AcDbEntity
  8
0
  6
SLD-Durchgehend
 62
     7
100
AcDbLine
 10
201.948337367
 20
147.6231990537
 30
0.0
 11
201.8872396106
 21
147.7373817461
 31
0.0
  0
LINE
  5
2A0
330
1F
100
AcDbEntity
  8
0
  6
SLD-Durchgehend
 62
     7
100
AcDbLine
 10
201.8872396106
 20
147.7373817461
 30
0.0
 11
201.8441707003
 21
147.8585756563
 31
0.0
  0
LINE
  5
2A1
330
1F
100
AcDbEntity
  8
0
  6
SLD-Durchgehend
 62
     7
100
AcDbLine
 10
201.8441707003
 20
147.8585756563
 30
0.0
 11
201.8181290337
 21
147.9847775794
 31
0.0
  0
LINE
  5
2A2
330
1F
100
AcDbEntity
  8
0
  6
SLD-Durchgehend
 62
     7
100
AcDbLine
 10
201.8181290337
 20
147.9847775794
 30
0.0
 11
201.8091146106
 21
148.1169891179
 31
0.0
  0
LINE
  5
2A3
330
1F
100
AcDbEntity
  8
0
  6
SLD-Durchgehend
 62
     7
100
AcDbLine
 10
201.8091146106
 20
148.1169891179
 30
0.0
 11
201.8161258285
 21
148.2371814255
 31
0.0
  0
LINE
  5
2A4
330
1F
100
AcDbEntity
  8
0
  6
SLD-Durchgehend
 62
     7
100
AcDbLine
 10
201.8161258285
 20
148.2371814255
 30
0.0
 11
201.8361578798
 21
148.353367323
 31
0.0
  0
LINE
  5
2A5
330
1F
100
AcDbEntity
  8
0
  6
SLD-Durchgehend
 62
     7
100
AcDbLine
 10
201.8361578798
 20
148.353367323
 30
0.0
 11
201.8692107644
 21
148.4645452076
 31
0.0
  0
LINE
  5
2A6
330
1F
100
AcDbEntity
  8
0
  6
SLD-Durchgehend
 62
     7
100
AcDbLine
 10
201.8692107644
 20
148.4645452076
 30
0.0
 11
201.916286085
 21
148.571716682
 31
0.0
  0
LINE
  5
2A7
330
1F
100
AcDbEntity
  8
0
  6
SLD-Durchgehend
 62
     7
100
AcDbLine
 10
201.916286085
 20
148.571716682
 30
0.0
 11
201.9753806362
 21
148.6728785409
 31
0.0
  0
LINE
  5
2A8
330
1F
100
AcDbEntity
  8
0
  6
SLD-Durchgehend
 62
     7
100
AcDbLine
 10
201.9753806362
 20
148.6728785409
 30
0.0
 11
202.0444912132
 21
148.7640243743
 31
0.0
  0
LINE
  5
2A9
330
1F
100
AcDbEntity
  8
0
  6
SLD-Durchgehend
 62
     7
100
AcDbLine
 10
202.0444912132
 20
148.7640243743
 30
0.0
 11
202.1226162132
 21
148.8471573871
 31
0.0
  0
LINE
  5
2AA
330
1F
100
AcDbEntity
  8
0
  6
SLD-Durchgehend
 62
     7
100
AcDbLine
 10
202.1226162132
 20
148.8471573871
 30
0.0
 11
202.2107572388
 21
148.9202743743
 31
0.0
  0
LINE
  5
2AB
330
1F
100
AcDbEntity
  8
0
  6
SLD-Durchgehend
 62
     7
100
AcDbLine
 10
202.2107572388
 20
148.9202743743
 30
0.0
 11
202.2868790337
 21
148.971356105
 31
0.0
  0
LINE
  5
2AC
330
1F
100
AcDbEntity
  8
0
  6
SLD-Durchgehend
 62
     7
100
AcDbLine
 10
202.2868790337
 20
148.971356105
 30
0.0
 11
202.3750200593
 21
149.0194330281
 31
0.0
  0
LINE
  5
2AD
330
1F
100
AcDbEntity
  8
0
  6
SLD-Durchgehend
 62
     7
100
AcDbLine
 10
202.3750200593
 20
149.0194330281
 30
0.0
 11
202.4761819183
 21
149.0625019384
 31
0.0
  0
LINE
  5
2AE
330
1F
100
AcDbEntity
  8
0
  6
SLD-Durchgehend
 62
     7
100
AcDbLine
 10
202.4761819183
 20
149.0625019384
 30
0.0
 11
202.5903646106
 21
149.1015644384
 31
0.0
  0
LINE
  5
2AF
330
1F
100
AcDbEntity
  8
0
  6
SLD-Durchgehend
 62
     7
100
AcDbLine
 10
202.5903646106
 20
149.1015644384
 30
0.0
 11
202.7125601234
 21
149.134617323
 31
0.0
  0
LINE
  5
2B0
330
1F
100
AcDbEntity
  8
0
  6
SLD-Durchgehend
 62
     7
100
AcDbLine
 10
202.7125601234
 20
149.134617323
 30
0.0
 11
202.8397636491
 21
149.157654182
 31
0.0
  0
LINE
  5
2B1
330
1F
100
AcDbEntity
  8
0
  6
SLD-Durchgehend
 62
     7
100
AcDbLine
 10
202.8397636491
 20
149.157654182
 30
0.0
 11
202.9699719824
 21
149.1716766179
 31
0.0
  0
LINE
  5
2B2
330
1F
100
AcDbEntity
  8
0
  6
SLD-Durchgehend
 62
     7
100
AcDbLine
 10
202.9699719824
 20
149.1716766179
 30
0.0
 11
203.1051883285
 21
149.1766846307
 31
0.0
  0
LINE
  5
2B3
330
1F
100
AcDbEntity
  8
0
  6
SLD-Durchgehend
 62
     7
100
AcDbLine
 10
203.1051883285
 20
149.1766846307
 30
0.0
 11
203.3065104439
 21
149.1686718102
 31
0.0
  0
LINE
  5
2B4
330
1F
100
AcDbEntity
  8
0
  6
SLD-Durchgehend
 62
     7
100
AcDbLine
 10
203.3065104439
 20
149.1686718102
 30
0.0
 11
203.494811726
 21
149.1456349512
 31
0.0
  0
LINE
  5
2B5
330
1F
100
AcDbEntity
  8
0
  6
SLD-Durchgehend
 62
     7
100
AcDbLine
 10
203.494811726
 20
149.1456349512
 30
0.0
 11
203.6700921747
 21
149.1065724512
 31
0.0
  0
LINE
  5
2B6
330
1F
100
AcDbEntity
  8
0
  6
SLD-Durchgehend
 62
     7
100
AcDbLine
 10
203.6700921747
 20
149.1065724512
 30
0.0
 11
203.8333533926
 21
149.0524859127
 31
0.0
  0
LINE
  5
2B7
330
1F
100
AcDbEntity
  8
0
  6
SLD-Durchgehend
 62
     7
100
AcDbLine
 10
203.8333533926
 20
149.0524859127
 30
0.0
 11
203.979587367
 21
148.9853785409
 31
0.0
  0
LINE
  5
2B8
330
1F
100
AcDbEntity
  8
0
  6
SLD-Durchgehend
 62
     7
100
AcDbLine
 10
203.979587367
 20
148.9853785409
 30
0.0
 11
204.1057892901
 21
148.9072535409
 31
0.0
  0
LINE
  5
2B9
330
1F
100
AcDbEntity
  8
0
  6
SLD-Durchgehend
 62
     7
100
AcDbLine
 10
204.1057892901
 20
148.9072535409
 30
0.0
 11
204.2109575593
 21
148.8171093102
 31
0.0
  0
LINE
  5
2BA
330
1F
100
AcDbEntity
  8
0
  6
SLD-Durchgehend
 62
     7
100
AcDbLine
 10
204.2109575593
 20
148.8171093102
 30
0.0
 11
204.2960937773
 21
148.7169490537
 31
0.0
  0
LINE
  5
2BB
330
1F
100
AcDbEntity
  8
0
  6
SLD-Durchgehend
 62
     7
100
AcDbLine
 10
204.2960937773
 20
148.7169490537
 30
0.0
 11
204.3652043542
 21
148.6027663614
 31
0.0
  0
LINE
  5
2BC
330
1F
100
AcDbEntity
  8
0
  6
SLD-Durchgehend
 62
     7
100
AcDbLine
 10
204.3652043542
 20
148.6027663614
 30
0.0
 11
204.4222957003
 21
148.4695532204
 31
0.0
  0
LINE
  5
2BD
330
1F
100
AcDbEntity
  8
0
  6
SLD-Durchgehend
 62
     7
100
AcDbLine
 10
204.4222957003
 20
148.4695532204
 30
0.0
 11
204.4673678157
 21
148.3193128358
 31
0.0
  0
LINE
  5
2BE
330
1F
100
AcDbEntity
  8
0
  6
SLD-Durchgehend
 62
     7
100
AcDbLine
 10
204.4673678157
 20
148.3193128358
 30
0.0
 11
204.5014223029
 21
148.151043605
 31
0.0
  0
LINE
  5
2BF
330
1F
100
AcDbEntity
  8
0
  6
SLD-Durchgehend
 62
     7
100
AcDbLine
 10
204.5014223029
 20
148.151043605
 30
0.0
 11
203.8603966619
 21
148.0869410409
 31
0.0
  0
LINE
  5
2C0
330
1F
100
AcDbEntity
  8
0
  6
SLD-Durchgehend
 62
     7
100
AcDbLine
 10
203.8603966619
 20
148.0869410409
 30
0.0
 11
203.8333533926
 21
148.2011237332
 31
0.0
  0
LINE
  5
2C1
330
1F
100
AcDbEntity
  8
0
  6
SLD-Durchgehend
 62
     7
100
AcDbLine
 10
203.8333533926
 20
148.2011237332
 30
0.0
 11
203.7892828798
 21
148.3022855922
 31
0.0
  0
LINE
  5
2C2
330
1F
100
AcDbEntity
  8
0
  6
SLD-Durchgehend
 62
     7
100
AcDbLine
 10
203.7892828798
 20
148.3022855922
 30
0.0
 11
203.7271835209
 21
148.3894250153
 31
0.0
  0
LINE
  5
2C3
330
1F
100
AcDbEntity
  8
0
  6
SLD-Durchgehend
 62
     7
100
AcDbLine
 10
203.7271835209
 20
148.3894250153
 30
0.0
 11
203.6480569183
 21
148.463543605
 31
0.0
  0
LINE
  5
2C4
330
1F
100
AcDbEntity
  8
0
  6
SLD-Durchgehend
 62
     7
100
AcDbLine
 10
203.6480569183
 20
148.463543605
 30
0.0
 11
203.5509014696
 21
148.5236397589
 31
0.0
  0
LINE
  5
2C5
330
1F
100
AcDbEntity
  8
0
  6
SLD-Durchgehend
 62
     7
100
AcDbLine
 10
203.5509014696
 20
148.5236397589
 30
0.0
 11
203.4367187773
 21
148.5657070666
 31
0.0
  0
LINE
  5
2C6
330
1F
100
AcDbEntity
  8
0
  6
SLD-Durchgehend
 62
     7
100
AcDbLine
 10
203.4367187773
 20
148.5657070666
 30
0.0
 11
203.3035056362
 21
148.5917487332
 31
0.0
  0
LINE
  5
2C7
330
1F
100
AcDbEntity
  8
0
  6
SLD-Durchgehend
 62
     7
100
AcDbLine
 10
203.3035056362
 20
148.5917487332
 30
0.0
 11
203.1522636491
 21
148.5997615537
 31
0.0
  0
LINE
  5
2C8
330
1F
100
AcDbEntity
  8
0
  6
SLD-Durchgehend
 62
     7
100
AcDbLine
 10
203.1522636491
 20
148.5997615537
 30
0.0
 11
203.0611178157
 21
148.5977583486
 31
0.0
  0
LINE
  5
2C9
330
1F
100
AcDbEntity
  8
0
  6
SLD-Durchgehend
 62
     7
100
AcDbLine
 10
203.0611178157
 20
148.5977583486
 30
0.0
 11
202.9769832003
 21
148.5917487332
 31
0.0
  0
LINE
  5
2CA
330
1F
100
AcDbEntity
  8
0
  6
SLD-Durchgehend
 62
     7
100
AcDbLine
 10
202.9769832003
 20
148.5917487332
 30
0.0
 11
202.8988582003
 21
148.5817327076
 31
0.0
  0
LINE
  5
2CB
330
1F
100
AcDbEntity
  8
0
  6
SLD-Durchgehend
 62
     7
100
AcDbLine
 10
202.8988582003
 20
148.5817327076
 30
0.0
 11
202.8277444183
 21
148.5687118743
 31
0.0
  0
LINE
  5
2CC
330
1F
100
AcDbEntity
  8
0
  6
SLD-Durchgehend
 62
     7
100
AcDbLine
 10
202.8277444183
 20
148.5687118743
 30
0.0
 11
202.7636418542
 21
148.5506830281
 31
0.0
  0
LINE
  5
2CD
330
1F
100
AcDbEntity
  8
0
  6
SLD-Durchgehend
 62
     7
100
AcDbLine
 10
202.7636418542
 20
148.5506830281
 30
0.0
 11
202.706550508
 21
148.5296493743
 31
0.0
  0
LINE
  5
2CE
330
1F
100
AcDbEntity
  8
0
  6
SLD-Durchgehend
 62
     7
100
AcDbLine
 10
202.706550508
 20
148.5296493743
 30
0.0
 11
202.6554687773
 21
148.5036077076
 31
0.0
  0
LINE
  5
2CF
330
1F
100
AcDbEntity
  8
0
  6
SLD-Durchgehend
 62
     7
100
AcDbLine
 10
202.6554687773
 20
148.5036077076
 30
0.0
 11
202.6113982644
 21
148.4745612332
 31
0.0
  0
LINE
  5
2D0
330
1F
100
AcDbEntity
  8
0
  6
SLD-Durchgehend
 62
     7
100
AcDbLine
 10
202.6113982644
 20
148.4745612332
 30
0.0
 11
202.541286085
 21
148.4094570666
 31
0.0
  0
LINE
  5
2D1
330
1F
100
AcDbEntity
  8
0
  6
SLD-Durchgehend
 62
     7
100
AcDbLine
 10
202.541286085
 20
148.4094570666
 30
0.0
 11
202.4902043542
 21
148.3393448871
 31
0.0
  0
LINE
  5
2D2
330
1F
100
AcDbEntity
  8
0
  6
SLD-Durchgehend
 62
     7
100
AcDbLine
 10
202.4902043542
 20
148.3393448871
 30
0.0
 11
202.4601562773
 21
148.2632230922
 31
0.0
  0
LINE
  5
2D3
330
1F
100
AcDbEntity
  8
0
  6
SLD-Durchgehend
 62
     7
100
AcDbLine
 10
202.4601562773
 20
148.2632230922
 30
0.0
 11
202.4501402516
 21
148.1820932845
 31
0.0
  0
LINE
  5
2D4
330
1F
100
AcDbEntity
  8
0
  6
SLD-Durchgehend
 62
     7
100
AcDbLine
 10
202.4501402516
 20
148.1820932845
 30
0.0
 11
202.4541466619
 21
148.1300099512
 31
0.0
  0
LINE
  5
2D5
330
1F
100
AcDbEntity
  8
0
  6
SLD-Durchgehend
 62
     7
100
AcDbLine
 10
202.4541466619
 20
148.1300099512
 30
0.0
 11
202.4671674952
 21
148.0809314255
 31
0.0
  0
LINE
  5
2D6
330
1F
100
AcDbEntity
  8
0
  6
SLD-Durchgehend
 62
     7
100
AcDbLine
 10
202.4671674952
 20
148.0809314255
 30
0.0
 11
202.4882011491
 21
148.0348577076
 31
0.0
  0
LINE
  5
2D7
330
1F
100
AcDbEntity
  8
0
  6
SLD-Durchgehend
 62
     7
100
AcDbLine
 10
202.4882011491
 20
148.0348577076
 30
0.0
 11
202.5172476234
 21
147.9907871948
 31
0.0
  0
LINE
  5
2D8
330
1F
100
AcDbEntity
  8
0
  6
SLD-Durchgehend
 62
     7
100
AcDbLine
 10
202.5172476234
 20
147.9907871948
 30
0.0
 11
202.5553085209
 21
147.9487198871
 31
0.0
  0
LINE
  5
2D9
330
1F
100
AcDbEntity
  8
0
  6
SLD-Durchgehend
 62
     7
100
AcDbLine
 10
202.5553085209
 20
147.9487198871
 30
0.0
 11
202.6033854439
 21
147.9106589896
 31
0.0
  0
LINE
  5
2DA
330
1F
100
AcDbEntity
  8
0
  6
SLD-Durchgehend
 62
     7
100
AcDbLine
 10
202.6033854439
 20
147.9106589896
 30
0.0
 11
202.6614783926
 21
147.8756028999
 31
0.0
  0
LINE
  5
2DB
330
1F
100
AcDbEntity
  8
0
  6
SLD-Durchgehend
 62
     7
100
AcDbLine
 10
202.6614783926
 20
147.8756028999
 30
0.0
 11
202.7285857644
 21
147.8445532204
 31
0.0
  0
LINE
  5
2DC
330
1F
100
AcDbEntity
  8
0
  6
SLD-Durchgehend
 62
     7
100
AcDbLine
 10
202.7285857644
 20
147.8445532204
 30
0.0
 11
202.7546274311
 21
147.8355387973
 31
0.0
  0
LINE
  5
2DD
330
1F
100
AcDbEntity
  8
0
  6
SLD-Durchgehend
 62
     7
100
AcDbLine
 10
202.7546274311
 20
147.8355387973
 30
0.0
 11
202.7896835209
 21
147.8245211691
 31
0.0
  0
LINE
  5
2DE
330
1F
100
AcDbEntity
  8
0
  6
SLD-Durchgehend
 62
     7
100
AcDbLine
 10
202.7896835209
 20
147.8245211691
 30
0.0
 11
202.8357572388
 21
147.8104987332
 31
0.0
  0
LINE
  5
2DF
330
1F
100
AcDbEntity
  8
0
  6
SLD-Durchgehend
 62
     7
100
AcDbLine
 10
202.8357572388
 20
147.8104987332
 30
0.0
 11
202.8908453798
 21
147.7944730922
 31
0.0
  0
LINE
  5
2E0
330
1F
100
AcDbEntity
  8
0
  6
SLD-Durchgehend
 62
     7
100
AcDbLine
 10
202.8908453798
 20
147.7944730922
 30
0.0
 11
202.9569511491
 21
147.7754426435
 31
0.0
  0
LINE
  5
2E1
330
1F
100
AcDbEntity
  8
0
  6
SLD-Durchgehend
 62
     7
100
AcDbLine
 10
202.9569511491
 20
147.7754426435
 30
0.0
 11
203.0320713414
 21
147.7544089896
 31
0.0
  0
LINE
  5
2E2
330
1F
100
AcDbEntity
  8
0
  6
SLD-Durchgehend
 62
     7
100
AcDbLine
 10
203.0320713414
 20
147.7544089896
 30
0.0
 11
203.1182091619
 21
147.7303705281
 31
0.0
  0
LINE
  5
2E3
330
1F
100
AcDbEntity
  8
0
  6
SLD-Durchgehend
 62
     7
100
AcDbLine
 10
203.1182091619
 20
147.7303705281
 30
0.0
 11
203.2133614055
 21
147.7043288614
 31
0.0
  0
LINE
  5
2E4
330
1F
100
AcDbEntity
  8
0
  6
SLD-Durchgehend
 62
     7
100
AcDbLine
 10
203.2133614055
 20
147.7043288614
 30
0.0
 11
203.354587367
 21
147.6612599512
 31
0.0
  0
LINE
  5
2E5
330
1F
100
AcDbEntity
  8
0
  6
SLD-Durchgehend
 62
     7
100
AcDbLine
 10
203.354587367
 20
147.6612599512
 30
0.0
 11
203.4857973029
 21
147.6201942461
 31
0.0
  0
LINE
  5
2E6
330
1F
100
AcDbEntity
  8
0
  6
SLD-Durchgehend
 62
     7
100
AcDbLine
 10
203.4857973029
 20
147.6201942461
 30
0.0
 11
203.6089944183
 21
147.5811317461
 31
0.0
  0
LINE
  5
2E7
330
1F
100
AcDbEntity
  8
0
  6
SLD-Durchgehend
 62
     7
100
AcDbLine
 10
203.6089944183
 20
147.5811317461
 30
0.0
 11
203.722175508
 21
147.5440724512
 31
0.0
  0
LINE
  5
2E8
330
1F
100
AcDbEntity
  8
0
  6
SLD-Durchgehend
 62
     7
100
AcDbLine
 10
203.722175508
 20
147.5440724512
 30
0.0
 11
203.8253405721
 21
147.5090163614
 31
0.0
  0
LINE
  5
2E9
330
1F
100
AcDbEntity
  8
0
  6
SLD-Durchgehend
 62
     7
100
AcDbLine
 10
203.8253405721
 20
147.5090163614
 30
0.0
 11
203.9204928157
 21
147.4759634768
 31
0.0
  0
LINE
  5
2EA
330
1F
100
AcDbEntity
  8
0
  6
SLD-Durchgehend
 62
     7
100
AcDbLine
 10
203.9204928157
 20
147.4759634768
 30
0.0
 11
204.0056290337
 21
147.4449137973
 31
0.0
  0
LINE
  5
2EB
330
1F
100
AcDbEntity
  8
0
  6
SLD-Durchgehend
 62
     7
100
AcDbLine
 10
204.0056290337
 20
147.4449137973
 30
0.0
 11
204.0817508285
 21
147.415867323
 31
0.0
  0
LINE
  5
2EC
330
1F
100
AcDbEntity
  8
0
  6
SLD-Durchgehend
 62
     7
100
AcDbLine
 10
204.0817508285
 20
147.415867323
 30
0.0
 11
204.2169671747
 21
147.353767964
 31
0.0
  0
LINE
  5
2ED
330
1F
100
AcDbEntity
  8
0
  6
SLD-Durchgehend
 62
     7
100
AcDbLine
 10
204.2169671747
 20
147.353767964
 30
0.0
 11
204.3371594824
 21
147.2776461691
 31
0.0
  0
LINE
  5
2EE
330
1F
100
AcDbEntity
  8
0
  6
SLD-Durchgehend
 62
     7
100
AcDbLine
 10
204.3371594824
 20
147.2776461691
 30
0.0
 11
204.4413261491
 21
147.1895051435
 31
0.0
  0
LINE
  5
2EF
330
1F
100
AcDbEntity
  8
0
  6
SLD-Durchgehend
 62
     7
100
AcDbLine
 10
204.4413261491
 20
147.1895051435
 30
0.0
 11
204.5304687773
 21
147.0883432845
 31
0.0
  0
LINE
  5
2F0
330
1F
100
AcDbEntity
  8
0
  6
SLD-Durchgehend
 62
     7
100
AcDbLine
 10
204.5304687773
 20
147.0883432845
 30
0.0
 11
204.6015825593
 21
146.9751621948
 31
0.0
  0
LINE
  5
2F1
330
1F
100
AcDbEntity
  8
0
  6
SLD-Durchgehend
 62
     7
100
AcDbLine
 10
204.6015825593
 20
146.9751621948
 30
0.0
 11
204.6526642901
 21
146.8479586691
 31
0.0
  0
LINE
  5
2F2
330
1F
100
AcDbEntity
  8
0
  6
SLD-Durchgehend
 62
     7
100
AcDbLine
 10
204.6526642901
 20
146.8479586691
 30
0.0
 11
204.6837139696
 21
146.7087359127
 31
0.0
  0
LINE
  5
2F3
330
1F
100
AcDbEntity
  8
0
  6
SLD-Durchgehend
 62
     7
100
AcDbLine
 10
204.6837139696
 20
146.7087359127
 30
0.0
 11
204.6937299952
 21
146.556492323
 31
0.0
  0
LINE
  5
2F4
330
1F
100
AcDbEntity
  8
0
  6
SLD-Durchgehend
 62
     7
100
AcDbLine
 10
204.6937299952
 20
146.556492323
 30
0.0
 11
204.682712367
 21
146.4032471307
 31
0.0
  0
LINE
  5
2F5
330
1F
100
AcDbEntity
  8
0
  6
SLD-Durchgehend
 62
     7
100
AcDbLine
 10
204.682712367
 20
146.4032471307
 30
0.0
 11
204.6496594824
 21
146.2540083486
 31
0.0
  0
LINE
  5
2F6
330
1F
100
AcDbEntity
  8
0
  6
SLD-Durchgehend
 62
     7
100
AcDbLine
 10
204.6496594824
 20
146.2540083486
 30
0.0
 11
204.5955729439
 21
146.1097775794
 31
0.0
  0
LINE
  5
2F7
330
1F
100
AcDbEntity
  8
0
  6
SLD-Durchgehend
 62
     7
100
AcDbLine
 10
204.5955729439
 20
146.1097775794
 30
0.0
 11
204.5184495465
 21
145.9695532204
 31
0.0
  0
LINE
  5
2F8
330
1F
100
AcDbEntity
  8
0
  6
SLD-Durchgehend
 62
     7
100
AcDbLine
 10
204.5184495465
 20
145.9695532204
 30
0.0
 11
204.4212940978
 21
145.8403464896
 31
0.0
  0
LINE
  5
2F9
330
1F
100
AcDbEntity
  8
0
  6
SLD-Durchgehend
 62
     7
100
AcDbLine
 10
204.4212940978
 20
145.8403464896
 30
0.0
 11
204.3041065978
 21
145.7261637973
 31
0.0
  0
LINE
  5
2FA
330
1F
100
AcDbEntity
  8
0
  6
SLD-Durchgehend
 62
     7
100
AcDbLine
 10
204.3041065978
 20
145.7261637973
 30
0.0
 11
204.1678886491
 21
145.6280067461
 31
0.0
  0
LINE
  5
2FB
330
1F
100
AcDbEntity
  8
0
  6
SLD-Durchgehend
 62
     7
100
AcDbLine
 10
204.1678886491
 20
145.6280067461
 30
0.0
 11
204.0116386491
 21
145.5448737332
 31
0.0
  0
LINE
  5
2FC
330
1F
100
AcDbEntity
  8
0
  6
SLD-Durchgehend
 62
     7
100
AcDbLine
 10
204.0116386491
 20
145.5448737332
 30
0.0
 11
203.8413662132
 21
145.478767964
 31
0.0
  0
LINE
  5
2FD
330
1F
100
AcDbEntity
  8
0
  6
SLD-Durchgehend
 62
     7
100
AcDbLine
 10
203.8413662132
 20
145.478767964
 30
0.0
 11
203.6590745465
 21
145.4326942461
 31
0.0
  0
LINE
  5
2FE
330
1F
100
AcDbEntity
  8
0
  6
SLD-Durchgehend
 62
     7
100
AcDbLine
 10
203.6590745465
 20
145.4326942461
 30
0.0
 11
203.4667668542
 21
145.4036477717
 31
0.0
  0
LINE
  5
2FF
330
1F
100
AcDbEntity
  8
0
  6
SLD-Durchgehend
 62
     7
100
AcDbLine
 10
203.4667668542
 20
145.4036477717
 30
0.0
 11
203.2624399311
 21
145.3946333486
 31
0.0
  0
LINE
  5
300
330
1F
100
AcDbEntity
  8
0
  6
SLD-Durchgehend
 62
     7
100
AcDbLine
 10
203.2624399311
 20
145.3946333486
 30
0.0
 11
203.0941707003
 21
145.3996413614
 31
0.0
  0
LINE
  5
301
330
1F
100
AcDbEntity
  8
0
  6
SLD-Durchgehend
 62
     7
100
AcDbLine
 10
203.0941707003
 20
145.3996413614
 30
0.0
 11
202.9369190978
 21
145.4136637973
 31
0.0
  0
LINE
  5
302
330
1F
100
AcDbEntity
  8
0
  6
SLD-Durchgehend
 62
     7
100
AcDbLine
 10
202.9369190978
 20
145.4136637973
 30
0.0
 11
202.7896835209
 21
145.4377022589
 31
0.0
  0
LINE
  5
303
330
1F
100
AcDbEntity
  8
0
  6
SLD-Durchgehend
 62
     7
100
AcDbLine
 10
202.7896835209
 20
145.4377022589
 30
0.0
 11
202.6524639696
 21
145.4717567461
 31
0.0
  0
LINE
  5
304
330
1F
100
AcDbEntity
  8
0
  6
SLD-Durchgehend
 62
     7
100
AcDbLine
 10
202.6524639696
 20
145.4717567461
 30
0.0
 11
202.5262620465
 21
145.5148256563
 31
0.0
  0
LINE
  5
305
330
1F
100
AcDbEntity
  8
0
  6
SLD-Durchgehend
 62
     7
100
AcDbLine
 10
202.5262620465
 20
145.5148256563
 30
0.0
 11
202.4100761491
 21
145.5669089896
 31
0.0
  0
LINE
  5
306
330
1F
100
AcDbEntity
  8
0
  6
SLD-Durchgehend
 62
     7
100
AcDbLine
 10
202.4100761491
 20
145.5669089896
 30
0.0
 11
202.3039062773
 21
145.6290083486
 31
0.0
  0
LINE
  5
307
330
1F
100
AcDbEntity
  8
0
  6
SLD-Durchgehend
 62
     7
100
AcDbLine
 10
202.3039062773
 20
145.6290083486
 30
0.0
 11
202.2077524311
 21
145.7011237332
 31
0.0
  0
LINE
  5
308
330
1F
100
AcDbEntity
  8
0
  6
SLD-Durchgehend
 62
     7
100
AcDbLine
 10
202.2077524311
 20
145.7011237332
 30
0.0
 11
202.1216146106
 21
145.7822535409
 31
0.0
  0
LINE
  5
309
330
1F
100
AcDbEntity
  8
0
  6
SLD-Durchgehend
 62
     7
100
AcDbLine
 10
202.1216146106
 20
145.7822535409
 30
0.0
 11
202.042488008
 21
145.8733993743
 31
0.0
  0
LINE
  5
30A
330
1F
100
AcDbEntity
  8
0
  6
SLD-Durchgehend
 62
     7
100
AcDbLine
 10
202.042488008
 20
145.8733993743
 30
0.0
 11
201.9723758285
 21
145.9735596307
 31
0.0
  0
LINE
  5
30B
330
1F
100
AcDbEntity
  8
0
  6
SLD-Durchgehend
 62
     7
100
AcDbLine
 10
201.9723758285
 20
145.9735596307
 30
0.0
 11
201.9112780721
 21
146.0827343102
 31
0.0
  0
LINE
  5
30C
330
1F
100
AcDbEntity
  8
0
  6
SLD-Durchgehend
 62
     7
100
AcDbLine
 10
201.9112780721
 20
146.0827343102
 30
0.0
 11
201.8571915337
 21
146.2009234127
 31
0.0
  0
LINE
  5
30D
330
1F
100
AcDbEntity
  8
0
  6
SLD-Durchgehend
 62
     7
100
AcDbLine
 10
201.8571915337
 20
146.2009234127
 30
0.0
 11
201.8111178157
 21
146.3291285409
 31
0.0
  0
LINE
  5
30E
330
1F
100
AcDbEntity
  8
0
  6
SLD-Durchgehend
 62
     7
100
AcDbLine
 10
201.8111178157
 20
146.3291285409
 30
0.0
 11
201.7740585209
 21
146.4663480922
 31
0.0
  0
LINE
  5
30F
330
1F
100
AcDbEntity
  8
0
  6
SLD-Durchgehend
 62
     7
100
AcDbLine
 10
201.7740585209
 20
146.4663480922
 30
0.0
 11
201.7450121465
 21
146.6125820666
 31
0.0
  0
LINE
  5
310
330
1F
100
AcDbEntity
  8
0
  6
SLD-Durchgehend
 62
     7
100
AcDbLine
 10
207.7065487625
 20
146.8048897589
 30
0.0
 11
208.3475761491
 21
146.7407871948
 31
0.0
  0
LINE
  5
311
330
1F
100
AcDbEntity
  8
0
  6
SLD-Durchgehend
 62
     7
100
AcDbLine
 10
208.3475761491
 20
146.7407871948
 30
0.0
 11
208.3185296747
 21
146.5875420025
 31
0.0
  0
LINE
  5
312
330
1F
100
AcDbEntity
  8
0
  6
SLD-Durchgehend
 62
     7
100
AcDbLine
 10
208.3185296747
 20
146.5875420025
 30
0.0
 11
208.2794671747
 21
146.4423096307
 31
0.0
  0
LINE
  5
313
330
1F
100
AcDbEntity
  8
0
  6
SLD-Durchgehend
 62
     7
100
AcDbLine
 10
208.2794671747
 20
146.4423096307
 30
0.0
 11
208.2303886491
 21
146.3050900794
 31
0.0
  0
LINE
  5
314
330
1F
100
AcDbEntity
  8
0
  6
SLD-Durchgehend
 62
     7
100
AcDbLine
 10
208.2303886491
 20
146.3050900794
 30
0.0
 11
208.1722957003
 21
146.1778865537
 31
0.0
  0
LINE
  5
315
330
1F
100
AcDbEntity
  8
0
  6
SLD-Durchgehend
 62
     7
100
AcDbLine
 10
208.1722957003
 20
146.1778865537
 30
0.0
 11
208.104186726
 21
146.0576942461
 31
0.0
  0
LINE
  5
316
330
1F
100
AcDbEntity
  8
0
  6
SLD-Durchgehend
 62
     7
100
AcDbLine
 10
208.104186726
 20
146.0576942461
 30
0.0
 11
208.0270633285
 21
145.947517964
 31
0.0
  0
LINE
  5
317
330
1F
100
AcDbEntity
  8
0
  6
SLD-Durchgehend
 62
     7
100
AcDbLine
 10
208.0270633285
 20
145.947517964
 30
0.0
 11
207.9399239055
 21
145.8453545025
 31
0.0
  0
LINE
  5
318
330
1F
100
AcDbEntity
  8
0
  6
SLD-Durchgehend
 62
     7
100
AcDbLine
 10
207.9399239055
 20
145.8453545025
 30
0.0
 11
207.8427684568
 21
145.7512038614
 31
0.0
  0
LINE
  5
319
330
1F
100
AcDbEntity
  8
0
  6
SLD-Durchgehend
 62
     7
100
AcDbLine
 10
207.8427684568
 20
145.7512038614
 30
0.0
 11
207.7386017901
 21
145.6680708486
 31
0.0
  0
LINE
  5
31A
330
1F
100
AcDbEntity
  8
0
  6
SLD-Durchgehend
 62
     7
100
AcDbLine
 10
207.7386017901
 20
145.6680708486
 30
0.0
 11
207.628425508
 21
145.5949538614
 31
0.0
  0
LINE
  5
31B
330
1F
100
AcDbEntity
  8
0
  6
SLD-Durchgehend
 62
     7
100
AcDbLine
 10
207.628425508
 20
145.5949538614
 30
0.0
 11
207.5122396106
 21
145.533856105
 31
0.0
  0
LINE
  5
31C
330
1F
100
AcDbEntity
  8
0
  6
SLD-Durchgehend
 62
     7
100
AcDbLine
 10
207.5122396106
 20
145.533856105
 30
0.0
 11
207.3910457003
 21
145.4837759768
 31
0.0
  0
LINE
  5
31D
330
1F
100
AcDbEntity
  8
0
  6
SLD-Durchgehend
 62
     7
100
AcDbLine
 10
207.3910457003
 20
145.4837759768
 30
0.0
 11
207.2638421747
 21
145.4447134768
 31
0.0
  0
LINE
  5
31E
330
1F
100
AcDbEntity
  8
0
  6
SLD-Durchgehend
 62
     7
100
AcDbLine
 10
207.2638421747
 20
145.4447134768
 30
0.0
 11
207.1306290337
 21
145.416668605
 31
0.0
  0
LINE
  5
31F
330
1F
100
AcDbEntity
  8
0
  6
SLD-Durchgehend
 62
     7
100
AcDbLine
 10
207.1306290337
 20
145.416668605
 30
0.0
 11
206.9914062773
 21
145.400642964
 31
0.0
  0
LINE
  5
320
330
1F
100
AcDbEntity
  8
0
  6
SLD-Durchgehend
 62
     7
100
AcDbLine
 10
206.9914062773
 20
145.400642964
 30
0.0
 11
206.847175508
 21
145.3946333486
 31
0.0
  0
LINE
  5
321
330
1F
100
AcDbEntity
  8
0
  6
SLD-Durchgehend
 62
     7
100
AcDbLine
 10
206.847175508
 20
145.3946333486
 30
0.0
 11
206.6668870465
 21
145.4026461691
 31
0.0
  0
LINE
  5
322
330
1F
100
AcDbEntity
  8
0
  6
SLD-Durchgehend
 62
     7
100
AcDbLine
 10
206.6668870465
 20
145.4026461691
 30
0.0
 11
206.4946114055
 21
145.4246814255
 31
0.0
  0
LINE
  5
323
330
1F
100
AcDbEntity
  8
0
  6
SLD-Durchgehend
 62
     7
100
AcDbLine
 10
206.4946114055
 20
145.4246814255
 30
0.0
 11
206.3323517901
 21
145.462742323
 31
0.0
  0
LINE
  5
324
330
1F
100
AcDbEntity
  8
0
  6
SLD-Durchgehend
 62
     7
100
AcDbLine
 10
206.3323517901
 20
145.462742323
 30
0.0
 11
206.1791065978
 21
145.5158272589
 31
0.0
  0
LINE
  5
325
330
1F
100
AcDbEntity
  8
0
  6
SLD-Durchgehend
 62
     7
100
AcDbLine
 10
206.1791065978
 20
145.5158272589
 30
0.0
 11
206.0348758285
 21
145.5839362332
 31
0.0
  0
LINE
  5
326
330
1F
100
AcDbEntity
  8
0
  6
SLD-Durchgehend
 62
     7
100
AcDbLine
 10
206.0348758285
 20
145.5839362332
 30
0.0
 11
205.8996594824
 21
145.6680708486
 31
0.0
  0
LINE
  5
327
330
1F
100
AcDbEntity
  8
0
  6
SLD-Durchgehend
 62
     7
100
AcDbLine
 10
205.8996594824
 20
145.6680708486
 30
0.0
 11
205.7734575593
 21
145.7662278999
 31
0.0
  0
LINE
  5
328
330
1F
100
AcDbEntity
  8
0
  6
SLD-Durchgehend
 62
     7
100
AcDbLine
 10
205.7734575593
 20
145.7662278999
 30
0.0
 11
205.6562700593
 21
145.8804105922
 31
0.0
  0
LINE
  5
329
330
1F
100
AcDbEntity
  8
0
  6
SLD-Durchgehend
 62
     7
100
AcDbLine
 10
205.6562700593
 20
145.8804105922
 30
0.0
 11
205.5511017901
 21
146.0086157204
 31
0.0
  0
LINE
  5
32A
330
1F
100
AcDbEntity
  8
0
  6
SLD-Durchgehend
 62
     7
100
AcDbLine
 10
205.5511017901
 20
146.0086157204
 30
0.0
 11
205.4599559568
 21
146.149841682
 31
0.0
  0
LINE
  5
32B
330
1F
100
AcDbEntity
  8
0
  6
SLD-Durchgehend
 62
     7
100
AcDbLine
 10
205.4599559568
 20
146.149841682
 30
0.0
 11
205.3818309568
 21
146.3040884768
 31
0.0
  0
LINE
  5
32C
330
1F
100
AcDbEntity
  8
0
  6
SLD-Durchgehend
 62
     7
100
AcDbLine
 10
205.3818309568
 20
146.3040884768
 30
0.0
 11
205.3187299952
 21
146.471356105
 31
0.0
  0
LINE
  5
32D
330
1F
100
AcDbEntity
  8
0
  6
SLD-Durchgehend
 62
     7
100
AcDbLine
 10
205.3187299952
 20
146.471356105
 30
0.0
 11
205.2696514696
 21
146.6516445666
 31
0.0
  0
LINE
  5
32E
330
1F
100
AcDbEntity
  8
0
  6
SLD-Durchgehend
 62
     7
100
AcDbLine
 10
205.2696514696
 20
146.6516445666
 30
0.0
 11
205.2345953798
 21
146.8449538614
 31
0.0
  0
LINE
  5
32F
330
1F
100
AcDbEntity
  8
0
  6
SLD-Durchgehend
 62
     7
100
AcDbLine
 10
205.2345953798
 20
146.8449538614
 30
0.0
 11
205.213561726
 21
147.0522855922
 31
0.0
  0
LINE
  5
330
330
1F
100
AcDbEntity
  8
0
  6
SLD-Durchgehend
 62
     7
100
AcDbLine
 10
205.213561726
 20
147.0522855922
 30
0.0
 11
205.206550508
 21
147.2716365537
 31
0.0
  0
LINE
  5
331
330
1F
100
AcDbEntity
  8
0
  6
SLD-Durchgehend
 62
     7
100
AcDbLine
 10
205.206550508
 20
147.2716365537
 30
0.0
 11
205.2095553157
 21
147.415867323
 31
0.0
  0
LINE
  5
332
330
1F
100
AcDbEntity
  8
0
  6
SLD-Durchgehend
 62
     7
100
AcDbLine
 10
205.2095553157
 20
147.415867323
 30
0.0
 11
205.2185697388
 21
147.556091682
 31
0.0
  0
LINE
  5
333
330
1F
100
AcDbEntity
  8
0
  6
SLD-Durchgehend
 62
     7
100
AcDbLine
 10
205.2185697388
 20
147.556091682
 30
0.0
 11
205.2335937773
 21
147.6913080281
 31
0.0
  0
LINE
  5
334
330
1F
100
AcDbEntity
  8
0
  6
SLD-Durchgehend
 62
     7
100
AcDbLine
 10
205.2335937773
 20
147.6913080281
 30
0.0
 11
205.2546274311
 21
147.8215163614
 31
0.0
  0
LINE
  5
335
330
1F
100
AcDbEntity
  8
0
  6
SLD-Durchgehend
 62
     7
100
AcDbLine
 10
205.2546274311
 20
147.8215163614
 30
0.0
 11
205.2816707003
 21
147.9477182845
 31
0.0
  0
LINE
  5
336
330
1F
100
AcDbEntity
  8
0
  6
SLD-Durchgehend
 62
     7
100
AcDbLine
 10
205.2816707003
 20
147.9477182845
 30
0.0
 11
205.3157251875
 21
148.0689121948
 31
0.0
  0
LINE
  5
337
330
1F
100
AcDbEntity
  8
0
  6
SLD-Durchgehend
 62
     7
100
AcDbLine
 10
205.3157251875
 20
148.0689121948
 30
0.0
 11
205.3547876875
 21
148.1850980922
 31
0.0
  0
LINE
  5
338
330
1F
100
AcDbEntity
  8
0
  6
SLD-Durchgehend
 62
     7
100
AcDbLine
 10
205.3547876875
 20
148.1850980922
 30
0.0
 11
205.3998598029
 21
148.2972775794
 31
0.0
  0
LINE
  5
339
330
1F
100
AcDbEntity
  8
0
  6
SLD-Durchgehend
 62
     7
100
AcDbLine
 10
205.3998598029
 20
148.2972775794
 30
0.0
 11
205.4509415337
 21
148.4034474512
 31
0.0
  0
LINE
  5
33A
330
1F
100
AcDbEntity
  8
0
  6
SLD-Durchgehend
 62
     7
100
AcDbLine
 10
205.4509415337
 20
148.4034474512
 30
0.0
 11
205.5090344824
 21
148.5036077076
 31
0.0
  0
LINE
  5
33B
330
1F
100
AcDbEntity
  8
0
  6
SLD-Durchgehend
 62
     7
100
AcDbLine
 10
205.5090344824
 20
148.5036077076
 30
0.0
 11
205.5731370465
 21
148.5957551435
 31
0.0
  0
LINE
  5
33C
330
1F
100
AcDbEntity
  8
0
  6
SLD-Durchgehend
 62
     7
100
AcDbLine
 10
205.5731370465
 20
148.5957551435
 30
0.0
 11
205.643249226
 21
148.681892964
 31
0.0
  0
LINE
  5
33D
330
1F
100
AcDbEntity
  8
0
  6
SLD-Durchgehend
 62
     7
100
AcDbLine
 10
205.643249226
 20
148.681892964
 30
0.0
 11
205.7203726234
 21
148.7610195666
 31
0.0
  0
LINE
  5
33E
330
1F
100
AcDbEntity
  8
0
  6
SLD-Durchgehend
 62
     7
100
AcDbLine
 10
205.7203726234
 20
148.7610195666
 30
0.0
 11
205.8035056362
 21
148.8331349512
 31
0.0
  0
LINE
  5
33F
330
1F
100
AcDbEntity
  8
0
  6
SLD-Durchgehend
 62
     7
100
AcDbLine
 10
205.8035056362
 20
148.8331349512
 30
0.0
 11
205.8926482644
 21
148.8982391179
 31
0.0
  0
LINE
  5
340
330
1F
100
AcDbEntity
  8
0
  6
SLD-Durchgehend
 62
     7
100
AcDbLine
 10
205.8926482644
 20
148.8982391179
 30
0.0
 11
205.987800508
 21
148.9563320666
 31
0.0
  0
LINE
  5
341
330
1F
100
AcDbEntity
  8
0
  6
SLD-Durchgehend
 62
     7
100
AcDbLine
 10
205.987800508
 20
148.9563320666
 30
0.0
 11
206.1891226234
 21
149.0524859127
 31
0.0
  0
LINE
  5
342
330
1F
100
AcDbEntity
  8
0
  6
SLD-Durchgehend
 62
     7
100
AcDbLine
 10
206.1891226234
 20
149.0524859127
 30
0.0
 11
206.3994591619
 21
149.1215964896
 31
0.0
  0
LINE
  5
343
330
1F
100
AcDbEntity
  8
0
  6
SLD-Durchgehend
 62
     7
100
AcDbLine
 10
206.3994591619
 20
149.1215964896
 30
0.0
 11
206.6188101234
 21
149.1626621948
 31
0.0
  0
LINE
  5
344
330
1F
100
AcDbEntity
  8
0
  6
SLD-Durchgehend
 62
     7
100
AcDbLine
 10
206.6188101234
 20
149.1626621948
 30
0.0
 11
206.8461739055
 21
149.1766846307
 31
0.0
  0
LINE
  5
345
330
1F
100
AcDbEntity
  8
0
  6
SLD-Durchgehend
 62
     7
100
AcDbLine
 10
206.8461739055
 20
149.1766846307
 30
0.0
 11
206.9894030721
 21
149.1716766179
 31
0.0
  0
LINE
  5
346
330
1F
100
AcDbEntity
  8
0
  6
SLD-Durchgehend
 62
     7
100
AcDbLine
 10
206.9894030721
 20
149.1716766179
 30
0.0
 11
207.1266226234
 21
149.157654182
 31
0.0
  0
LINE
  5
347
330
1F
100
AcDbEntity
  8
0
  6
SLD-Durchgehend
 62
     7
100
AcDbLine
 10
207.1266226234
 20
149.157654182
 30
0.0
 11
207.2558293542
 21
149.134617323
 31
0.0
  0
LINE
  5
348
330
1F
100
AcDbEntity
  8
0
  6
SLD-Durchgehend
 62
     7
100
AcDbLine
 10
207.2558293542
 20
149.134617323
 30
0.0
 11
207.3800280721
 21
149.1015644384
 31
0.0
  0
LINE
  5
349
330
1F
100
AcDbEntity
  8
0
  6
SLD-Durchgehend
 62
     7
100
AcDbLine
 10
207.3800280721
 20
149.1015644384
 30
0.0
 11
207.4962139696
 21
149.0594971307
 31
0.0
  0
LINE
  5
34A
330
1F
100
AcDbEntity
  8
0
  6
SLD-Durchgehend
 62
     7
100
AcDbLine
 10
207.4962139696
 20
149.0594971307
 30
0.0
 11
207.6063902516
 21
149.0074137973
 31
0.0
  0
LINE
  5
34B
330
1F
100
AcDbEntity
  8
0
  6
SLD-Durchgehend
 62
     7
100
AcDbLine
 10
207.6063902516
 20
149.0074137973
 30
0.0
 11
207.7095553157
 21
148.9463160409
 31
0.0
  0
LINE
  5
34C
330
1F
100
AcDbEntity
  8
0
  6
SLD-Durchgehend
 62
     7
100
AcDbLine
 10
207.7095553157
 20
148.9463160409
 30
0.0
 11
207.8057091619
 21
148.8762038614
 31
0.0
  0
LINE
  5
34D
330
1F
100
AcDbEntity
  8
0
  6
SLD-Durchgehend
 62
     7
100
AcDbLine
 10
207.8057091619
 20
148.8762038614
 30
0.0
 11
207.8948517901
 21
148.7970772589
 31
0.0
  0
LINE
  5
34E
330
1F
100
AcDbEntity
  8
0
  6
SLD-Durchgehend
 62
     7
100
AcDbLine
 10
207.8948517901
 20
148.7970772589
 30
0.0
 11
207.9749799952
 21
148.7099378358
 31
0.0
  0
LINE
  5
34F
330
1F
100
AcDbEntity
  8
0
  6
SLD-Durchgehend
 62
     7
100
AcDbLine
 10
207.9749799952
 20
148.7099378358
 30
0.0
 11
208.0470953798
 21
148.6157871948
 31
0.0
  0
LINE
  5
350
330
1F
100
AcDbEntity
  8
0
  6
SLD-Durchgehend
 62
     7
100
AcDbLine
 10
208.0470953798
 20
148.6157871948
 30
0.0
 11
208.1111979439
 21
148.5126221307
 31
0.0
  0
LINE
  5
351
330
1F
100
AcDbEntity
  8
0
  6
SLD-Durchgehend
 62
     7
100
AcDbLine
 10
208.1111979439
 20
148.5126221307
 30
0.0
 11
208.1672876875
 21
148.4024458486
 31
0.0
  0
LINE
  5
352
330
1F
100
AcDbEntity
  8
0
  6
SLD-Durchgehend
 62
     7
100
AcDbLine
 10
208.1672876875
 20
148.4024458486
 30
0.0
 11
208.214363008
 21
148.2832551435
 31
0.0
  0
LINE
  5
353
330
1F
100
AcDbEntity
  8
0
  6
SLD-Durchgehend
 62
     7
100
AcDbLine
 10
208.214363008
 20
148.2832551435
 30
0.0
 11
208.253425508
 21
148.1570532204
 31
0.0
  0
LINE
  5
354
330
1F
100
AcDbEntity
  8
0
  6
SLD-Durchgehend
 62
     7
100
AcDbLine
 10
208.253425508
 20
148.1570532204
 30
0.0
 11
208.283473585
 21
148.0228384768
 31
0.0
  0
LINE
  5
355
330
1F
100
AcDbEntity
  8
0
  6
SLD-Durchgehend
 62
     7
100
AcDbLine
 10
208.283473585
 20
148.0228384768
 30
0.0
 11
207.6424479439
 21
147.9587359127
 31
0.0
  0
LINE
  5
356
330
1F
100
AcDbEntity
  8
0
  6
SLD-Durchgehend
 62
     7
100
AcDbLine
 10
207.6424479439
 20
147.9587359127
 30
0.0
 11
207.5933694183
 21
148.1089762973
 31
0.0
  0
LINE
  5
357
330
1F
100
AcDbEntity
  8
0
  6
SLD-Durchgehend
 62
     7
100
AcDbLine
 10
207.5933694183
 20
148.1089762973
 30
0.0
 11
207.5292668542
 21
148.2381830281
 31
0.0
  0
LINE
  5
358
330
1F
100
AcDbEntity
  8
0
  6
SLD-Durchgehend
 62
     7
100
AcDbLine
 10
207.5292668542
 20
148.2381830281
 30
0.0
 11
207.4481370465
 21
148.3483593102
 31
0.0
  0
LINE
  5
359
330
1F
100
AcDbEntity
  8
0
  6
SLD-Durchgehend
 62
     7
100
AcDbLine
 10
207.4481370465
 20
148.3483593102
 30
0.0
 11
207.3519832003
 21
148.4385035409
 31
0.0
  0
LINE
  5
35A
330
1F
100
AcDbEntity
  8
0
  6
SLD-Durchgehend
 62
     7
100
AcDbLine
 10
207.3519832003
 20
148.4385035409
 30
0.0
 11
207.2428085209
 21
148.5086157204
 31
0.0
  0
LINE
  5
35B
330
1F
100
AcDbEntity
  8
0
  6
SLD-Durchgehend
 62
     7
100
AcDbLine
 10
207.2428085209
 20
148.5086157204
 30
0.0
 11
207.1226162132
 21
148.5596974512
 31
0.0
  0
LINE
  5
35C
330
1F
100
AcDbEntity
  8
0
  6
SLD-Durchgehend
 62
     7
100
AcDbLine
 10
207.1226162132
 20
148.5596974512
 30
0.0
 11
206.9924078798
 21
148.5897455281
 31
0.0
  0
LINE
  5
35D
330
1F
100
AcDbEntity
  8
0
  6
SLD-Durchgehend
 62
     7
100
AcDbLine
 10
206.9924078798
 20
148.5897455281
 30
0.0
 11
206.8501803157
 21
148.5997615537
 31
0.0
  0
LINE
  5
35E
330
1F
100
AcDbEntity
  8
0
  6
SLD-Durchgehend
 62
     7
100
AcDbLine
 10
206.8501803157
 20
148.5997615537
 30
0.0
 11
206.7410056362
 21
148.5947535409
 31
0.0
  0
LINE
  5
35F
330
1F
100
AcDbEntity
  8
0
  6
SLD-Durchgehend
 62
     7
100
AcDbLine
 10
206.7410056362
 20
148.5947535409
 30
0.0
 11
206.6378405721
 21
148.5797295025
 31
0.0
  0
LINE
  5
360
330
1F
100
AcDbEntity
  8
0
  6
SLD-Durchgehend
 62
     7
100
AcDbLine
 10
206.6378405721
 20
148.5797295025
 30
0.0
 11
206.5396835209
 21
148.5556910409
 31
0.0
  0
LINE
  5
361
330
1F
100
AcDbEntity
  8
0
  6
SLD-Durchgehend
 62
     7
100
AcDbLine
 10
206.5396835209
 20
148.5556910409
 30
0.0
 11
206.4465344824
 21
148.5206349512
 31
0.0
  0
LINE
  5
362
330
1F
100
AcDbEntity
  8
0
  6
SLD-Durchgehend
 62
     7
100
AcDbLine
 10
206.4465344824
 20
148.5206349512
 30
0.0
 11
206.3583934568
 21
148.4765644384
 31
0.0
  0
LINE
  5
363
330
1F
100
AcDbEntity
  8
0
  6
SLD-Durchgehend
 62
     7
100
AcDbLine
 10
206.3583934568
 20
148.4765644384
 30
0.0
 11
206.2752604439
 21
148.4224778999
 31
0.0
  0
LINE
  5
364
330
1F
100
AcDbEntity
  8
0
  6
SLD-Durchgehend
 62
     7
100
AcDbLine
 10
206.2752604439
 20
148.4224778999
 30
0.0
 11
206.1981370465
 21
148.3583753358
 31
0.0
  0
LINE
  5
365
330
1F
100
AcDbEntity
  8
0
  6
SLD-Durchgehend
 62
     7
100
AcDbLine
 10
206.1981370465
 20
148.3583753358
 30
0.0
 11
206.1260216619
 21
148.2842567461
 31
0.0
  0
LINE
  5
366
330
1F
100
AcDbEntity
  8
0
  6
SLD-Durchgehend
 62
     7
100
AcDbLine
 10
206.1260216619
 20
148.2842567461
 30
0.0
 11
206.0609174952
 21
148.2001221307
 31
0.0
  0
LINE
  5
367
330
1F
100
AcDbEntity
  8
0
  6
SLD-Durchgehend
 62
     7
100
AcDbLine
 10
206.0609174952
 20
148.2001221307
 30
0.0
 11
206.0038261491
 21
148.1039682845
 31
0.0
  0
LINE
  5
368
330
1F
100
AcDbEntity
  8
0
  6
SLD-Durchgehend
 62
     7
100
AcDbLine
 10
206.0038261491
 20
148.1039682845
 30
0.0
 11
205.9567508285
 21
147.9967968102
 31
0.0
  0
LINE
  5
369
330
1F
100
AcDbEntity
  8
0
  6
SLD-Durchgehend
 62
     7
100
AcDbLine
 10
205.9567508285
 20
147.9967968102
 30
0.0
 11
205.9176883285
 21
147.8786077076
 31
0.0
  0
LINE
  5
36A
330
1F
100
AcDbEntity
  8
0
  6
SLD-Durchgehend
 62
     7
100
AcDbLine
 10
205.9176883285
 20
147.8786077076
 30
0.0
 11
205.8866386491
 21
147.7483993743
 31
0.0
  0
LINE
  5
36B
330
1F
100
AcDbEntity
  8
0
  6
SLD-Durchgehend
 62
     7
100
AcDbLine
 10
205.8866386491
 20
147.7483993743
 30
0.0
 11
205.8646033926
 21
147.6061718102
 31
0.0
  0
LINE
  5
36C
330
1F
100
AcDbEntity
  8
0
  6
SLD-Durchgehend
 62
     7
100
AcDbLine
 10
205.8646033926
 20
147.6061718102
 30
0.0
 11
205.8515825593
 21
147.4529266179
 31
0.0
  0
LINE
  5
36D
330
1F
100
AcDbEntity
  8
0
  6
SLD-Durchgehend
 62
     7
100
AcDbLine
 10
205.8515825593
 20
147.4529266179
 30
0.0
 11
205.8475761491
 21
147.2886637973
 31
0.0
  0
LINE
  5
36E
330
1F
100
AcDbEntity
  8
0
  6
SLD-Durchgehend
 62
     7
100
AcDbLine
 10
205.8475761491
 20
147.2886637973
 30
0.0
 11
205.8515825593
 21
147.1213961691
 31
0.0
  0
LINE
  5
36F
330
1F
100
AcDbEntity
  8
0
  6
SLD-Durchgehend
 62
     7
100
AcDbLine
 10
205.8515825593
 20
147.1213961691
 30
0.0
 11
205.8646033926
 21
146.9671493743
 31
0.0
  0
LINE
  5
370
330
1F
100
AcDbEntity
  8
0
  6
SLD-Durchgehend
 62
     7
100
AcDbLine
 10
205.8646033926
 20
146.9671493743
 30
0.0
 11
205.8856370465
 21
146.8239202076
 31
0.0
  0
LINE
  5
371
330
1F
100
AcDbEntity
  8
0
  6
SLD-Durchgehend
 62
     7
100
AcDbLine
 10
205.8856370465
 20
146.8239202076
 30
0.0
 11
205.9156851234
 21
146.6917086691
 31
0.0
  0
LINE
  5
372
330
1F
100
AcDbEntity
  8
0
  6
SLD-Durchgehend
 62
     7
100
AcDbLine
 10
205.9156851234
 20
146.6917086691
 30
0.0
 11
205.9527444183
 21
146.572517964
 31
0.0
  0
LINE
  5
373
330
1F
100
AcDbEntity
  8
0
  6
SLD-Durchgehend
 62
     7
100
AcDbLine
 10
205.9527444183
 20
146.572517964
 30
0.0
 11
205.9998197388
 21
146.4643448871
 31
0.0
  0
LINE
  5
374
330
1F
100
AcDbEntity
  8
0
  6
SLD-Durchgehend
 62
     7
100
AcDbLine
 10
205.9998197388
 20
146.4643448871
 30
0.0
 11
206.0549078798
 21
146.3681910409
 31
0.0
  0
LINE
  5
375
330
1F
100
AcDbEntity
  8
0
  6
SLD-Durchgehend
 62
     7
100
AcDbLine
 10
206.0549078798
 20
146.3681910409
 30
0.0
 11
206.1180088414
 21
146.2840564255
 31
0.0
  0
LINE
  5
376
330
1F
100
AcDbEntity
  8
0
  6
SLD-Durchgehend
 62
     7
100
AcDbLine
 10
206.1180088414
 20
146.2840564255
 30
0.0
 11
206.1881210209
 21
146.2109394384
 31
0.0
  0
LINE
  5
377
330
1F
100
AcDbEntity
  8
0
  6
SLD-Durchgehend
 62
     7
100
AcDbLine
 10
206.1881210209
 20
146.2109394384
 30
0.0
 11
206.2642428157
 21
146.1478384768
 31
0.0
  0
LINE
  5
378
330
1F
100
AcDbEntity
  8
0
  6
SLD-Durchgehend
 62
     7
100
AcDbLine
 10
206.2642428157
 20
146.1478384768
 30
0.0
 11
206.3443710209
 21
146.0937519384
 31
0.0
  0
LINE
  5
379
330
1F
100
AcDbEntity
  8
0
  6
SLD-Durchgehend
 62
     7
100
AcDbLine
 10
206.3443710209
 20
146.0937519384
 30
0.0
 11
206.4305088414
 21
146.0496814255
 31
0.0
  0
LINE
  5
37A
330
1F
100
AcDbEntity
  8
0
  6
SLD-Durchgehend
 62
     7
100
AcDbLine
 10
206.4305088414
 20
146.0496814255
 30
0.0
 11
206.5216546747
 21
146.0156269384
 31
0.0
  0
LINE
  5
37B
330
1F
100
AcDbEntity
  8
0
  6
SLD-Durchgehend
 62
     7
100
AcDbLine
 10
206.5216546747
 20
146.0156269384
 30
0.0
 11
206.6178085209
 21
145.9915884768
 31
0.0
  0
LINE
  5
37C
330
1F
100
AcDbEntity
  8
0
  6
SLD-Durchgehend
 62
     7
100
AcDbLine
 10
206.6178085209
 20
145.9915884768
 30
0.0
 11
206.7189703798
 21
145.9765644384
 31
0.0
  0
LINE
  5
37D
330
1F
100
AcDbEntity
  8
0
  6
SLD-Durchgehend
 62
     7
100
AcDbLine
 10
206.7189703798
 20
145.9765644384
 30
0.0
 11
206.8251402516
 21
145.9715564255
 31
0.0
  0
LINE
  5
37E
330
1F
100
AcDbEntity
  8
0
  6
SLD-Durchgehend
 62
     7
100
AcDbLine
 10
206.8251402516
 20
145.9715564255
 30
0.0
 11
206.9102764696
 21
145.9745612332
 31
0.0
  0
LINE
  5
37F
330
1F
100
AcDbEntity
  8
0
  6
SLD-Durchgehend
 62
     7
100
AcDbLine
 10
206.9102764696
 20
145.9745612332
 30
0.0
 11
206.9924078798
 21
145.9845772589
 31
0.0
  0
LINE
  5
380
330
1F
100
AcDbEntity
  8
0
  6
SLD-Durchgehend
 62
     7
100
AcDbLine
 10
206.9924078798
 20
145.9845772589
 30
0.0
 11
207.0715344824
 21
146.0006028999
 31
0.0
  0
LINE
  5
381
330
1F
100
AcDbEntity
  8
0
  6
SLD-Durchgehend
 62
     7
100
AcDbLine
 10
207.0715344824
 20
146.0006028999
 30
0.0
 11
207.1456530721
 21
146.0226381563
 31
0.0
  0
LINE
  5
382
330
1F
100
AcDbEntity
  8
0
  6
SLD-Durchgehend
 62
     7
100
AcDbLine
 10
207.1456530721
 20
146.0226381563
 30
0.0
 11
207.2167668542
 21
146.0516846307
 31
0.0
  0
LINE
  5
383
330
1F
100
AcDbEntity
  8
0
  6
SLD-Durchgehend
 62
     7
100
AcDbLine
 10
207.2167668542
 20
146.0516846307
 30
0.0
 11
207.2848758285
 21
146.0867407204
 31
0.0
  0
LINE
  5
384
330
1F
100
AcDbEntity
  8
0
  6
SLD-Durchgehend
 62
     7
100
AcDbLine
 10
207.2848758285
 20
146.0867407204
 30
0.0
 11
207.3489783926
 21
146.1278064255
 31
0.0
  0
LINE
  5
385
330
1F
100
AcDbEntity
  8
0
  6
SLD-Durchgehend
 62
     7
100
AcDbLine
 10
207.3489783926
 20
146.1278064255
 30
0.0
 11
207.4090745465
 21
146.1758833486
 31
0.0
  0
LINE
  5
386
330
1F
100
AcDbEntity
  8
0
  6
SLD-Durchgehend
 62
     7
100
AcDbLine
 10
207.4090745465
 20
146.1758833486
 30
0.0
 11
207.4651642901
 21
146.2299698871
 31
0.0
  0
LINE
  5
387
330
1F
100
AcDbEntity
  8
0
  6
SLD-Durchgehend
 62
     7
100
AcDbLine
 10
207.4651642901
 20
146.2299698871
 30
0.0
 11
207.5152444183
 21
146.2920692461
 31
0.0
  0
LINE
  5
388
330
1F
100
AcDbEntity
  8
0
  6
SLD-Durchgehend
 62
     7
100
AcDbLine
 10
207.5152444183
 20
146.2920692461
 30
0.0
 11
207.5603165337
 21
146.3601782204
 31
0.0
  0
LINE
  5
389
330
1F
100
AcDbEntity
  8
0
  6
SLD-Durchgehend
 62
     7
100
AcDbLine
 10
207.5603165337
 20
146.3601782204
 30
0.0
 11
207.6003806362
 21
146.4352984127
 31
0.0
  0
LINE
  5
38A
330
1F
100
AcDbEntity
  8
0
  6
SLD-Durchgehend
 62
     7
100
AcDbLine
 10
207.6003806362
 20
146.4352984127
 30
0.0
 11
207.635436726
 21
146.517429823
 31
0.0
  0
LINE
  5
38B
330
1F
100
AcDbEntity
  8
0
  6
SLD-Durchgehend
 62
     7
100
AcDbLine
 10
207.635436726
 20
146.517429823
 30
0.0
 11
207.6644832003
 21
146.6065724512
 31
0.0
  0
LINE
  5
38C
330
1F
100
AcDbEntity
  8
0
  6
SLD-Durchgehend
 62
     7
100
AcDbLine
 10
207.6644832003
 20
146.6065724512
 30
0.0
 11
207.6885216619
 21
146.7017246948
 31
0.0
  0
LINE
  5
38D
330
1F
100
AcDbEntity
  8
0
  6
SLD-Durchgehend
 62
     7
100
AcDbLine
 10
207.6885216619
 20
146.7017246948
 30
0.0
 11
207.7065487625
 21
146.8048897589
 31
0.0
  0
LINE
  5
38E
330
1F
100
AcDbEntity
  8
0
  6
SLD-Durchgehend
 62
     7
100
AcDbLine
 10
208.8603963377
 20
145.4587359127
 30
0.0
 11
208.8603966619
 21
150.4587359127
 31
0.0
  0
LINE
  5
38F
330
1F
100
AcDbEntity
  8
0
  6
SLD-Durchgehend
 62
     7
100
AcDbLine
 10
208.8603966619
 20
150.4587359127
 30
0.0
 11
209.5014223029
 21
150.4587359127
 31
0.0
  0
LINE
  5
390
330
1F
100
AcDbEntity
  8
0
  6
SLD-Durchgehend
 62
     7
100
AcDbLine
 10
209.5014223029
 20
150.4587359127
 30
0.0
 11
209.5014223029
 21
148.6328144384
 31
0.0
  0
LINE
  5
391
330
1F
100
AcDbEntity
  8
0
  6
SLD-Durchgehend
 62
     7
100
AcDbLine
 10
209.5014223029
 20
148.6328144384
 30
0.0
 11
209.6105969824
 21
148.760017964
 31
0.0
  0
LINE
  5
392
330
1F
100
AcDbEntity
  8
0
  6
SLD-Durchgehend
 62
     7
100
AcDbLine
 10
209.6105969824
 20
148.760017964
 30
0.0
 11
209.7277844824
 21
148.8711958486
 31
0.0
  0
LINE
  5
393
330
1F
100
AcDbEntity
  8
0
  6
SLD-Durchgehend
 62
     7
100
AcDbLine
 10
209.7277844824
 20
148.8711958486
 30
0.0
 11
209.8509815978
 21
148.9643448871
 31
0.0
  0
LINE
  5
394
330
1F
100
AcDbEntity
  8
0
  6
SLD-Durchgehend
 62
     7
100
AcDbLine
 10
209.8509815978
 20
148.9643448871
 30
0.0
 11
209.9821915337
 21
149.040466682
 31
0.0
  0
LINE
  5
395
330
1F
100
AcDbEntity
  8
0
  6
SLD-Durchgehend
 62
     7
100
AcDbLine
 10
209.9821915337
 20
149.040466682
 30
0.0
 11
210.119411085
 21
149.1005628358
 31
0.0
  0
LINE
  5
396
330
1F
100
AcDbEntity
  8
0
  6
SLD-Durchgehend
 62
     7
100
AcDbLine
 10
210.119411085
 20
149.1005628358
 30
0.0
 11
210.2636418542
 21
149.1426301435
 31
0.0
  0
LINE
  5
397
330
1F
100
AcDbEntity
  8
0
  6
SLD-Durchgehend
 62
     7
100
AcDbLine
 10
210.2636418542
 20
149.1426301435
 30
0.0
 11
210.4148838414
 21
149.1686718102
 31
0.0
  0
LINE
  5
398
330
1F
100
AcDbEntity
  8
0
  6
SLD-Durchgehend
 62
     7
100
AcDbLine
 10
210.4148838414
 20
149.1686718102
 30
0.0
 11
210.5731370465
 21
149.1766846307
 31
0.0
  0
LINE
  5
399
330
1F
100
AcDbEntity
  8
0
  6
SLD-Durchgehend
 62
     7
100
AcDbLine
 10
210.5731370465
 20
149.1766846307
 30
0.0
 11
210.7654447388
 21
149.166668605
 31
0.0
  0
LINE
  5
39A
330
1F
100
AcDbEntity
  8
0
  6
SLD-Durchgehend
 62
     7
100
AcDbLine
 10
210.7654447388
 20
149.166668605
 30
0.0
 11
210.9437299952
 21
149.1366205281
 31
0.0
  0
LINE
  5
39B
330
1F
100
AcDbEntity
  8
0
  6
SLD-Durchgehend
 62
     7
100
AcDbLine
 10
210.9437299952
 20
149.1366205281
 30
0.0
 11
211.1099960209
 21
149.0875420025
 31
0.0
  0
LINE
  5
39C
330
1F
100
AcDbEntity
  8
0
  6
SLD-Durchgehend
 62
     7
100
AcDbLine
 10
211.1099960209
 20
149.0875420025
 30
0.0
 11
211.2632412132
 21
149.017429823
 31
0.0
  0
LINE
  5
39D
330
1F
100
AcDbEntity
  8
0
  6
SLD-Durchgehend
 62
     7
100
AcDbLine
 10
211.2632412132
 20
149.017429823
 30
0.0
 11
211.3994591619
 21
148.9302903999
 31
0.0
  0
LINE
  5
39E
330
1F
100
AcDbEntity
  8
0
  6
SLD-Durchgehend
 62
     7
100
AcDbLine
 10
211.3994591619
 20
148.9302903999
 30
0.0
 11
211.5146434568
 21
148.8281269384
 31
0.0
  0
LINE
  5
39F
330
1F
100
AcDbEntity
  8
0
  6
SLD-Durchgehend
 62
     7
100
AcDbLine
 10
211.5146434568
 20
148.8281269384
 30
0.0
 11
211.6097957003
 21
148.7099378358
 31
0.0
  0
LINE
  5
3A0
330
1F
100
AcDbEntity
  8
0
  6
SLD-Durchgehend
 62
     7
100
AcDbLine
 10
211.6097957003
 20
148.7099378358
 30
0.0
 11
211.6829126875
 21
148.5777262973
 31
0.0
  0
LINE
  5
3A1
330
1F
100
AcDbEntity
  8
0
  6
SLD-Durchgehend
 62
     7
100
AcDbLine
 10
211.6829126875
 20
148.5777262973
 30
0.0
 11
211.7129607644
 21
148.5036077076
 31
0.0
  0
LINE
  5
3A2
330
1F
100
AcDbEntity
  8
0
  6
SLD-Durchgehend
 62
     7
100
AcDbLine
 10
211.7129607644
 20
148.5036077076
 30
0.0
 11
211.7380008285
 21
148.4214762973
 31
0.0
  0
LINE
  5
3A3
330
1F
100
AcDbEntity
  8
0
  6
SLD-Durchgehend
 62
     7
100
AcDbLine
 10
211.7380008285
 20
148.4214762973
 30
0.0
 11
211.760036085
 21
148.3313320666
 31
0.0
  0
LINE
  5
3A4
330
1F
100
AcDbEntity
  8
0
  6
SLD-Durchgehend
 62
     7
100
AcDbLine
 10
211.760036085
 20
148.3313320666
 30
0.0
 11
211.7780649311
 21
148.2341766179
 31
0.0
  0
LINE
  5
3A5
330
1F
100
AcDbEntity
  8
0
  6
SLD-Durchgehend
 62
     7
100
AcDbLine
 10
211.7780649311
 20
148.2341766179
 30
0.0
 11
211.7910857644
 21
148.1280067461
 31
0.0
  0
LINE
  5
3A6
330
1F
100
AcDbEntity
  8
0
  6
SLD-Durchgehend
 62
     7
100
AcDbLine
 10
211.7910857644
 20
148.1280067461
 30
0.0
 11
211.8011017901
 21
148.0138240537
 31
0.0
  0
LINE
  5
3A7
330
1F
100
AcDbEntity
  8
0
  6
SLD-Durchgehend
 62
     7
100
AcDbLine
 10
211.8011017901
 20
148.0138240537
 30
0.0
 11
211.8071114055
 21
147.8926301435
 31
0.0
  0
LINE
  5
3A8
330
1F
100
AcDbEntity
  8
0
  6
SLD-Durchgehend
 62
     7
100
AcDbLine
 10
211.8071114055
 20
147.8926301435
 30
0.0
 11
211.8091146106
 21
147.7624218102
 31
0.0
  0
LINE
  5
3A9
330
1F
100
AcDbEntity
  8
0
  6
SLD-Durchgehend
 62
     7
100
AcDbLine
 10
211.8091146106
 20
147.7624218102
 30
0.0
 11
211.8091146106
 21
145.4587359127
 31
0.0
  0
LINE
  5
3AA
330
1F
100
AcDbEntity
  8
0
  6
SLD-Durchgehend
 62
     7
100
AcDbLine
 10
211.8091146106
 20
145.4587359127
 30
0.0
 11
211.1680889696
 21
145.4587359127
 31
0.0
  0
LINE
  5
3AB
330
1F
100
AcDbEntity
  8
0
  6
SLD-Durchgehend
 62
     7
100
AcDbLine
 10
211.1680889696
 20
145.4587359127
 30
0.0
 11
211.1680889696
 21
147.7293689255
 31
0.0
  0
LINE
  5
3AC
330
1F
100
AcDbEntity
  8
0
  6
SLD-Durchgehend
 62
     7
100
AcDbLine
 10
211.1680889696
 20
147.7293689255
 30
0.0
 11
211.1650841619
 21
147.8395452076
 31
0.0
  0
LINE
  5
3AD
330
1F
100
AcDbEntity
  8
0
  6
SLD-Durchgehend
 62
     7
100
AcDbLine
 10
211.1650841619
 20
147.8395452076
 30
0.0
 11
211.1560697388
 21
147.9417086691
 31
0.0
  0
LINE
  5
3AE
330
1F
100
AcDbEntity
  8
0
  6
SLD-Durchgehend
 62
     7
100
AcDbLine
 10
211.1560697388
 20
147.9417086691
 30
0.0
 11
211.1410457003
 21
148.0358593102
 31
0.0
  0
LINE
  5
3AF
330
1F
100
AcDbEntity
  8
0
  6
SLD-Durchgehend
 62
     7
100
AcDbLine
 10
211.1410457003
 20
148.0358593102
 30
0.0
 11
211.1200120465
 21
148.1229987332
 31
0.0
  0
LINE
  5
3B0
330
1F
100
AcDbEntity
  8
0
  6
SLD-Durchgehend
 62
     7
100
AcDbLine
 10
211.1200120465
 20
148.1229987332
 30
0.0
 11
211.0929687773
 21
148.2021253358
 31
0.0
  0
LINE
  5
3B1
330
1F
100
AcDbEntity
  8
0
  6
SLD-Durchgehend
 62
     7
100
AcDbLine
 10
211.0929687773
 20
148.2021253358
 30
0.0
 11
211.0589142901
 21
148.2732391179
 31
0.0
  0
LINE
  5
3B2
330
1F
100
AcDbEntity
  8
0
  6
SLD-Durchgehend
 62
     7
100
AcDbLine
 10
211.0589142901
 20
148.2732391179
 30
0.0
 11
211.0198517901
 21
148.3363400794
 31
0.0
  0
LINE
  5
3B3
330
1F
100
AcDbEntity
  8
0
  6
SLD-Durchgehend
 62
     7
100
AcDbLine
 10
211.0198517901
 20
148.3363400794
 30
0.0
 11
210.9747796747
 21
148.392429823
 31
0.0
  0
LINE
  5
3B4
330
1F
100
AcDbEntity
  8
0
  6
SLD-Durchgehend
 62
     7
100
AcDbLine
 10
210.9747796747
 20
148.392429823
 30
0.0
 11
210.9236979439
 21
148.4415083486
 31
0.0
  0
LINE
  5
3B5
330
1F
100
AcDbEntity
  8
0
  6
SLD-Durchgehend
 62
     7
100
AcDbLine
 10
210.9236979439
 20
148.4415083486
 30
0.0
 11
210.8686098029
 21
148.4835756563
 31
0.0
  0
LINE
  5
3B6
330
1F
100
AcDbEntity
  8
0
  6
SLD-Durchgehend
 62
     7
100
AcDbLine
 10
210.8686098029
 20
148.4835756563
 30
0.0
 11
210.8075120465
 21
148.5186317461
 31
0.0
  0
LINE
  5
3B7
330
1F
100
AcDbEntity
  8
0
  6
SLD-Durchgehend
 62
     7
100
AcDbLine
 10
210.8075120465
 20
148.5186317461
 30
0.0
 11
210.7424078798
 21
148.5476782204
 31
0.0
  0
LINE
  5
3B8
330
1F
100
AcDbEntity
  8
0
  6
SLD-Durchgehend
 62
     7
100
AcDbLine
 10
210.7424078798
 20
148.5476782204
 30
0.0
 11
210.6712940978
 21
148.5707150794
 31
0.0
  0
LINE
  5
3B9
330
1F
100
AcDbEntity
  8
0
  6
SLD-Durchgehend
 62
     7
100
AcDbLine
 10
210.6712940978
 20
148.5707150794
 30
0.0
 11
210.5951723029
 21
148.5867407204
 31
0.0
  0
LINE
  5
3BA
330
1F
100
AcDbEntity
  8
0
  6
SLD-Durchgehend
 62
     7
100
AcDbLine
 10
210.5951723029
 20
148.5867407204
 30
0.0
 11
210.5150440978
 21
148.5967567461
 31
0.0
  0
LINE
  5
3BB
330
1F
100
AcDbEntity
  8
0
  6
SLD-Durchgehend
 62
     7
100
AcDbLine
 10
210.5150440978
 20
148.5967567461
 30
0.0
 11
210.4289062773
 21
148.5997615537
 31
0.0
  0
LINE
  5
3BC
330
1F
100
AcDbEntity
  8
0
  6
SLD-Durchgehend
 62
     7
100
AcDbLine
 10
210.4289062773
 20
148.5997615537
 30
0.0
 11
210.2986979439
 21
148.5907471307
 31
0.0
  0
LINE
  5
3BD
330
1F
100
AcDbEntity
  8
0
  6
SLD-Durchgehend
 62
     7
100
AcDbLine
 10
210.2986979439
 20
148.5907471307
 30
0.0
 11
210.1734976234
 21
148.564705464
 31
0.0
  0
LINE
  5
3BE
330
1F
100
AcDbEntity
  8
0
  6
SLD-Durchgehend
 62
     7
100
AcDbLine
 10
210.1734976234
 20
148.564705464
 30
0.0
 11
210.050300508
 21
148.5206349512
 31
0.0
  0
LINE
  5
3BF
330
1F
100
AcDbEntity
  8
0
  6
SLD-Durchgehend
 62
     7
100
AcDbLine
 10
210.050300508
 20
148.5206349512
 30
0.0
 11
209.9321114055
 21
148.4595371948
 31
0.0
  0
LINE
  5
3C0
330
1F
100
AcDbEntity
  8
0
  6
SLD-Durchgehend
 62
     7
100
AcDbLine
 10
209.9321114055
 20
148.4595371948
 30
0.0
 11
209.8239383285
 21
148.3834153999
 31
0.0
  0
LINE
  5
3C1
330
1F
100
AcDbEntity
  8
0
  6
SLD-Durchgehend
 62
     7
100
AcDbLine
 10
209.8239383285
 20
148.3834153999
 30
0.0
 11
209.7327924952
 21
148.2942727717
 31
0.0
  0
LINE
  5
3C2
330
1F
100
AcDbEntity
  8
0
  6
SLD-Durchgehend
 62
     7
100
AcDbLine
 10
209.7327924952
 20
148.2942727717
 30
0.0
 11
209.6586739055
 21
148.1931109127
 31
0.0
  0
LINE
  5
3C3
330
1F
100
AcDbEntity
  8
0
  6
SLD-Durchgehend
 62
     7
100
AcDbLine
 10
209.6586739055
 20
148.1931109127
 30
0.0
 11
209.6005809568
 21
148.079929823
 31
0.0
  0
LINE
  5
3C4
330
1F
100
AcDbEntity
  8
0
  6
SLD-Durchgehend
 62
     7
100
AcDbLine
 10
209.6005809568
 20
148.079929823
 30
0.0
 11
209.5575120465
 21
147.9487198871
 31
0.0
  0
LINE
  5
3C5
330
1F
100
AcDbEntity
  8
0
  6
SLD-Durchgehend
 62
     7
100
AcDbLine
 10
209.5575120465
 20
147.9487198871
 30
0.0
 11
209.526462367
 21
147.7954746948
 31
0.0
  0
LINE
  5
3C6
330
1F
100
AcDbEntity
  8
0
  6
SLD-Durchgehend
 62
     7
100
AcDbLine
 10
209.526462367
 20
147.7954746948
 30
0.0
 11
209.5074319183
 21
147.6181910409
 31
0.0
  0
LINE
  5
3C7
330
1F
100
AcDbEntity
  8
0
  6
SLD-Durchgehend
 62
     7
100
AcDbLine
 10
209.5074319183
 20
147.6181910409
 30
0.0
 11
209.5014223029
 21
147.4188721307
 31
0.0
  0
LINE
  5
3C8
330
1F
100
AcDbEntity
  8
0
  6
SLD-Durchgehend
 62
     7
100
AcDbLine
 10
209.5014223029
 20
147.4188721307
 30
0.0
 11
209.5014223029
 21
145.4587359127
 31
0.0
  0
LINE
  5
3C9
330
1F
100
AcDbEntity
  8
0
  6
SLD-Durchgehend
 62
     7
100
AcDbLine
 10
209.5014223029
 20
145.4587359127
 30
0.0
 11
208.8603963377
 21
145.4587359127
 31
0.0
  0
LINE
  5
3CA
330
1F
100
AcDbEntity
  8
0
  6
SLD-Durchgehend
 62
     7
100
AcDbLine
 10
215.0142421248
 20
145.4587359127
 30
0.0
 11
215.0142428157
 21
146.0556910409
 31
0.0
  0
LINE
  5
3CB
330
1F
100
AcDbEntity
  8
0
  6
SLD-Durchgehend
 62
     7
100
AcDbLine
 10
215.0142428157
 20
146.0556910409
 30
0.0
 11
214.9070713414
 21
145.9004426435
 31
0.0
  0
LINE
  5
3CC
330
1F
100
AcDbEntity
  8
0
  6
SLD-Durchgehend
 62
     7
100
AcDbLine
 10
214.9070713414
 20
145.9004426435
 30
0.0
 11
214.7918870465
 21
145.7662278999
 31
0.0
  0
LINE
  5
3CD
330
1F
100
AcDbEntity
  8
0
  6
SLD-Durchgehend
 62
     7
100
AcDbLine
 10
214.7918870465
 20
145.7662278999
 30
0.0
 11
214.666686726
 21
145.6530468102
 31
0.0
  0
LINE
  5
3CE
330
1F
100
AcDbEntity
  8
0
  6
SLD-Durchgehend
 62
     7
100
AcDbLine
 10
214.666686726
 20
145.6530468102
 30
0.0
 11
214.5324719824
 21
145.5598977717
 31
0.0
  0
LINE
  5
3CF
330
1F
100
AcDbEntity
  8
0
  6
SLD-Durchgehend
 62
     7
100
AcDbLine
 10
214.5324719824
 20
145.5598977717
 30
0.0
 11
214.3892428157
 21
145.4877823871
 31
0.0
  0
LINE
  5
3D0
330
1F
100
AcDbEntity
  8
0
  6
SLD-Durchgehend
 62
     7
100
AcDbLine
 10
214.3892428157
 20
145.4877823871
 30
0.0
 11
214.2359976234
 21
145.4356990537
 31
0.0
  0
LINE
  5
3D1
330
1F
100
AcDbEntity
  8
0
  6
SLD-Durchgehend
 62
     7
100
AcDbLine
 10
214.2359976234
 20
145.4356990537
 30
0.0
 11
214.0747396106
 21
145.4046493743
 31
0.0
  0
LINE
  5
3D2
330
1F
100
AcDbEntity
  8
0
  6
SLD-Durchgehend
 62
     7
100
AcDbLine
 10
214.0747396106
 20
145.4046493743
 30
0.0
 11
213.9034655721
 21
145.3946333486
 31
0.0
  0
LINE
  5
3D3
330
1F
100
AcDbEntity
  8
0
  6
SLD-Durchgehend
 62
     7
100
AcDbLine
 10
213.9034655721
 20
145.3946333486
 30
0.0
 11
213.7512219824
 21
145.4026461691
 31
0.0
  0
LINE
  5
3D4
330
1F
100
AcDbEntity
  8
0
  6
SLD-Durchgehend
 62
     7
100
AcDbLine
 10
213.7512219824
 20
145.4026461691
 30
0.0
 11
213.6039864055
 21
145.4256830281
 31
0.0
  0
LINE
  5
3D5
330
1F
100
AcDbEntity
  8
0
  6
SLD-Durchgehend
 62
     7
100
AcDbLine
 10
213.6039864055
 20
145.4256830281
 30
0.0
 11
213.4617588414
 21
145.4637439255
 31
0.0
  0
LINE
  5
3D6
330
1F
100
AcDbEntity
  8
0
  6
SLD-Durchgehend
 62
     7
100
AcDbLine
 10
213.4617588414
 20
145.4637439255
 30
0.0
 11
213.3245392901
 21
145.517830464
 31
0.0
  0
LINE
  5
3D7
330
1F
100
AcDbEntity
  8
0
  6
SLD-Durchgehend
 62
     7
100
AcDbLine
 10
213.3245392901
 20
145.517830464
 30
0.0
 11
213.1993389696
 21
145.5829346307
 31
0.0
  0
LINE
  5
3D8
330
1F
100
AcDbEntity
  8
0
  6
SLD-Durchgehend
 62
     7
100
AcDbLine
 10
213.1993389696
 20
145.5829346307
 30
0.0
 11
213.0911658926
 21
145.6570532204
 31
0.0
  0
LINE
  5
3D9
330
1F
100
AcDbEntity
  8
0
  6
SLD-Durchgehend
 62
     7
100
AcDbLine
 10
213.0911658926
 20
145.6570532204
 30
0.0
 11
213.0000200593
 21
145.7381830281
 31
0.0
  0
LINE
  5
3DA
330
1F
100
AcDbEntity
  8
0
  6
SLD-Durchgehend
 62
     7
100
AcDbLine
 10
213.0000200593
 20
145.7381830281
 30
0.0
 11
212.9259014696
 21
145.8273256563
 31
0.0
  0
LINE
  5
3DB
330
1F
100
AcDbEntity
  8
0
  6
SLD-Durchgehend
 62
     7
100
AcDbLine
 10
212.9259014696
 20
145.8273256563
 30
0.0
 11
212.8658053157
 21
145.9264843102
 31
0.0
  0
LINE
  5
3DC
330
1F
100
AcDbEntity
  8
0
  6
SLD-Durchgehend
 62
     7
100
AcDbLine
 10
212.8658053157
 20
145.9264843102
 30
0.0
 11
212.814723585
 21
146.0356589896
 31
0.0
  0
LINE
  5
3DD
330
1F
100
AcDbEntity
  8
0
  6
SLD-Durchgehend
 62
     7
100
AcDbLine
 10
212.814723585
 20
146.0356589896
 30
0.0
 11
212.7736578798
 21
146.1548496948
 31
0.0
  0
LINE
  5
3DE
330
1F
100
AcDbEntity
  8
0
  6
SLD-Durchgehend
 62
     7
100
AcDbLine
 10
212.7736578798
 20
146.1548496948
 30
0.0
 11
212.7426082003
 21
146.2850580281
 31
0.0
  0
LINE
  5
3DF
330
1F
100
AcDbEntity
  8
0
  6
SLD-Durchgehend
 62
     7
100
AcDbLine
 10
212.7426082003
 20
146.2850580281
 30
0.0
 11
212.7265825593
 21
146.3892246948
 31
0.0
  0
LINE
  5
3E0
330
1F
100
AcDbEntity
  8
0
  6
SLD-Durchgehend
 62
     7
100
AcDbLine
 10
212.7265825593
 20
146.3892246948
 30
0.0
 11
212.7155649311
 21
146.5194330281
 31
0.0
  0
LINE
  5
3E1
330
1F
100
AcDbEntity
  8
0
  6
SLD-Durchgehend
 62
     7
100
AcDbLine
 10
212.7155649311
 20
146.5194330281
 30
0.0
 11
212.7085537132
 21
146.6766846307
 31
0.0
  0
LINE
  5
3E2
330
1F
100
AcDbEntity
  8
0
  6
SLD-Durchgehend
 62
     7
100
AcDbLine
 10
212.7085537132
 20
146.6766846307
 30
0.0
 11
212.706550508
 21
146.8599778999
 31
0.0
  0
LINE
  5
3E3
330
1F
100
AcDbEntity
  8
0
  6
SLD-Durchgehend
 62
     7
100
AcDbLine
 10
212.706550508
 20
146.8599778999
 30
0.0
 11
212.706550508
 21
149.1125820666
 31
0.0
  0
LINE
  5
3E4
330
1F
100
AcDbEntity
  8
0
  6
SLD-Durchgehend
 62
     7
100
AcDbLine
 10
212.706550508
 20
149.1125820666
 30
0.0
 11
213.3475761491
 21
149.1125820666
 31
0.0
  0
LINE
  5
3E5
330
1F
100
AcDbEntity
  8
0
  6
SLD-Durchgehend
 62
     7
100
AcDbLine
 10
213.3475761491
 20
149.1125820666
 30
0.0
 11
213.3475761491
 21
147.1254025794
 31
0.0
  0
LINE
  5
3E6
330
1F
100
AcDbEntity
  8
0
  6
SLD-Durchgehend
 62
     7
100
AcDbLine
 10
213.3475761491
 20
147.1254025794
 30
0.0
 11
213.3485777516
 21
147.0112198871
 31
0.0
  0
LINE
  5
3E7
330
1F
100
AcDbEntity
  8
0
  6
SLD-Durchgehend
 62
     7
100
AcDbLine
 10
213.3485777516
 20
147.0112198871
 30
0.0
 11
213.3495793542
 21
146.9070532204
 31
0.0
  0
LINE
  5
3E8
330
1F
100
AcDbEntity
  8
0
  6
SLD-Durchgehend
 62
     7
100
AcDbLine
 10
213.3495793542
 20
146.9070532204
 30
0.0
 11
213.3525841619
 21
146.8119009768
 31
0.0
  0
LINE
  5
3E9
330
1F
100
AcDbEntity
  8
0
  6
SLD-Durchgehend
 62
     7
100
AcDbLine
 10
213.3525841619
 20
146.8119009768
 30
0.0
 11
213.3565905721
 21
146.7277663614
 31
0.0
  0
LINE
  5
3EA
330
1F
100
AcDbEntity
  8
0
  6
SLD-Durchgehend
 62
     7
100
AcDbLine
 10
213.3565905721
 20
146.7277663614
 30
0.0
 11
213.361598585
 21
146.6516445666
 31
0.0
  0
LINE
  5
3EB
330
1F
100
AcDbEntity
  8
0
  6
SLD-Durchgehend
 62
     7
100
AcDbLine
 10
213.361598585
 20
146.6516445666
 30
0.0
 11
213.3686098029
 21
146.5865403999
 31
0.0
  0
LINE
  5
3EC
330
1F
100
AcDbEntity
  8
0
  6
SLD-Durchgehend
 62
     7
100
AcDbLine
 10
213.3686098029
 20
146.5865403999
 30
0.0
 11
213.3756210209
 21
146.5304506563
 31
0.0
  0
LINE
  5
3ED
330
1F
100
AcDbEntity
  8
0
  6
SLD-Durchgehend
 62
     7
100
AcDbLine
 10
213.3756210209
 20
146.5304506563
 30
0.0
 11
213.3846354439
 21
146.4843769384
 31
0.0
  0
LINE
  5
3EE
330
1F
100
AcDbEntity
  8
0
  6
SLD-Durchgehend
 62
     7
100
AcDbLine
 10
213.3846354439
 20
146.4843769384
 30
0.0
 11
213.4206931362
 21
146.3711958486
 31
0.0
  0
LINE
  5
3EF
330
1F
100
AcDbEntity
  8
0
  6
SLD-Durchgehend
 62
     7
100
AcDbLine
 10
213.4206931362
 20
146.3711958486
 30
0.0
 11
213.4727764696
 21
146.2710355922
 31
0.0
  0
LINE
  5
3F0
330
1F
100
AcDbEntity
  8
0
  6
SLD-Durchgehend
 62
     7
100
AcDbLine
 10
213.4727764696
 20
146.2710355922
 30
0.0
 11
213.5398838414
 21
146.1828945666
 31
0.0
  0
LINE
  5
3F1
330
1F
100
AcDbEntity
  8
0
  6
SLD-Durchgehend
 62
     7
100
AcDbLine
 10
213.5398838414
 20
146.1828945666
 30
0.0
 11
213.6230168542
 21
146.1077743743
 31
0.0
  0
LINE
  5
3F2
330
1F
100
AcDbEntity
  8
0
  6
SLD-Durchgehend
 62
     7
100
AcDbLine
 10
213.6230168542
 20
146.1077743743
 30
0.0
 11
213.7201723029
 21
146.048679823
 31
0.0
  0
LINE
  5
3F3
330
1F
100
AcDbEntity
  8
0
  6
SLD-Durchgehend
 62
     7
100
AcDbLine
 10
213.7201723029
 20
146.048679823
 30
0.0
 11
213.8283453798
 21
146.0056109127
 31
0.0
  0
LINE
  5
3F4
330
1F
100
AcDbEntity
  8
0
  6
SLD-Durchgehend
 62
     7
100
AcDbLine
 10
213.8283453798
 20
146.0056109127
 30
0.0
 11
213.9465344824
 21
145.9805708486
 31
0.0
  0
LINE
  5
3F5
330
1F
100
AcDbEntity
  8
0
  6
SLD-Durchgehend
 62
     7
100
AcDbLine
 10
213.9465344824
 20
145.9805708486
 30
0.0
 11
214.0757412132
 21
145.9715564255
 31
0.0
  0
LINE
  5
3F6
330
1F
100
AcDbEntity
  8
0
  6
SLD-Durchgehend
 62
     7
100
AcDbLine
 10
214.0757412132
 20
145.9715564255
 30
0.0
 11
214.2079527516
 21
145.9805708486
 31
0.0
  0
LINE
  5
3F7
330
1F
100
AcDbEntity
  8
0
  6
SLD-Durchgehend
 62
     7
100
AcDbLine
 10
214.2079527516
 20
145.9805708486
 30
0.0
 11
214.3371594824
 21
146.0066125153
 31
0.0
  0
LINE
  5
3F8
330
1F
100
AcDbEntity
  8
0
  6
SLD-Durchgehend
 62
     7
100
AcDbLine
 10
214.3371594824
 20
146.0066125153
 30
0.0
 11
214.4613582003
 21
146.0506830281
 31
0.0
  0
LINE
  5
3F9
330
1F
100
AcDbEntity
  8
0
  6
SLD-Durchgehend
 62
     7
100
AcDbLine
 10
214.4613582003
 20
146.0506830281
 30
0.0
 11
214.581550508
 21
146.1117807845
 31
0.0
  0
LINE
  5
3FA
330
1F
100
AcDbEntity
  8
0
  6
SLD-Durchgehend
 62
     7
100
AcDbLine
 10
214.581550508
 20
146.1117807845
 30
0.0
 11
214.6907251875
 21
146.1879025794
 31
0.0
  0
LINE
  5
3FB
330
1F
100
AcDbEntity
  8
0
  6
SLD-Durchgehend
 62
     7
100
AcDbLine
 10
214.6907251875
 20
146.1879025794
 30
0.0
 11
214.783874226
 21
146.2770452076
 31
0.0
  0
LINE
  5
3FC
330
1F
100
AcDbEntity
  8
0
  6
SLD-Durchgehend
 62
     7
100
AcDbLine
 10
214.783874226
 20
146.2770452076
 30
0.0
 11
214.8579928157
 21
146.3792086691
 31
0.0
  0
LINE
  5
3FD
330
1F
100
AcDbEntity
  8
0
  6
SLD-Durchgehend
 62
     7
100
AcDbLine
 10
214.8579928157
 20
146.3792086691
 30
0.0
 11
214.9160857644
 21
146.4933913614
 31
0.0
  0
LINE
  5
3FE
330
1F
100
AcDbEntity
  8
0
  6
SLD-Durchgehend
 62
     7
100
AcDbLine
 10
214.9160857644
 20
146.4933913614
 30
0.0
 11
214.9391226234
 21
146.5574939255
 31
0.0
  0
LINE
  5
3FF
330
1F
100
AcDbEntity
  8
0
  6
SLD-Durchgehend
 62
     7
100
AcDbLine
 10
214.9391226234
 20
146.5574939255
 30
0.0
 11
214.9591546747
 21
146.627606105
 31
0.0
  0
LINE
  5
400
330
1F
100
AcDbEntity
  8
0
  6
SLD-Durchgehend
 62
     7
100
AcDbLine
 10
214.9591546747
 20
146.627606105
 30
0.0
 11
214.9761819183
 21
146.7047295025
 31
0.0
  0
LINE
  5
401
330
1F
100
AcDbEntity
  8
0
  6
SLD-Durchgehend
 62
     7
100
AcDbLine
 10
214.9761819183
 20
146.7047295025
 30
0.0
 11
214.9902043542
 21
146.7888641179
 31
0.0
  0
LINE
  5
402
330
1F
100
AcDbEntity
  8
0
  6
SLD-Durchgehend
 62
     7
100
AcDbLine
 10
214.9902043542
 20
146.7888641179
 30
0.0
 11
215.0002203798
 21
146.8800099512
 31
0.0
  0
LINE
  5
403
330
1F
100
AcDbEntity
  8
0
  6
SLD-Durchgehend
 62
     7
100
AcDbLine
 10
215.0002203798
 20
146.8800099512
 30
0.0
 11
215.0082332003
 21
146.9781670025
 31
0.0
  0
LINE
  5
404
330
1F
100
AcDbEntity
  8
0
  6
SLD-Durchgehend
 62
     7
100
AcDbLine
 10
215.0082332003
 20
146.9781670025
 30
0.0
 11
215.0122396106
 21
147.0823336691
 31
0.0
  0
LINE
  5
405
330
1F
100
AcDbEntity
  8
0
  6
SLD-Durchgehend
 62
     7
100
AcDbLine
 10
215.0122396106
 20
147.0823336691
 30
0.0
 11
215.0142428157
 21
147.1935115537
 31
0.0
  0
LINE
  5
406
330
1F
100
AcDbEntity
  8
0
  6
SLD-Durchgehend
 62
     7
100
AcDbLine
 10
215.0142428157
 20
147.1935115537
 30
0.0
 11
215.0142428157
 21
149.1125820666
 31
0.0
  0
LINE
  5
407
330
1F
100
AcDbEntity
  8
0
  6
SLD-Durchgehend
 62
     7
100
AcDbLine
 10
215.0142428157
 20
149.1125820666
 30
0.0
 11
215.6552684568
 21
149.1125820666
 31
0.0
  0
LINE
  5
408
330
1F
100
AcDbEntity
  8
0
  6
SLD-Durchgehend
 62
     7
100
AcDbLine
 10
215.6552684568
 20
149.1125820666
 30
0.0
 11
215.6552684568
 21
145.4587359127
 31
0.0
  0
LINE
  5
409
330
1F
100
AcDbEntity
  8
0
  6
SLD-Durchgehend
 62
     7
100
AcDbLine
 10
215.6552684568
 20
145.4587359127
 30
0.0
 11
215.0142421248
 21
145.4587359127
 31
0.0
  0
LINE
  5
40A
330
1F
100
AcDbEntity
  8
0
  6
SLD-Durchgehend
 62
     7
100
AcDbLine
 10
213.1552626612
 20
149.4971974512
 30
0.0
 11
213.1552684568
 21
150.1382230922
 31
0.0
  0
LINE
  5
40B
330
1F
100
AcDbEntity
  8
0
  6
SLD-Durchgehend
 62
     7
100
AcDbLine
 10
213.1552684568
 20
150.1382230922
 30
0.0
 11
213.7962940978
 21
150.1382230922
 31
0.0
  0
LINE
  5
40C
330
1F
100
AcDbEntity
  8
0
  6
SLD-Durchgehend
 62
     7
100
AcDbLine
 10
213.7962940978
 20
150.1382230922
 30
0.0
 11
213.7962940978
 21
149.4971974512
 31
0.0
  0
LINE
  5
40D
330
1F
100
AcDbEntity
  8
0
  6
SLD-Durchgehend
 62
     7
100
AcDbLine
 10
213.7962940978
 20
149.4971974512
 30
0.0
 11
213.1552684568
 21
149.4971974512
 31
0.0
  0
LINE
  5
40E
330
1F
100
AcDbEntity
  8
0
  6
SLD-Durchgehend
 62
     7
100
AcDbLine
 10
214.3732120516
 20
149.4971974512
 30
0.0
 11
214.3732171747
 21
150.1382230922
 31
0.0
  0
LINE
  5
40F
330
1F
100
AcDbEntity
  8
0
  6
SLD-Durchgehend
 62
     7
100
AcDbLine
 10
214.3732171747
 20
150.1382230922
 30
0.0
 11
215.0142428157
 21
150.1382230922
 31
0.0
  0
LINE
  5
410
330
1F
100
AcDbEntity
  8
0
  6
SLD-Durchgehend
 62
     7
100
AcDbLine
 10
215.0142428157
 20
150.1382230922
 30
0.0
 11
215.0142428157
 21
149.4971974512
 31
0.0
  0
LINE
  5
411
330
1F
100
AcDbEntity
  8
0
  6
SLD-Durchgehend
 62
     7
100
AcDbLine
 10
215.0142428157
 20
149.4971974512
 30
0.0
 11
214.3732171747
 21
149.4971974512
 31
0.0
  0
LINE
  5
412
330
1F
100
AcDbEntity
  8
0
  6
SLD-Durchgehend
 62
     7
100
AcDbLine
 10
217.8988506319
 20
145.9875820666
 30
0.0
 11
217.9629607644
 21
145.4497214896
 31
0.0
  0
LINE
  5
413
330
1F
100
AcDbEntity
  8
0
  6
SLD-Durchgehend
 62
     7
100
AcDbLine
 10
217.9629607644
 20
145.4497214896
 30
0.0
 11
217.8397636491
 21
145.4256830281
 31
0.0
  0
LINE
  5
414
330
1F
100
AcDbEntity
  8
0
  6
SLD-Durchgehend
 62
     7
100
AcDbLine
 10
217.8397636491
 20
145.4256830281
 30
0.0
 11
217.7235777516
 21
145.4086557845
 31
0.0
  0
LINE
  5
415
330
1F
100
AcDbEntity
  8
0
  6
SLD-Durchgehend
 62
     7
100
AcDbLine
 10
217.7235777516
 20
145.4086557845
 30
0.0
 11
217.6144030721
 21
145.3976381563
 31
0.0
  0
LINE
  5
416
330
1F
100
AcDbEntity
  8
0
  6
SLD-Durchgehend
 62
     7
100
AcDbLine
 10
217.6144030721
 20
145.3976381563
 30
0.0
 11
217.511238008
 21
145.3946333486
 31
0.0
  0
LINE
  5
417
330
1F
100
AcDbEntity
  8
0
  6
SLD-Durchgehend
 62
     7
100
AcDbLine
 10
217.511238008
 20
145.3946333486
 30
0.0
 11
217.3579928157
 21
145.4016445666
 31
0.0
  0
LINE
  5
418
330
1F
100
AcDbEntity
  8
0
  6
SLD-Durchgehend
 62
     7
100
AcDbLine
 10
217.3579928157
 20
145.4016445666
 30
0.0
 11
217.2227764696
 21
145.4206750153
 31
0.0
  0
LINE
  5
419
330
1F
100
AcDbEntity
  8
0
  6
SLD-Durchgehend
 62
     7
100
AcDbLine
 10
217.2227764696
 20
145.4206750153
 30
0.0
 11
217.1055889696
 21
145.4537278999
 31
0.0
  0
LINE
  5
41A
330
1F
100
AcDbEntity
  8
0
  6
SLD-Durchgehend
 62
     7
100
AcDbLine
 10
217.1055889696
 20
145.4537278999
 30
0.0
 11
217.0064303157
 21
145.4988000153
 31
0.0
  0
LINE
  5
41B
330
1F
100
AcDbEntity
  8
0
  6
SLD-Durchgehend
 62
     7
100
AcDbLine
 10
217.0064303157
 20
145.4988000153
 30
0.0
 11
216.9232973029
 21
145.5548897589
 31
0.0
  0
LINE
  5
41C
330
1F
100
AcDbEntity
  8
0
  6
SLD-Durchgehend
 62
     7
100
AcDbLine
 10
216.9232973029
 20
145.5548897589
 30
0.0
 11
216.854186726
 21
145.618992323
 31
0.0
  0
LINE
  5
41D
330
1F
100
AcDbEntity
  8
0
  6
SLD-Durchgehend
 62
     7
100
AcDbLine
 10
216.854186726
 20
145.618992323
 30
0.0
 11
216.7970953798
 21
145.6921093102
 31
0.0
  0
LINE
  5
41E
330
1F
100
AcDbEntity
  8
0
  6
SLD-Durchgehend
 62
     7
100
AcDbLine
 10
216.7970953798
 20
145.6921093102
 30
0.0
 11
216.7540264696
 21
145.7722375153
 31
0.0
  0
LINE
  5
41F
330
1F
100
AcDbEntity
  8
0
  6
SLD-Durchgehend
 62
     7
100
AcDbLine
 10
216.7540264696
 20
145.7722375153
 30
0.0
 11
216.736999226
 21
145.8203144384
 31
0.0
  0
LINE
  5
420
330
1F
100
AcDbEntity
  8
0
  6
SLD-Durchgehend
 62
     7
100
AcDbLine
 10
216.736999226
 20
145.8203144384
 30
0.0
 11
216.7219751875
 21
145.8804105922
 31
0.0
  0
LINE
  5
421
330
1F
100
AcDbEntity
  8
0
  6
SLD-Durchgehend
 62
     7
100
AcDbLine
 10
216.7219751875
 20
145.8804105922
 30
0.0
 11
216.7099559568
 21
145.9515243743
 31
0.0
  0
LINE
  5
422
330
1F
100
AcDbEntity
  8
0
  6
SLD-Durchgehend
 62
     7
100
AcDbLine
 10
216.7099559568
 20
145.9515243743
 30
0.0
 11
216.6989383285
 21
146.0356589896
 31
0.0
  0
LINE
  5
423
330
1F
100
AcDbEntity
  8
0
  6
SLD-Durchgehend
 62
     7
100
AcDbLine
 10
216.6989383285
 20
146.0356589896
 30
0.0
 11
216.690925508
 21
146.1298096307
 31
0.0
  0
LINE
  5
424
330
1F
100
AcDbEntity
  8
0
  6
SLD-Durchgehend
 62
     7
100
AcDbLine
 10
216.690925508
 20
146.1298096307
 30
0.0
 11
216.6859174952
 21
146.236981105
 31
0.0
  0
LINE
  5
425
330
1F
100
AcDbEntity
  8
0
  6
SLD-Durchgehend
 62
     7
100
AcDbLine
 10
216.6859174952
 20
146.236981105
 30
0.0
 11
216.681911085
 21
146.3551702076
 31
0.0
  0
LINE
  5
426
330
1F
100
AcDbEntity
  8
0
  6
SLD-Durchgehend
 62
     7
100
AcDbLine
 10
216.681911085
 20
146.3551702076
 30
0.0
 11
216.6809094824
 21
146.4853785409
 31
0.0
  0
LINE
  5
427
330
1F
100
AcDbEntity
  8
0
  6
SLD-Durchgehend
 62
     7
100
AcDbLine
 10
216.6809094824
 20
146.4853785409
 30
0.0
 11
216.6809094824
 21
148.5356589896
 31
0.0
  0
LINE
  5
428
330
1F
100
AcDbEntity
  8
0
  6
SLD-Durchgehend
 62
     7
100
AcDbLine
 10
216.6809094824
 20
148.5356589896
 30
0.0
 11
216.2321915337
 21
148.5356589896
 31
0.0
  0
LINE
  5
429
330
1F
100
AcDbEntity
  8
0
  6
SLD-Durchgehend
 62
     7
100
AcDbLine
 10
216.2321915337
 20
148.5356589896
 30
0.0
 11
216.2321915337
 21
149.1125820666
 31
0.0
  0
LINE
  5
42A
330
1F
100
AcDbEntity
  8
0
  6
SLD-Durchgehend
 62
     7
100
AcDbLine
 10
216.2321915337
 20
149.1125820666
 30
0.0
 11
216.6809094824
 21
149.1125820666
 31
0.0
  0
LINE
  5
42B
330
1F
100
AcDbEntity
  8
0
  6
SLD-Durchgehend
 62
     7
100
AcDbLine
 10
216.6809094824
 20
149.1125820666
 30
0.0
 11
216.6809094824
 21
150.0020051435
 31
0.0
  0
LINE
  5
42C
330
1F
100
AcDbEntity
  8
0
  6
SLD-Durchgehend
 62
     7
100
AcDbLine
 10
216.6809094824
 20
150.0020051435
 30
0.0
 11
217.3219351234
 21
150.3665884768
 31
0.0
  0
LINE
  5
42D
330
1F
100
AcDbEntity
  8
0
  6
SLD-Durchgehend
 62
     7
100
AcDbLine
 10
217.3219351234
 20
150.3665884768
 30
0.0
 11
217.3219351234
 21
149.1125820666
 31
0.0
  0
LINE
  5
42E
330
1F
100
AcDbEntity
  8
0
  6
SLD-Durchgehend
 62
     7
100
AcDbLine
 10
217.3219351234
 20
149.1125820666
 30
0.0
 11
217.8988582003
 21
149.1125820666
 31
0.0
  0
LINE
  5
42F
330
1F
100
AcDbEntity
  8
0
  6
SLD-Durchgehend
 62
     7
100
AcDbLine
 10
217.8988582003
 20
149.1125820666
 30
0.0
 11
217.8988582003
 21
148.5356589896
 31
0.0
  0
LINE
  5
430
330
1F
100
AcDbEntity
  8
0
  6
SLD-Durchgehend
 62
     7
100
AcDbLine
 10
217.8988582003
 20
148.5356589896
 30
0.0
 11
217.3219351234
 21
148.5356589896
 31
0.0
  0
LINE
  5
431
330
1F
100
AcDbEntity
  8
0
  6
SLD-Durchgehend
 62
     7
100
AcDbLine
 10
217.3219351234
 20
148.5356589896
 30
0.0
 11
217.3219351234
 21
146.462341682
 31
0.0
  0
LINE
  5
432
330
1F
100
AcDbEntity
  8
0
  6
SLD-Durchgehend
 62
     7
100
AcDbLine
 10
217.3219351234
 20
146.462341682
 30
0.0
 11
217.3239383285
 21
146.345154182
 31
0.0
  0
LINE
  5
433
330
1F
100
AcDbEntity
  8
0
  6
SLD-Durchgehend
 62
     7
100
AcDbLine
 10
217.3239383285
 20
146.345154182
 30
0.0
 11
217.3299479439
 21
146.2510035409
 31
0.0
  0
LINE
  5
434
330
1F
100
AcDbEntity
  8
0
  6
SLD-Durchgehend
 62
     7
100
AcDbLine
 10
217.3299479439
 20
146.2510035409
 30
0.0
 11
217.338962367
 21
146.1798897589
 31
0.0
  0
LINE
  5
435
330
1F
100
AcDbEntity
  8
0
  6
SLD-Durchgehend
 62
     7
100
AcDbLine
 10
217.338962367
 20
146.1798897589
 30
0.0
 11
217.3519832003
 21
146.1318128358
 31
0.0
  0
LINE
  5
436
330
1F
100
AcDbEntity
  8
0
  6
SLD-Durchgehend
 62
     7
100
AcDbLine
 10
217.3519832003
 20
146.1318128358
 30
0.0
 11
217.3920473029
 21
146.0657070666
 31
0.0
  0
LINE
  5
437
330
1F
100
AcDbEntity
  8
0
  6
SLD-Durchgehend
 62
     7
100
AcDbLine
 10
217.3920473029
 20
146.0657070666
 30
0.0
 11
217.4501402516
 21
146.0146253358
 31
0.0
  0
LINE
  5
438
330
1F
100
AcDbEntity
  8
0
  6
SLD-Durchgehend
 62
     7
100
AcDbLine
 10
217.4501402516
 20
146.0146253358
 30
0.0
 11
217.4882011491
 21
145.9955948871
 31
0.0
  0
LINE
  5
439
330
1F
100
AcDbEntity
  8
0
  6
SLD-Durchgehend
 62
     7
100
AcDbLine
 10
217.4882011491
 20
145.9955948871
 30
0.0
 11
217.534274867
 21
145.9825740537
 31
0.0
  0
LINE
  5
43A
330
1F
100
AcDbEntity
  8
0
  6
SLD-Durchgehend
 62
     7
100
AcDbLine
 10
217.534274867
 20
145.9825740537
 30
0.0
 11
217.5873598029
 21
145.9745612332
 31
0.0
  0
LINE
  5
43B
330
1F
100
AcDbEntity
  8
0
  6
SLD-Durchgehend
 62
     7
100
AcDbLine
 10
217.5873598029
 20
145.9745612332
 30
0.0
 11
217.6474559568
 21
145.9715564255
 31
0.0
  0
LINE
  5
43C
330
1F
100
AcDbEntity
  8
0
  6
SLD-Durchgehend
 62
     7
100
AcDbLine
 10
217.6474559568
 20
145.9715564255
 30
0.0
 11
217.6985376875
 21
145.9725580281
 31
0.0
  0
LINE
  5
43D
330
1F
100
AcDbEntity
  8
0
  6
SLD-Durchgehend
 62
     7
100
AcDbLine
 10
217.6985376875
 20
145.9725580281
 30
0.0
 11
217.7576322388
 21
145.9755628358
 31
0.0
  0
LINE
  5
43E
330
1F
100
AcDbEntity
  8
0
  6
SLD-Durchgehend
 62
     7
100
AcDbLine
 10
217.7576322388
 20
145.9755628358
 30
0.0
 11
217.8247396106
 21
145.9805708486
 31
0.0
  0
LINE
  5
43F
330
1F
100
AcDbEntity
  8
0
  6
SLD-Durchgehend
 62
     7
100
AcDbLine
 10
217.8247396106
 20
145.9805708486
 30
0.0
 11
217.8988582003
 21
145.9875820666
 31
0.0
  0
LINE
  5
440
330
1F
100
AcDbEntity
  8
0
  6
SLD-Durchgehend
 62
     7
100
AcDbLine
 10
219.821934891
 20
145.9875820666
 30
0.0
 11
219.8860376875
 21
145.4497214896
 31
0.0
  0
LINE
  5
441
330
1F
100
AcDbEntity
  8
0
  6
SLD-Durchgehend
 62
     7
100
AcDbLine
 10
219.8860376875
 20
145.4497214896
 30
0.0
 11
219.7628405721
 21
145.4256830281
 31
0.0
  0
LINE
  5
442
330
1F
100
AcDbEntity
  8
0
  6
SLD-Durchgehend
 62
     7
100
AcDbLine
 10
219.7628405721
 20
145.4256830281
 30
0.0
 11
219.6466546747
 21
145.4086557845
 31
0.0
  0
LINE
  5
443
330
1F
100
AcDbEntity
  8
0
  6
SLD-Durchgehend
 62
     7
100
AcDbLine
 10
219.6466546747
 20
145.4086557845
 30
0.0
 11
219.5374799952
 21
145.3976381563
 31
0.0
  0
LINE
  5
444
330
1F
100
AcDbEntity
  8
0
  6
SLD-Durchgehend
 62
     7
100
AcDbLine
 10
219.5374799952
 20
145.3976381563
 30
0.0
 11
219.4343149311
 21
145.3946333486
 31
0.0
  0
LINE
  5
445
330
1F
100
AcDbEntity
  8
0
  6
SLD-Durchgehend
 62
     7
100
AcDbLine
 10
219.4343149311
 20
145.3946333486
 30
0.0
 11
219.2810697388
 21
145.4016445666
 31
0.0
  0
LINE
  5
446
330
1F
100
AcDbEntity
  8
0
  6
SLD-Durchgehend
 62
     7
100
AcDbLine
 10
219.2810697388
 20
145.4016445666
 30
0.0
 11
219.1458533926
 21
145.4206750153
 31
0.0
  0
LINE
  5
447
330
1F
100
AcDbEntity
  8
0
  6
SLD-Durchgehend
 62
     7
100
AcDbLine
 10
219.1458533926
 20
145.4206750153
 30
0.0
 11
219.0286658926
 21
145.4537278999
 31
0.0
  0
LINE
  5
448
330
1F
100
AcDbEntity
  8
0
  6
SLD-Durchgehend
 62
     7
100
AcDbLine
 10
219.0286658926
 20
145.4537278999
 30
0.0
 11
218.9295072388
 21
145.4988000153
 31
0.0
  0
LINE
  5
449
330
1F
100
AcDbEntity
  8
0
  6
SLD-Durchgehend
 62
     7
100
AcDbLine
 10
218.9295072388
 20
145.4988000153
 30
0.0
 11
218.846374226
 21
145.5548897589
 31
0.0
  0
LINE
  5
44A
330
1F
100
AcDbEntity
  8
0
  6
SLD-Durchgehend
 62
     7
100
AcDbLine
 10
218.846374226
 20
145.5548897589
 30
0.0
 11
218.7772636491
 21
145.618992323
 31
0.0
  0
LINE
  5
44B
330
1F
100
AcDbEntity
  8
0
  6
SLD-Durchgehend
 62
     7
100
AcDbLine
 10
218.7772636491
 20
145.618992323
 30
0.0
 11
218.7201723029
 21
145.6921093102
 31
0.0
  0
LINE
  5
44C
330
1F
100
AcDbEntity
  8
0
  6
SLD-Durchgehend
 62
     7
100
AcDbLine
 10
218.7201723029
 20
145.6921093102
 30
0.0
 11
218.6771033926
 21
145.7722375153
 31
0.0
  0
LINE
  5
44D
330
1F
100
AcDbEntity
  8
0
  6
SLD-Durchgehend
 62
     7
100
AcDbLine
 10
218.6771033926
 20
145.7722375153
 30
0.0
 11
218.6600761491
 21
145.8203144384
 31
0.0
  0
LINE
  5
44E
330
1F
100
AcDbEntity
  8
0
  6
SLD-Durchgehend
 62
     7
100
AcDbLine
 10
218.6600761491
 20
145.8203144384
 30
0.0
 11
218.6450521106
 21
145.8804105922
 31
0.0
  0
LINE
  5
44F
330
1F
100
AcDbEntity
  8
0
  6
SLD-Durchgehend
 62
     7
100
AcDbLine
 10
218.6450521106
 20
145.8804105922
 30
0.0
 11
218.6330328798
 21
145.9515243743
 31
0.0
  0
LINE
  5
450
330
1F
100
AcDbEntity
  8
0
  6
SLD-Durchgehend
 62
     7
100
AcDbLine
 10
218.6330328798
 20
145.9515243743
 30
0.0
 11
218.6220152516
 21
146.0356589896
 31
0.0
  0
LINE
  5
451
330
1F
100
AcDbEntity
  8
0
  6
SLD-Durchgehend
 62
     7
100
AcDbLine
 10
218.6220152516
 20
146.0356589896
 30
0.0
 11
218.6140024311
 21
146.1298096307
 31
0.0
  0
LINE
  5
452
330
1F
100
AcDbEntity
  8
0
  6
SLD-Durchgehend
 62
     7
100
AcDbLine
 10
218.6140024311
 20
146.1298096307
 30
0.0
 11
218.6089944183
 21
146.236981105
 31
0.0
  0
LINE
  5
453
330
1F
100
AcDbEntity
  8
0
  6
SLD-Durchgehend
 62
     7
100
AcDbLine
 10
218.6089944183
 20
146.236981105
 30
0.0
 11
218.604988008
 21
146.3551702076
 31
0.0
  0
LINE
  5
454
330
1F
100
AcDbEntity
  8
0
  6
SLD-Durchgehend
 62
     7
100
AcDbLine
 10
218.604988008
 20
146.3551702076
 30
0.0
 11
218.6039864055
 21
146.4853785409
 31
0.0
  0
LINE
  5
455
330
1F
100
AcDbEntity
  8
0
  6
SLD-Durchgehend
 62
     7
100
AcDbLine
 10
218.6039864055
 20
146.4853785409
 30
0.0
 11
218.6039864055
 21
148.5356589896
 31
0.0
  0
LINE
  5
456
330
1F
100
AcDbEntity
  8
0
  6
SLD-Durchgehend
 62
     7
100
AcDbLine
 10
218.6039864055
 20
148.5356589896
 30
0.0
 11
218.1552684568
 21
148.5356589896
 31
0.0
  0
LINE
  5
457
330
1F
100
AcDbEntity
  8
0
  6
SLD-Durchgehend
 62
     7
100
AcDbLine
 10
218.1552684568
 20
148.5356589896
 30
0.0
 11
218.1552684568
 21
149.1125820666
 31
0.0
  0
LINE
  5
458
330
1F
100
AcDbEntity
  8
0
  6
SLD-Durchgehend
 62
     7
100
AcDbLine
 10
218.1552684568
 20
149.1125820666
 30
0.0
 11
218.6039864055
 21
149.1125820666
 31
0.0
  0
LINE
  5
459
330
1F
100
AcDbEntity
  8
0
  6
SLD-Durchgehend
 62
     7
100
AcDbLine
 10
218.6039864055
 20
149.1125820666
 30
0.0
 11
218.6039864055
 21
150.0020051435
 31
0.0
  0
LINE
  5
45A
330
1F
100
AcDbEntity
  8
0
  6
SLD-Durchgehend
 62
     7
100
AcDbLine
 10
218.6039864055
 20
150.0020051435
 30
0.0
 11
219.2450120465
 21
150.3665884768
 31
0.0
  0
LINE
  5
45B
330
1F
100
AcDbEntity
  8
0
  6
SLD-Durchgehend
 62
     7
100
AcDbLine
 10
219.2450120465
 20
150.3665884768
 30
0.0
 11
219.2450120465
 21
149.1125820666
 31
0.0
  0
LINE
  5
45C
330
1F
100
AcDbEntity
  8
0
  6
SLD-Durchgehend
 62
     7
100
AcDbLine
 10
219.2450120465
 20
149.1125820666
 30
0.0
 11
219.8219351234
 21
149.1125820666
 31
0.0
  0
LINE
  5
45D
330
1F
100
AcDbEntity
  8
0
  6
SLD-Durchgehend
 62
     7
100
AcDbLine
 10
219.8219351234
 20
149.1125820666
 30
0.0
 11
219.8219351234
 21
148.5356589896
 31
0.0
  0
LINE
  5
45E
330
1F
100
AcDbEntity
  8
0
  6
SLD-Durchgehend
 62
     7
100
AcDbLine
 10
219.8219351234
 20
148.5356589896
 30
0.0
 11
219.2450120465
 21
148.5356589896
 31
0.0
  0
LINE
  5
45F
330
1F
100
AcDbEntity
  8
0
  6
SLD-Durchgehend
 62
     7
100
AcDbLine
 10
219.2450120465
 20
148.5356589896
 30
0.0
 11
219.2450120465
 21
146.462341682
 31
0.0
  0
LINE
  5
460
330
1F
100
AcDbEntity
  8
0
  6
SLD-Durchgehend
 62
     7
100
AcDbLine
 10
219.2450120465
 20
146.462341682
 30
0.0
 11
219.2470152516
 21
146.345154182
 31
0.0
  0
LINE
  5
461
330
1F
100
AcDbEntity
  8
0
  6
SLD-Durchgehend
 62
     7
100
AcDbLine
 10
219.2470152516
 20
146.345154182
 30
0.0
 11
219.253024867
 21
146.2510035409
 31
0.0
  0
LINE
  5
462
330
1F
100
AcDbEntity
  8
0
  6
SLD-Durchgehend
 62
     7
100
AcDbLine
 10
219.253024867
 20
146.2510035409
 30
0.0
 11
219.2620392901
 21
146.1798897589
 31
0.0
  0
LINE
  5
463
330
1F
100
AcDbEntity
  8
0
  6
SLD-Durchgehend
 62
     7
100
AcDbLine
 10
219.2620392901
 20
146.1798897589
 30
0.0
 11
219.2750601234
 21
146.1318128358
 31
0.0
  0
LINE
  5
464
330
1F
100
AcDbEntity
  8
0
  6
SLD-Durchgehend
 62
     7
100
AcDbLine
 10
219.2750601234
 20
146.1318128358
 30
0.0
 11
219.315124226
 21
146.0657070666
 31
0.0
  0
LINE
  5
465
330
1F
100
AcDbEntity
  8
0
  6
SLD-Durchgehend
 62
     7
100
AcDbLine
 10
219.315124226
 20
146.0657070666
 30
0.0
 11
219.3732171747
 21
146.0146253358
 31
0.0
  0
LINE
  5
466
330
1F
100
AcDbEntity
  8
0
  6
SLD-Durchgehend
 62
     7
100
AcDbLine
 10
219.3732171747
 20
146.0146253358
 30
0.0
 11
219.4112780721
 21
145.9955948871
 31
0.0
  0
LINE
  5
467
330
1F
100
AcDbEntity
  8
0
  6
SLD-Durchgehend
 62
     7
100
AcDbLine
 10
219.4112780721
 20
145.9955948871
 30
0.0
 11
219.4573517901
 21
145.9825740537
 31
0.0
  0
LINE
  5
468
330
1F
100
AcDbEntity
  8
0
  6
SLD-Durchgehend
 62
     7
100
AcDbLine
 10
219.4573517901
 20
145.9825740537
 30
0.0
 11
219.510436726
 21
145.9745612332
 31
0.0
  0
LINE
  5
469
330
1F
100
AcDbEntity
  8
0
  6
SLD-Durchgehend
 62
     7
100
AcDbLine
 10
219.510436726
 20
145.9745612332
 30
0.0
 11
219.5705328798
 21
145.9715564255
 31
0.0
  0
LINE
  5
46A
330
1F
100
AcDbEntity
  8
0
  6
SLD-Durchgehend
 62
     7
100
AcDbLine
 10
219.5705328798
 20
145.9715564255
 30
0.0
 11
219.6216146106
 21
145.9725580281
 31
0.0
  0
LINE
  5
46B
330
1F
100
AcDbEntity
  8
0
  6
SLD-Durchgehend
 62
     7
100
AcDbLine
 10
219.6216146106
 20
145.9725580281
 30
0.0
 11
219.6807091619
 21
145.9755628358
 31
0.0
  0
LINE
  5
46C
330
1F
100
AcDbEntity
  8
0
  6
SLD-Durchgehend
 62
     7
100
AcDbLine
 10
219.6807091619
 20
145.9755628358
 30
0.0
 11
219.7478165337
 21
145.9805708486
 31
0.0
  0
LINE
  5
46D
330
1F
100
AcDbEntity
  8
0
  6
SLD-Durchgehend
 62
     7
100
AcDbLine
 10
219.7478165337
 20
145.9805708486
 30
0.0
 11
219.821934891
 21
145.9875820666
 31
0.0
  0
LINE
  5
46E
330
1F
100
AcDbEntity
  8
0
  6
SLD-Durchgehend
 62
     7
100
AcDbLine
 10
222.7065493586
 20
145.4587359127
 30
0.0
 11
222.706550508
 21
146.0556910409
 31
0.0
  0
LINE
  5
46F
330
1F
100
AcDbEntity
  8
0
  6
SLD-Durchgehend
 62
     7
100
AcDbLine
 10
222.706550508
 20
146.0556910409
 30
0.0
 11
222.5993790337
 21
145.9004426435
 31
0.0
  0
LINE
  5
470
330
1F
100
AcDbEntity
  8
0
  6
SLD-Durchgehend
 62
     7
100
AcDbLine
 10
222.5993790337
 20
145.9004426435
 30
0.0
 11
222.4841947388
 21
145.7662278999
 31
0.0
  0
LINE
  5
471
330
1F
100
AcDbEntity
  8
0
  6
SLD-Durchgehend
 62
     7
100
AcDbLine
 10
222.4841947388
 20
145.7662278999
 30
0.0
 11
222.3589944183
 21
145.6530468102
 31
0.0
  0
LINE
  5
472
330
1F
100
AcDbEntity
  8
0
  6
SLD-Durchgehend
 62
     7
100
AcDbLine
 10
222.3589944183
 20
145.6530468102
 30
0.0
 11
222.2247796747
 21
145.5598977717
 31
0.0
  0
LINE
  5
473
330
1F
100
AcDbEntity
  8
0
  6
SLD-Durchgehend
 62
     7
100
AcDbLine
 10
222.2247796747
 20
145.5598977717
 30
0.0
 11
222.081550508
 21
145.4877823871
 31
0.0
  0
LINE
  5
474
330
1F
100
AcDbEntity
  8
0
  6
SLD-Durchgehend
 62
     7
100
AcDbLine
 10
222.081550508
 20
145.4877823871
 30
0.0
 11
221.9283053157
 21
145.4356990537
 31
0.0
  0
LINE
  5
475
330
1F
100
AcDbEntity
  8
0
  6
SLD-Durchgehend
 62
     7
100
AcDbLine
 10
221.9283053157
 20
145.4356990537
 30
0.0
 11
221.7670473029
 21
145.4046493743
 31
0.0
  0
LINE
  5
476
330
1F
100
AcDbEntity
  8
0
  6
SLD-Durchgehend
 62
     7
100
AcDbLine
 10
221.7670473029
 20
145.4046493743
 30
0.0
 11
221.5957732644
 21
145.3946333486
 31
0.0
  0
LINE
  5
477
330
1F
100
AcDbEntity
  8
0
  6
SLD-Durchgehend
 62
     7
100
AcDbLine
 10
221.5957732644
 20
145.3946333486
 30
0.0
 11
221.4435296747
 21
145.4026461691
 31
0.0
  0
LINE
  5
478
330
1F
100
AcDbEntity
  8
0
  6
SLD-Durchgehend
 62
     7
100
AcDbLine
 10
221.4435296747
 20
145.4026461691
 30
0.0
 11
221.2962940978
 21
145.4256830281
 31
0.0
  0
LINE
  5
479
330
1F
100
AcDbEntity
  8
0
  6
SLD-Durchgehend
 62
     7
100
AcDbLine
 10
221.2962940978
 20
145.4256830281
 30
0.0
 11
221.1540665337
 21
145.4637439255
 31
0.0
  0
LINE
  5
47A
330
1F
100
AcDbEntity
  8
0
  6
SLD-Durchgehend
 62
     7
100
AcDbLine
 10
221.1540665337
 20
145.4637439255
 30
0.0
 11
221.0168469824
 21
145.517830464
 31
0.0
  0
LINE
  5
47B
330
1F
100
AcDbEntity
  8
0
  6
SLD-Durchgehend
 62
     7
100
AcDbLine
 10
221.0168469824
 20
145.517830464
 30
0.0
 11
220.8916466619
 21
145.5829346307
 31
0.0
  0
LINE
  5
47C
330
1F
100
AcDbEntity
  8
0
  6
SLD-Durchgehend
 62
     7
100
AcDbLine
 10
220.8916466619
 20
145.5829346307
 30
0.0
 11
220.783473585
 21
145.6570532204
 31
0.0
  0
LINE
  5
47D
330
1F
100
AcDbEntity
  8
0
  6
SLD-Durchgehend
 62
     7
100
AcDbLine
 10
220.783473585
 20
145.6570532204
 30
0.0
 11
220.6923277516
 21
145.7381830281
 31
0.0
  0
LINE
  5
47E
330
1F
100
AcDbEntity
  8
0
  6
SLD-Durchgehend
 62
     7
100
AcDbLine
 10
220.6923277516
 20
145.7381830281
 30
0.0
 11
220.6182091619
 21
145.8273256563
 31
0.0
  0
LINE
  5
47F
330
1F
100
AcDbEntity
  8
0
  6
SLD-Durchgehend
 62
     7
100
AcDbLine
 10
220.6182091619
 20
145.8273256563
 30
0.0
 11
220.558113008
 21
145.9264843102
 31
0.0
  0
LINE
  5
480
330
1F
100
AcDbEntity
  8
0
  6
SLD-Durchgehend
 62
     7
100
AcDbLine
 10
220.558113008
 20
145.9264843102
 30
0.0
 11
220.5070312773
 21
146.0356589896
 31
0.0
  0
LINE
  5
481
330
1F
100
AcDbEntity
  8
0
  6
SLD-Durchgehend
 62
     7
100
AcDbLine
 10
220.5070312773
 20
146.0356589896
 30
0.0
 11
220.4659655721
 21
146.1548496948
 31
0.0
  0
LINE
  5
482
330
1F
100
AcDbEntity
  8
0
  6
SLD-Durchgehend
 62
     7
100
AcDbLine
 10
220.4659655721
 20
146.1548496948
 30
0.0
 11
220.4349158926
 21
146.2850580281
 31
0.0
  0
LINE
  5
483
330
1F
100
AcDbEntity
  8
0
  6
SLD-Durchgehend
 62
     7
100
AcDbLine
 10
220.4349158926
 20
146.2850580281
 30
0.0
 11
220.4188902516
 21
146.3892246948
 31
0.0
  0
LINE
  5
484
330
1F
100
AcDbEntity
  8
0
  6
SLD-Durchgehend
 62
     7
100
AcDbLine
 10
220.4188902516
 20
146.3892246948
 30
0.0
 11
220.4078726234
 21
146.5194330281
 31
0.0
  0
LINE
  5
485
330
1F
100
AcDbEntity
  8
0
  6
SLD-Durchgehend
 62
     7
100
AcDbLine
 10
220.4078726234
 20
146.5194330281
 30
0.0
 11
220.4008614055
 21
146.6766846307
 31
0.0
  0
LINE
  5
486
330
1F
100
AcDbEntity
  8
0
  6
SLD-Durchgehend
 62
     7
100
AcDbLine
 10
220.4008614055
 20
146.6766846307
 30
0.0
 11
220.3988582003
 21
146.8599778999
 31
0.0
  0
LINE
  5
487
330
1F
100
AcDbEntity
  8
0
  6
SLD-Durchgehend
 62
     7
100
AcDbLine
 10
220.3988582003
 20
146.8599778999
 30
0.0
 11
220.3988582003
 21
149.1125820666
 31
0.0
  0
LINE
  5
488
330
1F
100
AcDbEntity
  8
0
  6
SLD-Durchgehend
 62
     7
100
AcDbLine
 10
220.3988582003
 20
149.1125820666
 30
0.0
 11
221.0398838414
 21
149.1125820666
 31
0.0
  0
LINE
  5
489
330
1F
100
AcDbEntity
  8
0
  6
SLD-Durchgehend
 62
     7
100
AcDbLine
 10
221.0398838414
 20
149.1125820666
 30
0.0
 11
221.0398838414
 21
147.1254025794
 31
0.0
  0
LINE
  5
48A
330
1F
100
AcDbEntity
  8
0
  6
SLD-Durchgehend
 62
     7
100
AcDbLine
 10
221.0398838414
 20
147.1254025794
 30
0.0
 11
221.0408854439
 21
147.0112198871
 31
0.0
  0
LINE
  5
48B
330
1F
100
AcDbEntity
  8
0
  6
SLD-Durchgehend
 62
     7
100
AcDbLine
 10
221.0408854439
 20
147.0112198871
 30
0.0
 11
221.0418870465
 21
146.9070532204
 31
0.0
  0
LINE
  5
48C
330
1F
100
AcDbEntity
  8
0
  6
SLD-Durchgehend
 62
     7
100
AcDbLine
 10
221.0418870465
 20
146.9070532204
 30
0.0
 11
221.0448918542
 21
146.8119009768
 31
0.0
  0
LINE
  5
48D
330
1F
100
AcDbEntity
  8
0
  6
SLD-Durchgehend
 62
     7
100
AcDbLine
 10
221.0448918542
 20
146.8119009768
 30
0.0
 11
221.0488982644
 21
146.7277663614
 31
0.0
  0
LINE
  5
48E
330
1F
100
AcDbEntity
  8
0
  6
SLD-Durchgehend
 62
     7
100
AcDbLine
 10
221.0488982644
 20
146.7277663614
 30
0.0
 11
221.0539062773
 21
146.6516445666
 31
0.0
  0
LINE
  5
48F
330
1F
100
AcDbEntity
  8
0
  6
SLD-Durchgehend
 62
     7
100
AcDbLine
 10
221.0539062773
 20
146.6516445666
 30
0.0
 11
221.0609174952
 21
146.5865403999
 31
0.0
  0
LINE
  5
490
330
1F
100
AcDbEntity
  8
0
  6
SLD-Durchgehend
 62
     7
100
AcDbLine
 10
221.0609174952
 20
146.5865403999
 30
0.0
 11
221.0679287132
 21
146.5304506563
 31
0.0
  0
LINE
  5
491
330
1F
100
AcDbEntity
  8
0
  6
SLD-Durchgehend
 62
     7
100
AcDbLine
 10
221.0679287132
 20
146.5304506563
 30
0.0
 11
221.0769431362
 21
146.4843769384
 31
0.0
  0
LINE
  5
492
330
1F
100
AcDbEntity
  8
0
  6
SLD-Durchgehend
 62
     7
100
AcDbLine
 10
221.0769431362
 20
146.4843769384
 30
0.0
 11
221.1130008285
 21
146.3711958486
 31
0.0
  0
LINE
  5
493
330
1F
100
AcDbEntity
  8
0
  6
SLD-Durchgehend
 62
     7
100
AcDbLine
 10
221.1130008285
 20
146.3711958486
 30
0.0
 11
221.1650841619
 21
146.2710355922
 31
0.0
  0
LINE
  5
494
330
1F
100
AcDbEntity
  8
0
  6
SLD-Durchgehend
 62
     7
100
AcDbLine
 10
221.1650841619
 20
146.2710355922
 30
0.0
 11
221.2321915337
 21
146.1828945666
 31
0.0
  0
LINE
  5
495
330
1F
100
AcDbEntity
  8
0
  6
SLD-Durchgehend
 62
     7
100
AcDbLine
 10
221.2321915337
 20
146.1828945666
 30
0.0
 11
221.3153245465
 21
146.1077743743
 31
0.0
  0
LINE
  5
496
330
1F
100
AcDbEntity
  8
0
  6
SLD-Durchgehend
 62
     7
100
AcDbLine
 10
221.3153245465
 20
146.1077743743
 30
0.0
 11
221.4124799952
 21
146.048679823
 31
0.0
  0
LINE
  5
497
330
1F
100
AcDbEntity
  8
0
  6
SLD-Durchgehend
 62
     7
100
AcDbLine
 10
221.4124799952
 20
146.048679823
 30
0.0
 11
221.5206530721
 21
146.0056109127
 31
0.0
  0
LINE
  5
498
330
1F
100
AcDbEntity
  8
0
  6
SLD-Durchgehend
 62
     7
100
AcDbLine
 10
221.5206530721
 20
146.0056109127
 30
0.0
 11
221.6388421747
 21
145.9805708486
 31
0.0
  0
LINE
  5
499
330
1F
100
AcDbEntity
  8
0
  6
SLD-Durchgehend
 62
     7
100
AcDbLine
 10
221.6388421747
 20
145.9805708486
 30
0.0
 11
221.7680489055
 21
145.9715564255
 31
0.0
  0
LINE
  5
49A
330
1F
100
AcDbEntity
  8
0
  6
SLD-Durchgehend
 62
     7
100
AcDbLine
 10
221.7680489055
 20
145.9715564255
 30
0.0
 11
221.9002604439
 21
145.9805708486
 31
0.0
  0
LINE
  5
49B
330
1F
100
AcDbEntity
  8
0
  6
SLD-Durchgehend
 62
     7
100
AcDbLine
 10
221.9002604439
 20
145.9805708486
 30
0.0
 11
222.0294671747
 21
146.0066125153
 31
0.0
  0
LINE
  5
49C
330
1F
100
AcDbEntity
  8
0
  6
SLD-Durchgehend
 62
     7
100
AcDbLine
 10
222.0294671747
 20
146.0066125153
 30
0.0
 11
222.1536658926
 21
146.0506830281
 31
0.0
  0
LINE
  5
49D
330
1F
100
AcDbEntity
  8
0
  6
SLD-Durchgehend
 62
     7
100
AcDbLine
 10
222.1536658926
 20
146.0506830281
 30
0.0
 11
222.2738582003
 21
146.1117807845
 31
0.0
  0
LINE
  5
49E
330
1F
100
AcDbEntity
  8
0
  6
SLD-Durchgehend
 62
     7
100
AcDbLine
 10
222.2738582003
 20
146.1117807845
 30
0.0
 11
222.3830328798
 21
146.1879025794
 31
0.0
  0
LINE
  5
49F
330
1F
100
AcDbEntity
  8
0
  6
SLD-Durchgehend
 62
     7
100
AcDbLine
 10
222.3830328798
 20
146.1879025794
 30
0.0
 11
222.4761819183
 21
146.2770452076
 31
0.0
  0
LINE
  5
4A0
330
1F
100
AcDbEntity
  8
0
  6
SLD-Durchgehend
 62
     7
100
AcDbLine
 10
222.4761819183
 20
146.2770452076
 30
0.0
 11
222.550300508
 21
146.3792086691
 31
0.0
  0
LINE
  5
4A1
330
1F
100
AcDbEntity
  8
0
  6
SLD-Durchgehend
 62
     7
100
AcDbLine
 10
222.550300508
 20
146.3792086691
 30
0.0
 11
222.6083934568
 21
146.4933913614
 31
0.0
  0
LINE
  5
4A2
330
1F
100
AcDbEntity
  8
0
  6
SLD-Durchgehend
 62
     7
100
AcDbLine
 10
222.6083934568
 20
146.4933913614
 30
0.0
 11
222.6314303157
 21
146.5574939255
 31
0.0
  0
LINE
  5
4A3
330
1F
100
AcDbEntity
  8
0
  6
SLD-Durchgehend
 62
     7
100
AcDbLine
 10
222.6314303157
 20
146.5574939255
 30
0.0
 11
222.651462367
 21
146.627606105
 31
0.0
  0
LINE
  5
4A4
330
1F
100
AcDbEntity
  8
0
  6
SLD-Durchgehend
 62
     7
100
AcDbLine
 10
222.651462367
 20
146.627606105
 30
0.0
 11
222.6684896106
 21
146.7047295025
 31
0.0
  0
LINE
  5
4A5
330
1F
100
AcDbEntity
  8
0
  6
SLD-Durchgehend
 62
     7
100
AcDbLine
 10
222.6684896106
 20
146.7047295025
 30
0.0
 11
222.6825120465
 21
146.7888641179
 31
0.0
  0
LINE
  5
4A6
330
1F
100
AcDbEntity
  8
0
  6
SLD-Durchgehend
 62
     7
100
AcDbLine
 10
222.6825120465
 20
146.7888641179
 30
0.0
 11
222.6925280721
 21
146.8800099512
 31
0.0
  0
LINE
  5
4A7
330
1F
100
AcDbEntity
  8
0
  6
SLD-Durchgehend
 62
     7
100
AcDbLine
 10
222.6925280721
 20
146.8800099512
 30
0.0
 11
222.7005408926
 21
146.9781670025
 31
0.0
  0
LINE
  5
4A8
330
1F
100
AcDbEntity
  8
0
  6
SLD-Durchgehend
 62
     7
100
AcDbLine
 10
222.7005408926
 20
146.9781670025
 30
0.0
 11
222.7045473029
 21
147.0823336691
 31
0.0
  0
LINE
  5
4A9
330
1F
100
AcDbEntity
  8
0
  6
SLD-Durchgehend
 62
     7
100
AcDbLine
 10
222.7045473029
 20
147.0823336691
 30
0.0
 11
222.706550508
 21
147.1935115537
 31
0.0
  0
LINE
  5
4AA
330
1F
100
AcDbEntity
  8
0
  6
SLD-Durchgehend
 62
     7
100
AcDbLine
 10
222.706550508
 20
147.1935115537
 30
0.0
 11
222.706550508
 21
149.1125820666
 31
0.0
  0
LINE
  5
4AB
330
1F
100
AcDbEntity
  8
0
  6
SLD-Durchgehend
 62
     7
100
AcDbLine
 10
222.706550508
 20
149.1125820666
 30
0.0
 11
223.3475761491
 21
149.1125820666
 31
0.0
  0
LINE
  5
4AC
330
1F
100
AcDbEntity
  8
0
  6
SLD-Durchgehend
 62
     7
100
AcDbLine
 10
223.3475761491
 20
149.1125820666
 30
0.0
 11
223.3475761491
 21
145.4587359127
 31
0.0
  0
LINE
  5
4AD
330
1F
100
AcDbEntity
  8
0
  6
SLD-Durchgehend
 62
     7
100
AcDbLine
 10
223.3475761491
 20
145.4587359127
 30
0.0
 11
222.7065493586
 21
145.4587359127
 31
0.0
  0
LINE
  5
4AE
330
1F
100
AcDbEntity
  8
0
  6
SLD-Durchgehend
 62
     7
100
AcDbLine
 10
224.2450048449
 20
145.4587359127
 30
0.0
 11
224.2450120465
 21
149.1125820666
 31
0.0
  0
LINE
  5
4AF
330
1F
100
AcDbEntity
  8
0
  6
SLD-Durchgehend
 62
     7
100
AcDbLine
 10
224.2450120465
 20
149.1125820666
 30
0.0
 11
224.8860376875
 21
149.1125820666
 31
0.0
  0
LINE
  5
4B0
330
1F
100
AcDbEntity
  8
0
  6
SLD-Durchgehend
 62
     7
100
AcDbLine
 10
224.8860376875
 20
149.1125820666
 30
0.0
 11
224.8860376875
 21
148.6027663614
 31
0.0
  0
LINE
  5
4B1
330
1F
100
AcDbEntity
  8
0
  6
SLD-Durchgehend
 62
     7
100
AcDbLine
 10
224.8860376875
 20
148.6027663614
 30
0.0
 11
224.9882011491
 21
148.736981105
 31
0.0
  0
LINE
  5
4B2
330
1F
100
AcDbEntity
  8
0
  6
SLD-Durchgehend
 62
     7
100
AcDbLine
 10
224.9882011491
 20
148.736981105
 30
0.0
 11
225.1003806362
 21
148.854168605
 31
0.0
  0
LINE
  5
4B3
330
1F
100
AcDbEntity
  8
0
  6
SLD-Durchgehend
 62
     7
100
AcDbLine
 10
225.1003806362
 20
148.854168605
 30
0.0
 11
225.2235777516
 21
148.9523256563
 31
0.0
  0
LINE
  5
4B4
330
1F
100
AcDbEntity
  8
0
  6
SLD-Durchgehend
 62
     7
100
AcDbLine
 10
225.2235777516
 20
148.9523256563
 30
0.0
 11
225.3567908926
 21
149.033455464
 31
0.0
  0
LINE
  5
4B5
330
1F
100
AcDbEntity
  8
0
  6
SLD-Durchgehend
 62
     7
100
AcDbLine
 10
225.3567908926
 20
149.033455464
 30
0.0
 11
225.5010216619
 21
149.095554823
 31
0.0
  0
LINE
  5
4B6
330
1F
100
AcDbEntity
  8
0
  6
SLD-Durchgehend
 62
     7
100
AcDbLine
 10
225.5010216619
 20
149.095554823
 30
0.0
 11
225.6562700593
 21
149.1406269384
 31
0.0
  0
LINE
  5
4B7
330
1F
100
AcDbEntity
  8
0
  6
SLD-Durchgehend
 62
     7
100
AcDbLine
 10
225.6562700593
 20
149.1406269384
 30
0.0
 11
225.822536085
 21
149.1676702076
 31
0.0
  0
LINE
  5
4B8
330
1F
100
AcDbEntity
  8
0
  6
SLD-Durchgehend
 62
     7
100
AcDbLine
 10
225.822536085
 20
149.1676702076
 30
0.0
 11
225.9988181362
 21
149.1766846307
 31
0.0
  0
LINE
  5
4B9
330
1F
100
AcDbEntity
  8
0
  6
SLD-Durchgehend
 62
     7
100
AcDbLine
 10
225.9988181362
 20
149.1766846307
 30
0.0
 11
226.1530649311
 21
149.1696734127
 31
0.0
  0
LINE
  5
4BA
330
1F
100
AcDbEntity
  8
0
  6
SLD-Durchgehend
 62
     7
100
AcDbLine
 10
226.1530649311
 20
149.1696734127
 30
0.0
 11
226.3023037132
 21
149.1476381563
 31
0.0
  0
LINE
  5
4BB
330
1F
100
AcDbEntity
  8
0
  6
SLD-Durchgehend
 62
     7
100
AcDbLine
 10
226.3023037132
 20
149.1476381563
 30
0.0
 11
226.4435296747
 21
149.1105788614
 31
0.0
  0
LINE
  5
4BC
330
1F
100
AcDbEntity
  8
0
  6
SLD-Durchgehend
 62
     7
100
AcDbLine
 10
226.4435296747
 20
149.1105788614
 30
0.0
 11
226.5797476234
 21
149.0584955281
 31
0.0
  0
LINE
  5
4BD
330
1F
100
AcDbEntity
  8
0
  6
SLD-Durchgehend
 62
     7
100
AcDbLine
 10
226.5797476234
 20
149.0584955281
 30
0.0
 11
226.7039463414
 21
148.994392964
 31
0.0
  0
LINE
  5
4BE
330
1F
100
AcDbEntity
  8
0
  6
SLD-Durchgehend
 62
     7
100
AcDbLine
 10
226.7039463414
 20
148.994392964
 30
0.0
 11
226.8121194183
 21
148.9222775794
 31
0.0
  0
LINE
  5
4BF
330
1F
100
AcDbEntity
  8
0
  6
SLD-Durchgehend
 62
     7
100
AcDbLine
 10
226.8121194183
 20
148.9222775794
 30
0.0
 11
226.9022636491
 21
148.8391445666
 31
0.0
  0
LINE
  5
4C0
330
1F
100
AcDbEntity
  8
0
  6
SLD-Durchgehend
 62
     7
100
AcDbLine
 10
226.9022636491
 20
148.8391445666
 30
0.0
 11
226.9763822388
 21
148.7479987332
 31
0.0
  0
LINE
  5
4C1
330
1F
100
AcDbEntity
  8
0
  6
SLD-Durchgehend
 62
     7
100
AcDbLine
 10
226.9763822388
 20
148.7479987332
 30
0.0
 11
227.0374799952
 21
148.6478384768
 31
0.0
  0
LINE
  5
4C2
330
1F
100
AcDbEntity
  8
0
  6
SLD-Durchgehend
 62
     7
100
AcDbLine
 10
227.0374799952
 20
148.6478384768
 30
0.0
 11
227.088561726
 21
148.5386637973
 31
0.0
  0
LINE
  5
4C3
330
1F
100
AcDbEntity
  8
0
  6
SLD-Durchgehend
 62
     7
100
AcDbLine
 10
227.088561726
 20
148.5386637973
 30
0.0
 11
227.1296274311
 21
148.4204746948
 31
0.0
  0
LINE
  5
4C4
330
1F
100
AcDbEntity
  8
0
  6
SLD-Durchgehend
 62
     7
100
AcDbLine
 10
227.1296274311
 20
148.4204746948
 30
0.0
 11
227.1606771106
 21
148.2932711691
 31
0.0
  0
LINE
  5
4C5
330
1F
100
AcDbEntity
  8
0
  6
SLD-Durchgehend
 62
     7
100
AcDbLine
 10
227.1606771106
 20
148.2932711691
 30
0.0
 11
227.1686899311
 21
148.2461958486
 31
0.0
  0
LINE
  5
4C6
330
1F
100
AcDbEntity
  8
0
  6
SLD-Durchgehend
 62
     7
100
AcDbLine
 10
227.1686899311
 20
148.2461958486
 30
0.0
 11
227.1746995465
 21
148.1921093102
 31
0.0
  0
LINE
  5
4C7
330
1F
100
AcDbEntity
  8
0
  6
SLD-Durchgehend
 62
     7
100
AcDbLine
 10
227.1746995465
 20
148.1921093102
 30
0.0
 11
227.1807091619
 21
148.1290083486
 31
0.0
  0
LINE
  5
4C8
330
1F
100
AcDbEntity
  8
0
  6
SLD-Durchgehend
 62
     7
100
AcDbLine
 10
227.1807091619
 20
148.1290083486
 30
0.0
 11
227.1857171747
 21
148.0578945666
 31
0.0
  0
LINE
  5
4C9
330
1F
100
AcDbEntity
  8
0
  6
SLD-Durchgehend
 62
     7
100
AcDbLine
 10
227.1857171747
 20
148.0578945666
 30
0.0
 11
227.1887219824
 21
147.978767964
 31
0.0
  0
LINE
  5
4CA
330
1F
100
AcDbEntity
  8
0
  6
SLD-Durchgehend
 62
     7
100
AcDbLine
 10
227.1887219824
 20
147.978767964
 30
0.0
 11
227.1917267901
 21
147.8926301435
 31
0.0
  0
LINE
  5
4CB
330
1F
100
AcDbEntity
  8
0
  6
SLD-Durchgehend
 62
     7
100
AcDbLine
 10
227.1917267901
 20
147.8926301435
 30
0.0
 11
227.1927283926
 21
147.7974778999
 31
0.0
  0
LINE
  5
4CC
330
1F
100
AcDbEntity
  8
0
  6
SLD-Durchgehend
 62
     7
100
AcDbLine
 10
227.1927283926
 20
147.7974778999
 30
0.0
 11
227.1937299952
 21
147.6943128358
 31
0.0
  0
LINE
  5
4CD
330
1F
100
AcDbEntity
  8
0
  6
SLD-Durchgehend
 62
     7
100
AcDbLine
 10
227.1937299952
 20
147.6943128358
 30
0.0
 11
227.1937299952
 21
145.4587359127
 31
0.0
  0
LINE
  5
4CE
330
1F
100
AcDbEntity
  8
0
  6
SLD-Durchgehend
 62
     7
100
AcDbLine
 10
227.1937299952
 20
145.4587359127
 30
0.0
 11
226.5527043542
 21
145.4587359127
 31
0.0
  0
LINE
  5
4CF
330
1F
100
AcDbEntity
  8
0
  6
SLD-Durchgehend
 62
     7
100
AcDbLine
 10
226.5527043542
 20
145.4587359127
 30
0.0
 11
226.5527043542
 21
147.6402262973
 31
0.0
  0
LINE
  5
4D0
330
1F
100
AcDbEntity
  8
0
  6
SLD-Durchgehend
 62
     7
100
AcDbLine
 10
226.5527043542
 20
147.6402262973
 30
0.0
 11
226.5486979439
 21
147.8145051435
 31
0.0
  0
LINE
  5
4D1
330
1F
100
AcDbEntity
  8
0
  6
SLD-Durchgehend
 62
     7
100
AcDbLine
 10
226.5486979439
 20
147.8145051435
 30
0.0
 11
226.5356771106
 21
147.9647455281
 31
0.0
  0
LINE
  5
4D2
330
1F
100
AcDbEntity
  8
0
  6
SLD-Durchgehend
 62
     7
100
AcDbLine
 10
226.5356771106
 20
147.9647455281
 30
0.0
 11
226.5136418542
 21
148.0919490537
 31
0.0
  0
LINE
  5
4D3
330
1F
100
AcDbEntity
  8
0
  6
SLD-Durchgehend
 62
     7
100
AcDbLine
 10
226.5136418542
 20
148.0919490537
 30
0.0
 11
226.4825921747
 21
148.1961157204
 31
0.0
  0
LINE
  5
4D4
330
1F
100
AcDbEntity
  8
0
  6
SLD-Durchgehend
 62
     7
100
AcDbLine
 10
226.4825921747
 20
148.1961157204
 30
0.0
 11
226.4415264696
 21
148.2832551435
 31
0.0
  0
LINE
  5
4D5
330
1F
100
AcDbEntity
  8
0
  6
SLD-Durchgehend
 62
     7
100
AcDbLine
 10
226.4415264696
 20
148.2832551435
 30
0.0
 11
226.3864383285
 21
148.3613801435
 31
0.0
  0
LINE
  5
4D6
330
1F
100
AcDbEntity
  8
0
  6
SLD-Durchgehend
 62
     7
100
AcDbLine
 10
226.3864383285
 20
148.3613801435
 30
0.0
 11
226.3183293542
 21
148.4304907204
 31
0.0
  0
LINE
  5
4D7
330
1F
100
AcDbEntity
  8
0
  6
SLD-Durchgehend
 62
     7
100
AcDbLine
 10
226.3183293542
 20
148.4304907204
 30
0.0
 11
226.2361979439
 21
148.4895852717
 31
0.0
  0
LINE
  5
4D8
330
1F
100
AcDbEntity
  8
0
  6
SLD-Durchgehend
 62
     7
100
AcDbLine
 10
226.2361979439
 20
148.4895852717
 30
0.0
 11
226.144050508
 21
148.5376621948
 31
0.0
  0
LINE
  5
4D9
330
1F
100
AcDbEntity
  8
0
  6
SLD-Durchgehend
 62
     7
100
AcDbLine
 10
226.144050508
 20
148.5376621948
 30
0.0
 11
226.0438902516
 21
148.5727182845
 31
0.0
  0
LINE
  5
4DA
330
1F
100
AcDbEntity
  8
0
  6
SLD-Durchgehend
 62
     7
100
AcDbLine
 10
226.0438902516
 20
148.5727182845
 30
0.0
 11
225.9357171747
 21
148.5927503358
 31
0.0
  0
LINE
  5
4DB
330
1F
100
AcDbEntity
  8
0
  6
SLD-Durchgehend
 62
     7
100
AcDbLine
 10
225.9357171747
 20
148.5927503358
 30
0.0
 11
225.8205328798
 21
148.5997615537
 31
0.0
  0
LINE
  5
4DC
330
1F
100
AcDbEntity
  8
0
  6
SLD-Durchgehend
 62
     7
100
AcDbLine
 10
225.8205328798
 20
148.5997615537
 30
0.0
 11
225.7263822388
 21
148.5957551435
 31
0.0
  0
LINE
  5
4DD
330
1F
100
AcDbEntity
  8
0
  6
SLD-Durchgehend
 62
     7
100
AcDbLine
 10
225.7263822388
 20
148.5957551435
 30
0.0
 11
225.636238008
 21
148.5847375153
 31
0.0
  0
LINE
  5
4DE
330
1F
100
AcDbEntity
  8
0
  6
SLD-Durchgehend
 62
     7
100
AcDbLine
 10
225.636238008
 20
148.5847375153
 30
0.0
 11
225.549098585
 21
148.564705464
 31
0.0
  0
LINE
  5
4DF
330
1F
100
AcDbEntity
  8
0
  6
SLD-Durchgehend
 62
     7
100
AcDbLine
 10
225.549098585
 20
148.564705464
 30
0.0
 11
225.4649639696
 21
148.5386637973
 31
0.0
  0
LINE
  5
4E0
330
1F
100
AcDbEntity
  8
0
  6
SLD-Durchgehend
 62
     7
100
AcDbLine
 10
225.4649639696
 20
148.5386637973
 30
0.0
 11
225.3848357644
 21
148.5036077076
 31
0.0
  0
LINE
  5
4E1
330
1F
100
AcDbEntity
  8
0
  6
SLD-Durchgehend
 62
     7
100
AcDbLine
 10
225.3848357644
 20
148.5036077076
 30
0.0
 11
225.307712367
 21
148.4615403999
 31
0.0
  0
LINE
  5
4E2
330
1F
100
AcDbEntity
  8
0
  6
SLD-Durchgehend
 62
     7
100
AcDbLine
 10
225.307712367
 20
148.4615403999
 30
0.0
 11
225.2335937773
 21
148.4114602717
 31
0.0
  0
LINE
  5
4E3
330
1F
100
AcDbEntity
  8
0
  6
SLD-Durchgehend
 62
     7
100
AcDbLine
 10
225.2335937773
 20
148.4114602717
 30
0.0
 11
225.1624799952
 21
148.353367323
 31
0.0
  0
LINE
  5
4E4
330
1F
100
AcDbEntity
  8
0
  6
SLD-Durchgehend
 62
     7
100
AcDbLine
 10
225.1624799952
 20
148.353367323
 30
0.0
 11
225.0973758285
 21
148.2852583486
 31
0.0
  0
LINE
  5
4E5
330
1F
100
AcDbEntity
  8
0
  6
SLD-Durchgehend
 62
     7
100
AcDbLine
 10
225.0973758285
 20
148.2852583486
 30
0.0
 11
225.041286085
 21
148.2021253358
 31
0.0
  0
LINE
  5
4E6
330
1F
100
AcDbEntity
  8
0
  6
SLD-Durchgehend
 62
     7
100
AcDbLine
 10
225.041286085
 20
148.2021253358
 30
0.0
 11
224.9942107644
 21
148.1059714896
 31
0.0
  0
LINE
  5
4E7
330
1F
100
AcDbEntity
  8
0
  6
SLD-Durchgehend
 62
     7
100
AcDbLine
 10
224.9942107644
 20
148.1059714896
 30
0.0
 11
224.9551482644
 21
147.9967968102
 31
0.0
  0
LINE
  5
4E8
330
1F
100
AcDbEntity
  8
0
  6
SLD-Durchgehend
 62
     7
100
AcDbLine
 10
224.9551482644
 20
147.9967968102
 30
0.0
 11
224.9251001875
 21
147.8725980922
 31
0.0
  0
LINE
  5
4E9
330
1F
100
AcDbEntity
  8
0
  6
SLD-Durchgehend
 62
     7
100
AcDbLine
 10
224.9251001875
 20
147.8725980922
 30
0.0
 11
224.9030649311
 21
147.7343769384
 31
0.0
  0
LINE
  5
4EA
330
1F
100
AcDbEntity
  8
0
  6
SLD-Durchgehend
 62
     7
100
AcDbLine
 10
224.9030649311
 20
147.7343769384
 30
0.0
 11
224.8900440978
 21
147.5831349512
 31
0.0
  0
LINE
  5
4EB
330
1F
100
AcDbEntity
  8
0
  6
SLD-Durchgehend
 62
     7
100
AcDbLine
 10
224.8900440978
 20
147.5831349512
 30
0.0
 11
224.8860376875
 21
147.4178705281
 31
0.0
  0
LINE
  5
4EC
330
1F
100
AcDbEntity
  8
0
  6
SLD-Durchgehend
 62
     7
100
AcDbLine
 10
224.8860376875
 20
147.4178705281
 30
0.0
 11
224.8860376875
 21
145.4587359127
 31
0.0
  0
LINE
  5
4ED
330
1F
100
AcDbEntity
  8
0
  6
SLD-Durchgehend
 62
     7
100
AcDbLine
 10
224.8860376875
 20
145.4587359127
 30
0.0
 11
224.2450120465
 21
145.4587359127
 31
0.0
  0
LINE
  5
4EE
330
1F
100
AcDbEntity
  8
0
  6
SLD-Durchgehend
 62
     7
100
AcDbLine
 10
227.9228856089
 20
145.2023256563
 30
0.0
 11
228.5639223029
 21
145.1382230922
 31
0.0
  0
LINE
  5
4EF
330
1F
100
AcDbEntity
  8
0
  6
SLD-Durchgehend
 62
     7
100
AcDbLine
 10
228.5639223029
 20
145.1382230922
 30
0.0
 11
228.5899639696
 21
145.0230387973
 31
0.0
  0
LINE
  5
4F0
330
1F
100
AcDbEntity
  8
0
  6
SLD-Durchgehend
 62
     7
100
AcDbLine
 10
228.5899639696
 20
145.0230387973
 30
0.0
 11
228.6330328798
 21
144.9248817461
 31
0.0
  0
LINE
  5
4F1
330
1F
100
AcDbEntity
  8
0
  6
SLD-Durchgehend
 62
     7
100
AcDbLine
 10
228.6330328798
 20
144.9248817461
 30
0.0
 11
228.6911258285
 21
144.8427503358
 31
0.0
  0
LINE
  5
4F2
330
1F
100
AcDbEntity
  8
0
  6
SLD-Durchgehend
 62
     7
100
AcDbLine
 10
228.6911258285
 20
144.8427503358
 30
0.0
 11
228.7662460209
 21
144.7776461691
 31
0.0
  0
LINE
  5
4F3
330
1F
100
AcDbEntity
  8
0
  6
SLD-Durchgehend
 62
     7
100
AcDbLine
 10
228.7662460209
 20
144.7776461691
 30
0.0
 11
228.8874399311
 21
144.7115403999
 31
0.0
  0
LINE
  5
4F4
330
1F
100
AcDbEntity
  8
0
  6
SLD-Durchgehend
 62
     7
100
AcDbLine
 10
228.8874399311
 20
144.7115403999
 30
0.0
 11
229.0286658926
 21
144.6634634768
 31
0.0
  0
LINE
  5
4F5
330
1F
100
AcDbEntity
  8
0
  6
SLD-Durchgehend
 62
     7
100
AcDbLine
 10
229.0286658926
 20
144.6634634768
 30
0.0
 11
229.1899239055
 21
144.635418605
 31
0.0
  0
LINE
  5
4F6
330
1F
100
AcDbEntity
  8
0
  6
SLD-Durchgehend
 62
     7
100
AcDbLine
 10
229.1899239055
 20
144.635418605
 30
0.0
 11
229.3722155721
 21
144.6254025794
 31
0.0
  0
LINE
  5
4F7
330
1F
100
AcDbEntity
  8
0
  6
SLD-Durchgehend
 62
     7
100
AcDbLine
 10
229.3722155721
 20
144.6254025794
 30
0.0
 11
229.4723758285
 21
144.6274057845
 31
0.0
  0
LINE
  5
4F8
330
1F
100
AcDbEntity
  8
0
  6
SLD-Durchgehend
 62
     7
100
AcDbLine
 10
229.4723758285
 20
144.6274057845
 30
0.0
 11
229.5675280721
 21
144.635418605
 31
0.0
  0
LINE
  5
4F9
330
1F
100
AcDbEntity
  8
0
  6
SLD-Durchgehend
 62
     7
100
AcDbLine
 10
229.5675280721
 20
144.635418605
 30
0.0
 11
229.6556690978
 21
144.6464362332
 31
0.0
  0
LINE
  5
4FA
330
1F
100
AcDbEntity
  8
0
  6
SLD-Durchgehend
 62
     7
100
AcDbLine
 10
229.6556690978
 20
144.6464362332
 30
0.0
 11
229.7388021106
 21
144.6634634768
 31
0.0
  0
LINE
  5
4FB
330
1F
100
AcDbEntity
  8
0
  6
SLD-Durchgehend
 62
     7
100
AcDbLine
 10
229.7388021106
 20
144.6634634768
 30
0.0
 11
229.815925508
 21
144.6844971307
 31
0.0
  0
LINE
  5
4FC
330
1F
100
AcDbEntity
  8
0
  6
SLD-Durchgehend
 62
     7
100
AcDbLine
 10
229.815925508
 20
144.6844971307
 30
0.0
 11
229.8870392901
 21
144.7115403999
 31
0.0
  0
LINE
  5
4FD
330
1F
100
AcDbEntity
  8
0
  6
SLD-Durchgehend
 62
     7
100
AcDbLine
 10
229.8870392901
 20
144.7115403999
 30
0.0
 11
229.9521434568
 21
144.7415884768
 31
0.0
  0
LINE
  5
4FE
330
1F
100
AcDbEntity
  8
0
  6
SLD-Durchgehend
 62
     7
100
AcDbLine
 10
229.9521434568
 20
144.7415884768
 30
0.0
 11
230.011238008
 21
144.7776461691
 31
0.0
  0
LINE
  5
4FF
330
1F
100
AcDbEntity
  8
0
  6
SLD-Durchgehend
 62
     7
100
AcDbLine
 10
230.011238008
 20
144.7776461691
 30
0.0
 11
230.1144030721
 21
144.8617807845
 31
0.0
  0
LINE
  5
500
330
1F
100
AcDbEntity
  8
0
  6
SLD-Durchgehend
 62
     7
100
AcDbLine
 10
230.1144030721
 20
144.8617807845
 30
0.0
 11
230.2005408926
 21
144.9609394384
 31
0.0
  0
LINE
  5
501
330
1F
100
AcDbEntity
  8
0
  6
SLD-Durchgehend
 62
     7
100
AcDbLine
 10
230.2005408926
 20
144.9609394384
 30
0.0
 11
230.2666466619
 21
145.0751221307
 31
0.0
  0
LINE
  5
502
330
1F
100
AcDbEntity
  8
0
  6
SLD-Durchgehend
 62
     7
100
AcDbLine
 10
230.2666466619
 20
145.0751221307
 30
0.0
 11
230.3157251875
 21
145.2043288614
 31
0.0
  0
LINE
  5
503
330
1F
100
AcDbEntity
  8
0
  6
SLD-Durchgehend
 62
     7
100
AcDbLine
 10
230.3157251875
 20
145.2043288614
 30
0.0
 11
230.3267428157
 21
145.2524057845
 31
0.0
  0
LINE
  5
504
330
1F
100
AcDbEntity
  8
0
  6
SLD-Durchgehend
 62
     7
100
AcDbLine
 10
230.3267428157
 20
145.2524057845
 30
0.0
 11
230.3357572388
 21
145.3115003358
 31
0.0
  0
LINE
  5
505
330
1F
100
AcDbEntity
  8
0
  6
SLD-Durchgehend
 62
     7
100
AcDbLine
 10
230.3357572388
 20
145.3115003358
 30
0.0
 11
230.3437700593
 21
145.3816125153
 31
0.0
  0
LINE
  5
506
330
1F
100
AcDbEntity
  8
0
  6
SLD-Durchgehend
 62
     7
100
AcDbLine
 10
230.3437700593
 20
145.3816125153
 30
0.0
 11
230.3497796747
 21
145.4637439255
 31
0.0
  0
LINE
  5
507
330
1F
100
AcDbEntity
  8
0
  6
SLD-Durchgehend
 62
     7
100
AcDbLine
 10
230.3497796747
 20
145.4637439255
 30
0.0
 11
230.3547876875
 21
145.5578945666
 31
0.0
  0
LINE
  5
508
330
1F
100
AcDbEntity
  8
0
  6
SLD-Durchgehend
 62
     7
100
AcDbLine
 10
230.3547876875
 20
145.5578945666
 30
0.0
 11
230.3577924952
 21
145.6630628358
 31
0.0
  0
LINE
  5
509
330
1F
100
AcDbEntity
  8
0
  6
SLD-Durchgehend
 62
     7
100
AcDbLine
 10
230.3577924952
 20
145.6630628358
 30
0.0
 11
230.3587940978
 21
145.7792487332
 31
0.0
  0
LINE
  5
50A
330
1F
100
AcDbEntity
  8
0
  6
SLD-Durchgehend
 62
     7
100
AcDbLine
 10
230.3587940978
 20
145.7792487332
 30
0.0
 11
230.3587940978
 21
145.9074538614
 31
0.0
  0
LINE
  5
50B
330
1F
100
AcDbEntity
  8
0
  6
SLD-Durchgehend
 62
     7
100
AcDbLine
 10
230.3587940978
 20
145.9074538614
 30
0.0
 11
230.2576322388
 21
145.8022855922
 31
0.0
  0
LINE
  5
50C
330
1F
100
AcDbEntity
  8
0
  6
SLD-Durchgehend
 62
     7
100
AcDbLine
 10
230.2576322388
 20
145.8022855922
 30
0.0
 11
230.1504607644
 21
145.7111397589
 31
0.0
  0
LINE
  5
50D
330
1F
100
AcDbEntity
  8
0
  6
SLD-Durchgehend
 62
     7
100
AcDbLine
 10
230.1504607644
 20
145.7111397589
 30
0.0
 11
230.0382812773
 21
145.6340163614
 31
0.0
  0
LINE
  5
50E
330
1F
100
AcDbEntity
  8
0
  6
SLD-Durchgehend
 62
     7
100
AcDbLine
 10
230.0382812773
 20
145.6340163614
 30
0.0
 11
229.9190905721
 21
145.5709153999
 31
0.0
  0
LINE
  5
50F
330
1F
100
AcDbEntity
  8
0
  6
SLD-Durchgehend
 62
     7
100
AcDbLine
 10
229.9190905721
 20
145.5709153999
 30
0.0
 11
229.7938902516
 21
145.5218368743
 31
0.0
  0
LINE
  5
510
330
1F
100
AcDbEntity
  8
0
  6
SLD-Durchgehend
 62
     7
100
AcDbLine
 10
229.7938902516
 20
145.5218368743
 30
0.0
 11
229.6626803157
 21
145.4867807845
 31
0.0
  0
LINE
  5
511
330
1F
100
AcDbEntity
  8
0
  6
SLD-Durchgehend
 62
     7
100
AcDbLine
 10
229.6626803157
 20
145.4867807845
 30
0.0
 11
229.5254607644
 21
145.4657471307
 31
0.0
  0
LINE
  5
512
330
1F
100
AcDbEntity
  8
0
  6
SLD-Durchgehend
 62
     7
100
AcDbLine
 10
229.5254607644
 20
145.4657471307
 30
0.0
 11
229.3822315978
 21
145.4587359127
 31
0.0
  0
LINE
  5
513
330
1F
100
AcDbEntity
  8
0
  6
SLD-Durchgehend
 62
     7
100
AcDbLine
 10
229.3822315978
 20
145.4587359127
 30
0.0
 11
229.2059495465
 21
145.4667487332
 31
0.0
  0
LINE
  5
514
330
1F
100
AcDbEntity
  8
0
  6
SLD-Durchgehend
 62
     7
100
AcDbLine
 10
229.2059495465
 20
145.4667487332
 30
0.0
 11
229.0396835209
 21
145.4927903999
 31
0.0
  0
LINE
  5
515
330
1F
100
AcDbEntity
  8
0
  6
SLD-Durchgehend
 62
     7
100
AcDbLine
 10
229.0396835209
 20
145.4927903999
 30
0.0
 11
228.8834335209
 21
145.5348577076
 31
0.0
  0
LINE
  5
516
330
1F
100
AcDbEntity
  8
0
  6
SLD-Durchgehend
 62
     7
100
AcDbLine
 10
228.8834335209
 20
145.5348577076
 30
0.0
 11
228.7382011491
 21
145.5939522589
 31
0.0
  0
LINE
  5
517
330
1F
100
AcDbEntity
  8
0
  6
SLD-Durchgehend
 62
     7
100
AcDbLine
 10
228.7382011491
 20
145.5939522589
 30
0.0
 11
228.6019832003
 21
145.6700740537
 31
0.0
  0
LINE
  5
518
330
1F
100
AcDbEntity
  8
0
  6
SLD-Durchgehend
 62
     7
100
AcDbLine
 10
228.6019832003
 20
145.6700740537
 30
0.0
 11
228.4767828798
 21
145.7632230922
 31
0.0
  0
LINE
  5
519
330
1F
100
AcDbEntity
  8
0
  6
SLD-Durchgehend
 62
     7
100
AcDbLine
 10
228.4767828798
 20
145.7632230922
 30
0.0
 11
228.3626001875
 21
145.8723977717
 31
0.0
  0
LINE
  5
51A
330
1F
100
AcDbEntity
  8
0
  6
SLD-Durchgehend
 62
     7
100
AcDbLine
 10
228.3626001875
 20
145.8723977717
 30
0.0
 11
228.2574319183
 21
145.9996012973
 31
0.0
  0
LINE
  5
51B
330
1F
100
AcDbEntity
  8
0
  6
SLD-Durchgehend
 62
     7
100
AcDbLine
 10
228.2574319183
 20
145.9996012973
 30
0.0
 11
228.1642828798
 21
146.1378224512
 31
0.0
  0
LINE
  5
51C
330
1F
100
AcDbEntity
  8
0
  6
SLD-Durchgehend
 62
     7
100
AcDbLine
 10
228.1642828798
 20
146.1378224512
 30
0.0
 11
228.0831530721
 21
146.283054823
 31
0.0
  0
LINE
  5
51D
330
1F
100
AcDbEntity
  8
0
  6
SLD-Durchgehend
 62
     7
100
AcDbLine
 10
228.0831530721
 20
146.283054823
 30
0.0
 11
228.0140424952
 21
146.4352984127
 31
0.0
  0
LINE
  5
51E
330
1F
100
AcDbEntity
  8
0
  6
SLD-Durchgehend
 62
     7
100
AcDbLine
 10
228.0140424952
 20
146.4352984127
 30
0.0
 11
227.9589543542
 21
146.5945532204
 31
0.0
  0
LINE
  5
51F
330
1F
100
AcDbEntity
  8
0
  6
SLD-Durchgehend
 62
     7
100
AcDbLine
 10
227.9589543542
 20
146.5945532204
 30
0.0
 11
227.9148838414
 21
146.7598176435
 31
0.0
  0
LINE
  5
520
330
1F
100
AcDbEntity
  8
0
  6
SLD-Durchgehend
 62
     7
100
AcDbLine
 10
227.9148838414
 20
146.7598176435
 30
0.0
 11
227.8838341619
 21
146.9320932845
 31
0.0
  0
LINE
  5
521
330
1F
100
AcDbEntity
  8
0
  6
SLD-Durchgehend
 62
     7
100
AcDbLine
 10
227.8838341619
 20
146.9320932845
 30
0.0
 11
227.8648037132
 21
147.1113801435
 31
0.0
  0
LINE
  5
522
330
1F
100
AcDbEntity
  8
0
  6
SLD-Durchgehend
 62
     7
100
AcDbLine
 10
227.8648037132
 20
147.1113801435
 30
0.0
 11
227.8587940978
 21
147.2966766179
 31
0.0
  0
LINE
  5
523
330
1F
100
AcDbEntity
  8
0
  6
SLD-Durchgehend
 62
     7
100
AcDbLine
 10
227.8587940978
 20
147.2966766179
 30
0.0
 11
227.869811726
 21
147.5520852717
 31
0.0
  0
LINE
  5
524
330
1F
100
AcDbEntity
  8
0
  6
SLD-Durchgehend
 62
     7
100
AcDbLine
 10
227.869811726
 20
147.5520852717
 30
0.0
 11
227.9038662132
 21
147.7974778999
 31
0.0
  0
LINE
  5
525
330
1F
100
AcDbEntity
  8
0
  6
SLD-Durchgehend
 62
     7
100
AcDbLine
 10
227.9038662132
 20
147.7974778999
 30
0.0
 11
227.9589543542
 21
148.0318528999
 31
0.0
  0
LINE
  5
526
330
1F
100
AcDbEntity
  8
0
  6
SLD-Durchgehend
 62
     7
100
AcDbLine
 10
227.9589543542
 20
148.0318528999
 30
0.0
 11
228.0370793542
 21
148.2572134768
 31
0.0
  0
LINE
  5
527
330
1F
100
AcDbEntity
  8
0
  6
SLD-Durchgehend
 62
     7
100
AcDbLine
 10
228.0370793542
 20
148.2572134768
 30
0.0
 11
228.0841546747
 21
148.3643849512
 31
0.0
  0
LINE
  5
528
330
1F
100
AcDbEntity
  8
0
  6
SLD-Durchgehend
 62
     7
100
AcDbLine
 10
228.0841546747
 20
148.3643849512
 30
0.0
 11
228.136238008
 21
148.4645452076
 31
0.0
  0
LINE
  5
529
330
1F
100
AcDbEntity
  8
0
  6
SLD-Durchgehend
 62
     7
100
AcDbLine
 10
228.136238008
 20
148.4645452076
 30
0.0
 11
228.1943309568
 21
148.5586958486
 31
0.0
  0
LINE
  5
52A
330
1F
100
AcDbEntity
  8
0
  6
SLD-Durchgehend
 62
     7
100
AcDbLine
 10
228.1943309568
 20
148.5586958486
 30
0.0
 11
228.2564303157
 21
148.6468368743
 31
0.0
  0
LINE
  5
52B
330
1F
100
AcDbEntity
  8
0
  6
SLD-Durchgehend
 62
     7
100
AcDbLine
 10
228.2564303157
 20
148.6468368743
 30
0.0
 11
228.3235376875
 21
148.7289682845
 31
0.0
  0
LINE
  5
52C
330
1F
100
AcDbEntity
  8
0
  6
SLD-Durchgehend
 62
     7
100
AcDbLine
 10
228.3235376875
 20
148.7289682845
 30
0.0
 11
228.3956530721
 21
148.8040884768
 31
0.0
  0
LINE
  5
52D
330
1F
100
AcDbEntity
  8
0
  6
SLD-Durchgehend
 62
     7
100
AcDbLine
 10
228.3956530721
 20
148.8040884768
 30
0.0
 11
228.4727764696
 21
148.8731990537
 31
0.0
  0
LINE
  5
52E
330
1F
100
AcDbEntity
  8
0
  6
SLD-Durchgehend
 62
     7
100
AcDbLine
 10
228.4727764696
 20
148.8731990537
 30
0.0
 11
228.5549078798
 21
148.9363000153
 31
0.0
  0
LINE
  5
52F
330
1F
100
AcDbEntity
  8
0
  6
SLD-Durchgehend
 62
     7
100
AcDbLine
 10
228.5549078798
 20
148.9363000153
 30
0.0
 11
228.6420473029
 21
148.9923897589
 31
0.0
  0
LINE
  5
530
330
1F
100
AcDbEntity
  8
0
  6
SLD-Durchgehend
 62
     7
100
AcDbLine
 10
228.6420473029
 20
148.9923897589
 30
0.0
 11
228.7321915337
 21
149.0414682845
 31
0.0
  0
LINE
  5
531
330
1F
100
AcDbEntity
  8
0
  6
SLD-Durchgehend
 62
     7
100
AcDbLine
 10
228.7321915337
 20
149.0414682845
 30
0.0
 11
228.8263421747
 21
149.0825339896
 31
0.0
  0
LINE
  5
532
330
1F
100
AcDbEntity
  8
0
  6
SLD-Durchgehend
 62
     7
100
AcDbLine
 10
228.8263421747
 20
149.0825339896
 30
0.0
 11
228.924499226
 21
149.1165884768
 31
0.0
  0
LINE
  5
533
330
1F
100
AcDbEntity
  8
0
  6
SLD-Durchgehend
 62
     7
100
AcDbLine
 10
228.924499226
 20
149.1165884768
 30
0.0
 11
229.025661085
 21
149.1426301435
 31
0.0
  0
LINE
  5
534
330
1F
100
AcDbEntity
  8
0
  6
SLD-Durchgehend
 62
     7
100
AcDbLine
 10
229.025661085
 20
149.1426301435
 30
0.0
 11
229.1308293542
 21
149.1616605922
 31
0.0
  0
LINE
  5
535
330
1F
100
AcDbEntity
  8
0
  6
SLD-Durchgehend
 62
     7
100
AcDbLine
 10
229.1308293542
 20
149.1616605922
 30
0.0
 11
229.2400040337
 21
149.1726782204
 31
0.0
  0
LINE
  5
536
330
1F
100
AcDbEntity
  8
0
  6
SLD-Durchgehend
 62
     7
100
AcDbLine
 10
229.2400040337
 20
149.1726782204
 30
0.0
 11
229.3521835209
 21
149.1766846307
 31
0.0
  0
LINE
  5
537
330
1F
100
AcDbEntity
  8
0
  6
SLD-Durchgehend
 62
     7
100
AcDbLine
 10
229.3521835209
 20
149.1766846307
 30
0.0
 11
229.5014223029
 21
149.1686718102
 31
0.0
  0
LINE
  5
538
330
1F
100
AcDbEntity
  8
0
  6
SLD-Durchgehend
 62
     7
100
AcDbLine
 10
229.5014223029
 20
149.1686718102
 30
0.0
 11
229.6446514696
 21
149.1446333486
 31
0.0
  0
LINE
  5
539
330
1F
100
AcDbEntity
  8
0
  6
SLD-Durchgehend
 62
     7
100
AcDbLine
 10
229.6446514696
 20
149.1446333486
 30
0.0
 11
229.7798678157
 21
149.1045692461
 31
0.0
  0
LINE
  5
53A
330
1F
100
AcDbEntity
  8
0
  6
SLD-Durchgehend
 62
     7
100
AcDbLine
 10
229.7798678157
 20
149.1045692461
 30
0.0
 11
229.9090745465
 21
149.0484795025
 31
0.0
  0
LINE
  5
53B
330
1F
100
AcDbEntity
  8
0
  6
SLD-Durchgehend
 62
     7
100
AcDbLine
 10
229.9090745465
 20
149.0484795025
 30
0.0
 11
230.0322716619
 21
148.9763641179
 31
0.0
  0
LINE
  5
53C
330
1F
100
AcDbEntity
  8
0
  6
SLD-Durchgehend
 62
     7
100
AcDbLine
 10
230.0322716619
 20
148.9763641179
 30
0.0
 11
230.1474559568
 21
148.8882230922
 31
0.0
  0
LINE
  5
53D
330
1F
100
AcDbEntity
  8
0
  6
SLD-Durchgehend
 62
     7
100
AcDbLine
 10
230.1474559568
 20
148.8882230922
 30
0.0
 11
230.2566306362
 21
148.7840564255
 31
0.0
  0
LINE
  5
53E
330
1F
100
AcDbEntity
  8
0
  6
SLD-Durchgehend
 62
     7
100
AcDbLine
 10
230.2566306362
 20
148.7840564255
 30
0.0
 11
230.3587940978
 21
148.6638641179
 31
0.0
  0
LINE
  5
53F
330
1F
100
AcDbEntity
  8
0
  6
SLD-Durchgehend
 62
     7
100
AcDbLine
 10
230.3587940978
 20
148.6638641179
 30
0.0
 11
230.3587940978
 21
149.1125820666
 31
0.0
  0
LINE
  5
540
330
1F
100
AcDbEntity
  8
0
  6
SLD-Durchgehend
 62
     7
100
AcDbLine
 10
230.3587940978
 20
149.1125820666
 30
0.0
 11
230.9998197388
 21
149.1125820666
 31
0.0
  0
LINE
  5
541
330
1F
100
AcDbEntity
  8
0
  6
SLD-Durchgehend
 62
     7
100
AcDbLine
 10
230.9998197388
 20
149.1125820666
 30
0.0
 11
230.9998197388
 21
145.9985996948
 31
0.0
  0
LINE
  5
542
330
1F
100
AcDbEntity
  8
0
  6
SLD-Durchgehend
 62
     7
100
AcDbLine
 10
230.9998197388
 20
145.9985996948
 30
0.0
 11
230.9968149311
 21
145.7962759768
 31
0.0
  0
LINE
  5
543
330
1F
100
AcDbEntity
  8
0
  6
SLD-Durchgehend
 62
     7
100
AcDbLine
 10
230.9968149311
 20
145.7962759768
 30
0.0
 11
230.9888021106
 21
145.6089762973
 31
0.0
  0
LINE
  5
544
330
1F
100
AcDbEntity
  8
0
  6
SLD-Durchgehend
 62
     7
100
AcDbLine
 10
230.9888021106
 20
145.6089762973
 30
0.0
 11
230.9757812773
 21
145.4367006563
 31
0.0
  0
LINE
  5
545
330
1F
100
AcDbEntity
  8
0
  6
SLD-Durchgehend
 62
     7
100
AcDbLine
 10
230.9757812773
 20
145.4367006563
 30
0.0
 11
230.9567508285
 21
145.2794490537
 31
0.0
  0
LINE
  5
546
330
1F
100
AcDbEntity
  8
0
  6
SLD-Durchgehend
 62
     7
100
AcDbLine
 10
230.9567508285
 20
145.2794490537
 30
0.0
 11
230.9317107644
 21
145.1382230922
 31
0.0
  0
LINE
  5
547
330
1F
100
AcDbEntity
  8
0
  6
SLD-Durchgehend
 62
     7
100
AcDbLine
 10
230.9317107644
 20
145.1382230922
 30
0.0
 11
230.9026642901
 21
145.0120211691
 31
0.0
  0
LINE
  5
548
330
1F
100
AcDbEntity
  8
0
  6
SLD-Durchgehend
 62
     7
100
AcDbLine
 10
230.9026642901
 20
145.0120211691
 30
0.0
 11
230.8676082003
 21
144.9008432845
 31
0.0
  0
LINE
  5
549
330
1F
100
AcDbEntity
  8
0
  6
SLD-Durchgehend
 62
     7
100
AcDbLine
 10
230.8676082003
 20
144.9008432845
 30
0.0
 11
230.8265424952
 21
144.8056910409
 31
0.0
  0
LINE
  5
54A
330
1F
100
AcDbEntity
  8
0
  6
SLD-Durchgehend
 62
     7
100
AcDbLine
 10
230.8265424952
 20
144.8056910409
 30
0.0
 11
230.7804687773
 21
144.720554823
 31
0.0
  0
LINE
  5
54B
330
1F
100
AcDbEntity
  8
0
  6
SLD-Durchgehend
 62
     7
100
AcDbLine
 10
230.7804687773
 20
144.720554823
 30
0.0
 11
230.7273838414
 21
144.6394250153
 31
0.0
  0
LINE
  5
54C
330
1F
100
AcDbEntity
  8
0
  6
SLD-Durchgehend
 62
     7
100
AcDbLine
 10
230.7273838414
 20
144.6394250153
 30
0.0
 11
230.6692908926
 21
144.5633032204
 31
0.0
  0
LINE
  5
54D
330
1F
100
AcDbEntity
  8
0
  6
SLD-Durchgehend
 62
     7
100
AcDbLine
 10
230.6692908926
 20
144.5633032204
 30
0.0
 11
230.604186726
 21
144.4921894384
 31
0.0
  0
LINE
  5
54E
330
1F
100
AcDbEntity
  8
0
  6
SLD-Durchgehend
 62
     7
100
AcDbLine
 10
230.604186726
 20
144.4921894384
 30
0.0
 11
230.5320713414
 21
144.4250820666
 31
0.0
  0
LINE
  5
54F
330
1F
100
AcDbEntity
  8
0
  6
SLD-Durchgehend
 62
     7
100
AcDbLine
 10
230.5320713414
 20
144.4250820666
 30
0.0
 11
230.4539463414
 21
144.3629827076
 31
0.0
  0
LINE
  5
550
330
1F
100
AcDbEntity
  8
0
  6
SLD-Durchgehend
 62
     7
100
AcDbLine
 10
230.4539463414
 20
144.3629827076
 30
0.0
 11
230.369811726
 21
144.3048897589
 31
0.0
  0
LINE
  5
551
330
1F
100
AcDbEntity
  8
0
  6
SLD-Durchgehend
 62
     7
100
AcDbLine
 10
230.369811726
 20
144.3048897589
 30
0.0
 11
230.2796674952
 21
144.251804823
 31
0.0
  0
LINE
  5
552
330
1F
100
AcDbEntity
  8
0
  6
SLD-Durchgehend
 62
     7
100
AcDbLine
 10
230.2796674952
 20
144.251804823
 30
0.0
 11
230.1835136491
 21
144.2037278999
 31
0.0
  0
LINE
  5
553
330
1F
100
AcDbEntity
  8
0
  6
SLD-Durchgehend
 62
     7
100
AcDbLine
 10
230.1835136491
 20
144.2037278999
 30
0.0
 11
230.0823517901
 21
144.1626621948
 31
0.0
  0
LINE
  5
554
330
1F
100
AcDbEntity
  8
0
  6
SLD-Durchgehend
 62
     7
100
AcDbLine
 10
230.0823517901
 20
144.1626621948
 30
0.0
 11
229.9751803157
 21
144.127606105
 31
0.0
  0
LINE
  5
555
330
1F
100
AcDbEntity
  8
0
  6
SLD-Durchgehend
 62
     7
100
AcDbLine
 10
229.9751803157
 20
144.127606105
 30
0.0
 11
229.8630008285
 21
144.0995612332
 31
0.0
  0
LINE
  5
556
330
1F
100
AcDbEntity
  8
0
  6
SLD-Durchgehend
 62
     7
100
AcDbLine
 10
229.8630008285
 20
144.0995612332
 30
0.0
 11
229.744811726
 21
144.0775259768
 31
0.0
  0
LINE
  5
557
330
1F
100
AcDbEntity
  8
0
  6
SLD-Durchgehend
 62
     7
100
AcDbLine
 10
229.744811726
 20
144.0775259768
 30
0.0
 11
229.6216146106
 21
144.0615003358
 31
0.0
  0
LINE
  5
558
330
1F
100
AcDbEntity
  8
0
  6
SLD-Durchgehend
 62
     7
100
AcDbLine
 10
229.6216146106
 20
144.0615003358
 30
0.0
 11
229.4934094824
 21
144.0514843102
 31
0.0
  0
LINE
  5
559
330
1F
100
AcDbEntity
  8
0
  6
SLD-Durchgehend
 62
     7
100
AcDbLine
 10
229.4934094824
 20
144.0514843102
 30
0.0
 11
229.3591947388
 21
144.0484795025
 31
0.0
  0
LINE
  5
55A
330
1F
100
AcDbEntity
  8
0
  6
SLD-Durchgehend
 62
     7
100
AcDbLine
 10
229.3591947388
 20
144.0484795025
 30
0.0
 11
229.2009415337
 21
144.0524859127
 31
0.0
  0
LINE
  5
55B
330
1F
100
AcDbEntity
  8
0
  6
SLD-Durchgehend
 62
     7
100
AcDbLine
 10
229.2009415337
 20
144.0524859127
 30
0.0
 11
229.0496995465
 21
144.0665083486
 31
0.0
  0
LINE
  5
55C
330
1F
100
AcDbEntity
  8
0
  6
SLD-Durchgehend
 62
     7
100
AcDbLine
 10
229.0496995465
 20
144.0665083486
 30
0.0
 11
228.9064703798
 21
144.088543605
 31
0.0
  0
LINE
  5
55D
330
1F
100
AcDbEntity
  8
0
  6
SLD-Durchgehend
 62
     7
100
AcDbLine
 10
228.9064703798
 20
144.088543605
 30
0.0
 11
228.7722556362
 21
144.1205948871
 31
0.0
  0
LINE
  5
55E
330
1F
100
AcDbEntity
  8
0
  6
SLD-Durchgehend
 62
     7
100
AcDbLine
 10
228.7722556362
 20
144.1205948871
 30
0.0
 11
228.644050508
 21
144.1606589896
 31
0.0
  0
LINE
  5
55F
330
1F
100
AcDbEntity
  8
0
  6
SLD-Durchgehend
 62
     7
100
AcDbLine
 10
228.644050508
 20
144.1606589896
 30
0.0
 11
228.5248598029
 21
144.2097375153
 31
0.0
  0
LINE
  5
560
330
1F
100
AcDbEntity
  8
0
  6
SLD-Durchgehend
 62
     7
100
AcDbLine
 10
228.5248598029
 20
144.2097375153
 30
0.0
 11
228.4136819183
 21
144.2688320666
 31
0.0
  0
LINE
  5
561
330
1F
100
AcDbEntity
  8
0
  6
SLD-Durchgehend
 62
     7
100
AcDbLine
 10
228.4136819183
 20
144.2688320666
 30
0.0
 11
228.3095152516
 21
144.3359394384
 31
0.0
  0
LINE
  5
562
330
1F
100
AcDbEntity
  8
0
  6
SLD-Durchgehend
 62
     7
100
AcDbLine
 10
228.3095152516
 20
144.3359394384
 30
0.0
 11
228.2163662132
 21
144.4120612332
 31
0.0
  0
LINE
  5
563
330
1F
100
AcDbEntity
  8
0
  6
SLD-Durchgehend
 62
     7
100
AcDbLine
 10
228.2163662132
 20
144.4120612332
 30
0.0
 11
228.1352364055
 21
144.4981990537
 31
0.0
  0
LINE
  5
564
330
1F
100
AcDbEntity
  8
0
  6
SLD-Durchgehend
 62
     7
100
AcDbLine
 10
228.1352364055
 20
144.4981990537
 30
0.0
 11
228.0681290337
 21
144.5923496948
 31
0.0
  0
LINE
  5
565
330
1F
100
AcDbEntity
  8
0
  6
SLD-Durchgehend
 62
     7
100
AcDbLine
 10
228.0681290337
 20
144.5923496948
 30
0.0
 11
228.0130408926
 21
144.6965163614
 31
0.0
  0
LINE
  5
566
330
1F
100
AcDbEntity
  8
0
  6
SLD-Durchgehend
 62
     7
100
AcDbLine
 10
228.0130408926
 20
144.6965163614
 30
0.0
 11
227.970973585
 21
144.8086958486
 31
0.0
  0
LINE
  5
567
330
1F
100
AcDbEntity
  8
0
  6
SLD-Durchgehend
 62
     7
100
AcDbLine
 10
227.970973585
 20
144.8086958486
 30
0.0
 11
227.9419271106
 21
144.9308913614
 31
0.0
  0
LINE
  5
568
330
1F
100
AcDbEntity
  8
0
  6
SLD-Durchgehend
 62
     7
100
AcDbLine
 10
227.9419271106
 20
144.9308913614
 30
0.0
 11
227.9259014696
 21
145.0621012973
 31
0.0
  0
LINE
  5
569
330
1F
100
AcDbEntity
  8
0
  6
SLD-Durchgehend
 62
     7
100
AcDbLine
 10
227.9259014696
 20
145.0621012973
 30
0.0
 11
227.9228966619
 21
145.2023256563
 31
0.0
  0
LINE
  5
56A
330
1F
100
AcDbEntity
  8
0
  6
SLD-Durchgehend
 62
     7
100
AcDbLine
 10
228.4998108866
 20
147.3407471307
 30
0.0
 11
228.5038261491
 21
147.1764843102
 31
0.0
  0
LINE
  5
56B
330
1F
100
AcDbEntity
  8
0
  6
SLD-Durchgehend
 62
     7
100
AcDbLine
 10
228.5038261491
 20
147.1764843102
 30
0.0
 11
228.5168469824
 21
147.0232391179
 31
0.0
  0
LINE
  5
56C
330
1F
100
AcDbEntity
  8
0
  6
SLD-Durchgehend
 62
     7
100
AcDbLine
 10
228.5168469824
 20
147.0232391179
 30
0.0
 11
228.5368790337
 21
146.8820131563
 31
0.0
  0
LINE
  5
56D
330
1F
100
AcDbEntity
  8
0
  6
SLD-Durchgehend
 62
     7
100
AcDbLine
 10
228.5368790337
 20
146.8820131563
 30
0.0
 11
228.565925508
 21
146.7528064255
 31
0.0
  0
LINE
  5
56E
330
1F
100
AcDbEntity
  8
0
  6
SLD-Durchgehend
 62
     7
100
AcDbLine
 10
228.565925508
 20
146.7528064255
 30
0.0
 11
228.6029848029
 21
146.634617323
 31
0.0
  0
LINE
  5
56F
330
1F
100
AcDbEntity
  8
0
  6
SLD-Durchgehend
 62
     7
100
AcDbLine
 10
228.6029848029
 20
146.634617323
 30
0.0
 11
228.6490585209
 21
146.5274458486
 31
0.0
  0
LINE
  5
570
330
1F
100
AcDbEntity
  8
0
  6
SLD-Durchgehend
 62
     7
100
AcDbLine
 10
228.6490585209
 20
146.5274458486
 30
0.0
 11
228.7021434568
 21
146.432293605
 31
0.0
  0
LINE
  5
571
330
1F
100
AcDbEntity
  8
0
  6
SLD-Durchgehend
 62
     7
100
AcDbLine
 10
228.7021434568
 20
146.432293605
 30
0.0
 11
228.7642428157
 21
146.3481589896
 31
0.0
  0
LINE
  5
572
330
1F
100
AcDbEntity
  8
0
  6
SLD-Durchgehend
 62
     7
100
AcDbLine
 10
228.7642428157
 20
146.3481589896
 30
0.0
 11
228.8323517901
 21
146.2750420025
 31
0.0
  0
LINE
  5
573
330
1F
100
AcDbEntity
  8
0
  6
SLD-Durchgehend
 62
     7
100
AcDbLine
 10
228.8323517901
 20
146.2750420025
 30
0.0
 11
228.9044671747
 21
146.2119410409
 31
0.0
  0
LINE
  5
574
330
1F
100
AcDbEntity
  8
0
  6
SLD-Durchgehend
 62
     7
100
AcDbLine
 10
228.9044671747
 20
146.2119410409
 30
0.0
 11
228.9815905721
 21
146.1578545025
 31
0.0
  0
LINE
  5
575
330
1F
100
AcDbEntity
  8
0
  6
SLD-Durchgehend
 62
     7
100
AcDbLine
 10
228.9815905721
 20
146.1578545025
 30
0.0
 11
229.0627203798
 21
146.1137839896
 31
0.0
  0
LINE
  5
576
330
1F
100
AcDbEntity
  8
0
  6
SLD-Durchgehend
 62
     7
100
AcDbLine
 10
229.0627203798
 20
146.1137839896
 30
0.0
 11
229.1468549952
 21
146.0797295025
 31
0.0
  0
LINE
  5
577
330
1F
100
AcDbEntity
  8
0
  6
SLD-Durchgehend
 62
     7
100
AcDbLine
 10
229.1468549952
 20
146.0797295025
 30
0.0
 11
229.2359976234
 21
146.0556910409
 31
0.0
  0
LINE
  5
578
330
1F
100
AcDbEntity
  8
0
  6
SLD-Durchgehend
 62
     7
100
AcDbLine
 10
229.2359976234
 20
146.0556910409
 30
0.0
 11
229.3301482644
 21
146.0406670025
 31
0.0
  0
LINE
  5
579
330
1F
100
AcDbEntity
  8
0
  6
SLD-Durchgehend
 62
     7
100
AcDbLine
 10
229.3301482644
 20
146.0406670025
 30
0.0
 11
229.4273037132
 21
146.0356589896
 31
0.0
  0
LINE
  5
57A
330
1F
100
AcDbEntity
  8
0
  6
SLD-Durchgehend
 62
     7
100
AcDbLine
 10
229.4273037132
 20
146.0356589896
 30
0.0
 11
229.5244591619
 21
146.0406670025
 31
0.0
  0
LINE
  5
57B
330
1F
100
AcDbEntity
  8
0
  6
SLD-Durchgehend
 62
     7
100
AcDbLine
 10
229.5244591619
 20
146.0406670025
 30
0.0
 11
229.6176082003
 21
146.0546894384
 31
0.0
  0
LINE
  5
57C
330
1F
100
AcDbEntity
  8
0
  6
SLD-Durchgehend
 62
     7
100
AcDbLine
 10
229.6176082003
 20
146.0546894384
 30
0.0
 11
229.705749226
 21
146.0797295025
 31
0.0
  0
LINE
  5
57D
330
1F
100
AcDbEntity
  8
0
  6
SLD-Durchgehend
 62
     7
100
AcDbLine
 10
229.705749226
 20
146.0797295025
 30
0.0
 11
229.7908854439
 21
146.1137839896
 31
0.0
  0
LINE
  5
57E
330
1F
100
AcDbEntity
  8
0
  6
SLD-Durchgehend
 62
     7
100
AcDbLine
 10
229.7908854439
 20
146.1137839896
 30
0.0
 11
229.8720152516
 21
146.1568528999
 31
0.0
  0
LINE
  5
57F
330
1F
100
AcDbEntity
  8
0
  6
SLD-Durchgehend
 62
     7
100
AcDbLine
 10
229.8720152516
 20
146.1568528999
 30
0.0
 11
229.9491386491
 21
146.2099378358
 31
0.0
  0
LINE
  5
580
330
1F
100
AcDbEntity
  8
0
  6
SLD-Durchgehend
 62
     7
100
AcDbLine
 10
229.9491386491
 20
146.2099378358
 30
0.0
 11
230.0212540337
 21
146.2730387973
 31
0.0
  0
LINE
  5
581
330
1F
100
AcDbEntity
  8
0
  6
SLD-Durchgehend
 62
     7
100
AcDbLine
 10
230.0212540337
 20
146.2730387973
 30
0.0
 11
230.0903646106
 21
146.3461557845
 31
0.0
  0
LINE
  5
582
330
1F
100
AcDbEntity
  8
0
  6
SLD-Durchgehend
 62
     7
100
AcDbLine
 10
230.0903646106
 20
146.3461557845
 30
0.0
 11
230.1534655721
 21
146.4292887973
 31
0.0
  0
LINE
  5
583
330
1F
100
AcDbEntity
  8
0
  6
SLD-Durchgehend
 62
     7
100
AcDbLine
 10
230.1534655721
 20
146.4292887973
 30
0.0
 11
230.2075521106
 21
146.5234394384
 31
0.0
  0
LINE
  5
584
330
1F
100
AcDbEntity
  8
0
  6
SLD-Durchgehend
 62
     7
100
AcDbLine
 10
230.2075521106
 20
146.5234394384
 30
0.0
 11
230.2536258285
 21
146.6296093102
 31
0.0
  0
LINE
  5
585
330
1F
100
AcDbEntity
  8
0
  6
SLD-Durchgehend
 62
     7
100
AcDbLine
 10
230.2536258285
 20
146.6296093102
 30
0.0
 11
230.291686726
 21
146.7457952076
 31
0.0
  0
LINE
  5
586
330
1F
100
AcDbEntity
  8
0
  6
SLD-Durchgehend
 62
     7
100
AcDbLine
 10
230.291686726
 20
146.7457952076
 30
0.0
 11
230.3207332003
 21
146.8729987332
 31
0.0
  0
LINE
  5
587
330
1F
100
AcDbEntity
  8
0
  6
SLD-Durchgehend
 62
     7
100
AcDbLine
 10
230.3207332003
 20
146.8729987332
 30
0.0
 11
230.3417668542
 21
147.0112198871
 31
0.0
  0
LINE
  5
588
330
1F
100
AcDbEntity
  8
0
  6
SLD-Durchgehend
 62
     7
100
AcDbLine
 10
230.3417668542
 20
147.0112198871
 30
0.0
 11
230.3547876875
 21
147.1604586691
 31
0.0
  0
LINE
  5
589
330
1F
100
AcDbEntity
  8
0
  6
SLD-Durchgehend
 62
     7
100
AcDbLine
 10
230.3547876875
 20
147.1604586691
 30
0.0
 11
230.3587940978
 21
147.3207150794
 31
0.0
  0
LINE
  5
58A
330
1F
100
AcDbEntity
  8
0
  6
SLD-Durchgehend
 62
     7
100
AcDbLine
 10
230.3587940978
 20
147.3207150794
 30
0.0
 11
230.3547876875
 21
147.4749618743
 31
0.0
  0
LINE
  5
58B
330
1F
100
AcDbEntity
  8
0
  6
SLD-Durchgehend
 62
     7
100
AcDbLine
 10
230.3547876875
 20
147.4749618743
 30
0.0
 11
230.3417668542
 21
147.6181910409
 31
0.0
  0
LINE
  5
58C
330
1F
100
AcDbEntity
  8
0
  6
SLD-Durchgehend
 62
     7
100
AcDbLine
 10
230.3417668542
 20
147.6181910409
 30
0.0
 11
230.3197315978
 21
147.7524057845
 31
0.0
  0
LINE
  5
58D
330
1F
100
AcDbEntity
  8
0
  6
SLD-Durchgehend
 62
     7
100
AcDbLine
 10
230.3197315978
 20
147.7524057845
 30
0.0
 11
230.2896835209
 21
147.877606105
 31
0.0
  0
LINE
  5
58E
330
1F
100
AcDbEntity
  8
0
  6
SLD-Durchgehend
 62
     7
100
AcDbLine
 10
230.2896835209
 20
147.877606105
 30
0.0
 11
230.2506210209
 21
147.9917887973
 31
0.0
  0
LINE
  5
58F
330
1F
100
AcDbEntity
  8
0
  6
SLD-Durchgehend
 62
     7
100
AcDbLine
 10
230.2506210209
 20
147.9917887973
 30
0.0
 11
230.2035457003
 21
148.0969570666
 31
0.0
  0
LINE
  5
590
330
1F
100
AcDbEntity
  8
0
  6
SLD-Durchgehend
 62
     7
100
AcDbLine
 10
230.2035457003
 20
148.0969570666
 30
0.0
 11
230.1474559568
 21
148.1921093102
 31
0.0
  0
LINE
  5
591
330
1F
100
AcDbEntity
  8
0
  6
SLD-Durchgehend
 62
     7
100
AcDbLine
 10
230.1474559568
 20
148.1921093102
 30
0.0
 11
230.0823517901
 21
148.2772455281
 31
0.0
  0
LINE
  5
592
330
1F
100
AcDbEntity
  8
0
  6
SLD-Durchgehend
 62
     7
100
AcDbLine
 10
230.0823517901
 20
148.2772455281
 30
0.0
 11
230.011238008
 21
148.3523657204
 31
0.0
  0
LINE
  5
593
330
1F
100
AcDbEntity
  8
0
  6
SLD-Durchgehend
 62
     7
100
AcDbLine
 10
230.011238008
 20
148.3523657204
 30
0.0
 11
229.9371194183
 21
148.4184714896
 31
0.0
  0
LINE
  5
594
330
1F
100
AcDbEntity
  8
0
  6
SLD-Durchgehend
 62
     7
100
AcDbLine
 10
229.9371194183
 20
148.4184714896
 30
0.0
 11
229.8599960209
 21
148.4735596307
 31
0.0
  0
LINE
  5
595
330
1F
100
AcDbEntity
  8
0
  6
SLD-Durchgehend
 62
     7
100
AcDbLine
 10
229.8599960209
 20
148.4735596307
 30
0.0
 11
229.7788662132
 21
148.5196333486
 31
0.0
  0
LINE
  5
596
330
1F
100
AcDbEntity
  8
0
  6
SLD-Durchgehend
 62
     7
100
AcDbLine
 10
229.7788662132
 20
148.5196333486
 30
0.0
 11
229.6937299952
 21
148.5546894384
 31
0.0
  0
LINE
  5
597
330
1F
100
AcDbEntity
  8
0
  6
SLD-Durchgehend
 62
     7
100
AcDbLine
 10
229.6937299952
 20
148.5546894384
 30
0.0
 11
229.6055889696
 21
148.5797295025
 31
0.0
  0
LINE
  5
598
330
1F
100
AcDbEntity
  8
0
  6
SLD-Durchgehend
 62
     7
100
AcDbLine
 10
229.6055889696
 20
148.5797295025
 30
0.0
 11
229.5134415337
 21
148.5947535409
 31
0.0
  0
LINE
  5
599
330
1F
100
AcDbEntity
  8
0
  6
SLD-Durchgehend
 62
     7
100
AcDbLine
 10
229.5134415337
 20
148.5947535409
 30
0.0
 11
229.4182892901
 21
148.5997615537
 31
0.0
  0
LINE
  5
59A
330
1F
100
AcDbEntity
  8
0
  6
SLD-Durchgehend
 62
     7
100
AcDbLine
 10
229.4182892901
 20
148.5997615537
 30
0.0
 11
229.3241386491
 21
148.5947535409
 31
0.0
  0
LINE
  5
59B
330
1F
100
AcDbEntity
  8
0
  6
SLD-Durchgehend
 62
     7
100
AcDbLine
 10
229.3241386491
 20
148.5947535409
 30
0.0
 11
229.2339944183
 21
148.5797295025
 31
0.0
  0
LINE
  5
59C
330
1F
100
AcDbEntity
  8
0
  6
SLD-Durchgehend
 62
     7
100
AcDbLine
 10
229.2339944183
 20
148.5797295025
 30
0.0
 11
229.1478565978
 21
148.5546894384
 31
0.0
  0
LINE
  5
59D
330
1F
100
AcDbEntity
  8
0
  6
SLD-Durchgehend
 62
     7
100
AcDbLine
 10
229.1478565978
 20
148.5546894384
 30
0.0
 11
229.064723585
 21
148.5206349512
 31
0.0
  0
LINE
  5
59E
330
1F
100
AcDbEntity
  8
0
  6
SLD-Durchgehend
 62
     7
100
AcDbLine
 10
229.064723585
 20
148.5206349512
 30
0.0
 11
228.9845953798
 21
148.4755628358
 31
0.0
  0
LINE
  5
59F
330
1F
100
AcDbEntity
  8
0
  6
SLD-Durchgehend
 62
     7
100
AcDbLine
 10
228.9845953798
 20
148.4755628358
 30
0.0
 11
228.908473585
 21
148.4214762973
 31
0.0
  0
LINE
  5
5A0
330
1F
100
AcDbEntity
  8
0
  6
SLD-Durchgehend
 62
     7
100
AcDbLine
 10
228.908473585
 20
148.4214762973
 30
0.0
 11
228.8363582003
 21
148.3563721307
 31
0.0
  0
LINE
  5
5A1
330
1F
100
AcDbEntity
  8
0
  6
SLD-Durchgehend
 62
     7
100
AcDbLine
 10
228.8363582003
 20
148.3563721307
 30
0.0
 11
228.7672476234
 21
148.2822535409
 31
0.0
  0
LINE
  5
5A2
330
1F
100
AcDbEntity
  8
0
  6
SLD-Durchgehend
 62
     7
100
AcDbLine
 10
228.7672476234
 20
148.2822535409
 30
0.0
 11
228.7041466619
 21
148.1981189255
 31
0.0
  0
LINE
  5
5A3
330
1F
100
AcDbEntity
  8
0
  6
SLD-Durchgehend
 62
     7
100
AcDbLine
 10
228.7041466619
 20
148.1981189255
 30
0.0
 11
228.6500601234
 21
148.1039682845
 31
0.0
  0
LINE
  5
5A4
330
1F
100
AcDbEntity
  8
0
  6
SLD-Durchgehend
 62
     7
100
AcDbLine
 10
228.6500601234
 20
148.1039682845
 30
0.0
 11
228.6039864055
 21
148.0008032204
 31
0.0
  0
LINE
  5
5A5
330
1F
100
AcDbEntity
  8
0
  6
SLD-Durchgehend
 62
     7
100
AcDbLine
 10
228.6039864055
 20
148.0008032204
 30
0.0
 11
228.5669271106
 21
147.8886237332
 31
0.0
  0
LINE
  5
5A6
330
1F
100
AcDbEntity
  8
0
  6
SLD-Durchgehend
 62
     7
100
AcDbLine
 10
228.5669271106
 20
147.8886237332
 30
0.0
 11
228.5378806362
 21
147.7654266179
 31
0.0
  0
LINE
  5
5A7
330
1F
100
AcDbEntity
  8
0
  6
SLD-Durchgehend
 62
     7
100
AcDbLine
 10
228.5378806362
 20
147.7654266179
 30
0.0
 11
228.5168469824
 21
147.6332150794
 31
0.0
  0
LINE
  5
5A8
330
1F
100
AcDbEntity
  8
0
  6
SLD-Durchgehend
 62
     7
100
AcDbLine
 10
228.5168469824
 20
147.6332150794
 30
0.0
 11
228.5038261491
 21
147.4919891179
 31
0.0
  0
LINE
  5
5A9
330
1F
100
AcDbEntity
  8
0
  6
SLD-Durchgehend
 62
     7
100
AcDbLine
 10
228.5038261491
 20
147.4919891179
 30
0.0
 11
228.4998197388
 21
147.3407471307
 31
0.0
  0
LINE
  5
5AA
330
1F
100
AcDbEntity
  8
0
  6
SLD-Durchgehend
 62
     7
370
    15
100
AcDbLine
 10
242.9820849421
 20
199.6517374517
 30
0.0
 11
242.9820849421
 21
89.6517374517
 31
0.0
  0
LINE
  5
5AB
330
1F
100
AcDbEntity
  8
0
  6
SLD-Durchgehend
 62
     7
370
    15
100
AcDbLine
 10
237.9820849421
 20
143.2578310191
 30
0.0
 11
237.9820849421
 21
153.6754475155
 31
0.0
  0
LINE
  5
5AC
330
1F
100
AcDbEntity
  8
0
  6
SLD-Durchgehend
 62
     7
370
    15
100
AcDbLine
 10
167.9820849421
 20
153.6754475155
 30
0.0
 11
167.9820849421
 21
143.2578310191
 31
0.0
  0
LINE
  5
5AD
330
1F
100
AcDbEntity
  8
0
  6
SLD-Durchgehend
 62
     7
370
    15
100
AcDbLine
 10
162.9820849421
 20
89.6517374517
 30
0.0
 11
162.9820849421
 21
199.6517374517
 31
0.0
  0
LINE
  5
5AE
330
1F
100
AcDbEntity
  8
0
  6
SLD-Durchgehend
 62
     7
370
    15
100
AcDbLine
 10
167.9820849421
 20
204.6517374517
 30
0.0
 11
237.9820849421
 21
204.6517374517
 31
0.0
  0
LINE
  5
5AF
330
1F
100
AcDbEntity
  8
0
  6
SLD-Durchgehend
 62
     7
370
    15
100
AcDbLine
 10
167.9820849421
 20
143.2578310191
 30
0.0
 11
237.9820849421
 21
143.2578310191
 31
0.0
  0
LINE
  5
5B0
330
1F
100
AcDbEntity
  8
0
  6
SLD-Durchgehend
 62
     7
370
    15
100
AcDbLine
 10
237.9820849421
 20
153.6754475155
 30
0.0
 11
167.9820849421
 21
153.6754475155
 31
0.0
  0
LINE
  5
5B1
330
1F
100
AcDbEntity
  8
0
  6
SLD-Durchgehend
 62
     7
370
    15
100
AcDbLine
 10
237.9820849421
 20
84.6517374517
 30
0.0
 11
167.9820849421
 21
84.6517374517
 31
0.0
  0
ARC
  5
5B2
330
1F
100
AcDbEntity
  8
0
  6
SLD-Durchgehend
 62
     7
370
    15
100
AcDbCircle
 10
237.9820849421
 20
89.6517374517
 30
0.0
 40
5.000000000000028
100
AcDbArc
 50
270.0
 51
0.0
  0
ARC
  5
5B3
330
1F
100
AcDbEntity
  8
0
  6
SLD-Durchgehend
 62
     7
370
    15
100
AcDbCircle
 10
237.9820849421
 20
199.6517374517
 30
0.0
 40
5.000000000000028
100
AcDbArc
 50
0.0
 51
90.0
  0
ARC
  5
5B4
330
1F
100
AcDbEntity
  8
0
  6
SLD-Durchgehend
 62
     7
370
    15
100
AcDbCircle
 10
167.9820849421
 20
89.6517374517
 30
0.0
 40
5.0
100
AcDbArc
 50
180.0
 51
270.0
  0
ARC
  5
5B5
330
1F
100
AcDbEntity
  8
0
  6
SLD-Durchgehend
 62
     7
370
    15
100
AcDbCircle
 10
167.9820849421
 20
199.6517374517
 30
0.0
 40
5.000000000000028
100
AcDbArc
 50
90.0
 51
180.0
  0
ENDSEC
  0
SECTION
  2
OBJECTS
  0
DICTIONARY
  5
C
330
0
100
AcDbDictionary
281
     1
  3
ACAD_GROUP
350
D
  3
ACAD_LAYOUT
350
1A
  3
ACAD_MLINESTYLE
350
17
  3
ACAD_PLOTSETTINGS
350
19
  3
ACAD_PLOTSTYLENAME
350
E
  3
ACAD_SCALELIST
350
47
  0
DICTIONARY
  5
D
102
{ACAD_REACTORS
330
C
102
}
330
C
100
AcDbDictionary
281
     1
  0
DICTIONARY
  5
1A
102
{ACAD_REACTORS
330
C
102
}
330
C
100
AcDbDictionary
281
     1
  3
Layout1
350
1E
  3
Layout2
350
26
  3
Model
350
22
  0
DICTIONARY
  5
17
102
{ACAD_REACTORS
330
C
102
}
330
C
100
AcDbDictionary
281
     1
  3
Standard
350
18
  0
DICTIONARY
  5
19
102
{ACAD_REACTORS
330
C
102
}
330
C
100
AcDbDictionary
281
     1
  0
ACDBDICTIONARYWDFLT
  5
E
102
{ACAD_REACTORS
330
C
102
}
330
C
100
AcDbDictionary
281
     1
  3
Normal
350
F
100
AcDbDictionaryWithDefault
340
F
  0
DICTIONARY
  5
47
102
{ACAD_REACTORS
330
C
102
}
330
C
100
AcDbDictionary
281
     1
  3
A0
350
48
  3
A1
350
49
  3
A2
350
4A
  3
A3
350
4B
  3
A4
350
4C
  3
A5
350
4D
  3
A6
350
4E
  3
A7
350
4F
  3
A8
350
50
  3
A9
350
51
  3
B0
350
52
  3
B1
350
53
  3
B2
350
54
  3
B3
350
55
  3
B4
350
56
  3
B5
350
57
  3
B6
350
58
  3
B7
350
59
  3
B8
350
5A
  3
B9
350
5B
  3
C0
350
5C
  3
C1
350
5D
  3
C2
350
5E
  3
C3
350
5F
  3
C4
350
60
  3
C5
350
61
  3
C6
350
62
  3
C7
350
63
  3
C8
350
64
  3
C9
350
65
  3
D0
350
66
  3
D1
350
67
  3
D2
350
68
  0
LAYOUT
  5
1E
102
{ACAD_REACTORS
330
1A
102
}
330
1A
100
AcDbPlotSettings
  1

  2
none_device
  4

  6

 40
0.0
 41
0.0
 42
0.0
 43
0.0
 44
0.0
 45
0.0
 46
0.0
 47
0.0
 48
0.0
 49
0.0
140
0.0
141
0.0
142
1.0
143
1.0
 70
   688
 72
     1
 73
     0
 74
     5
  7

 75
    16
147
1.0
148
0.0
149
0.0
100
AcDbLayout
  1
Layout1
 70
     1
 71
     1
 10
0.0
 20
0.0
 11
420.0
 21
297.0
 12
0.0
 22
0.0
 32
0.0
 14
1.0000000000E+20
 24
1.0000000000E+20
 34
1.0000000000E+20
 15
-1.0000000000E+20
 25
-1.0000000000E+20
 35
-1.0000000000E+20
146
0.0
 13
0.0
 23
0.0
 33
0.0
 16
1.0
 26
0.0
 36
0.0
 17
0.0
 27
1.0
 37
0.0
 76
     0
330
1B
  0
LAYOUT
  5
26
102
{ACAD_REACTORS
330
1A
102
}
330
1A
100
AcDbPlotSettings
  1

  2
none_device
  4

  6

 40
0.0
 41
0.0
 42
0.0
 43
0.0
 44
0.0
 45
0.0
 46
0.0
 47
0.0
 48
0.0
 49
0.0
140
0.0
141
0.0
142
1.0
143
1.0
 70
   688
 72
     1
 73
     0
 74
     5
  7

 75
    16
147
1.0
148
0.0
149
0.0
100
AcDbLayout
  1
Layout2
 70
     1
 71
     2
 10
0.0
 20
0.0
 11
0.0
 21
0.0
 12
0.0
 22
0.0
 32
0.0
 14
0.0
 24
0.0
 34
0.0
 15
0.0
 25
0.0
 35
0.0
146
0.0
 13
0.0
 23
0.0
 33
0.0
 16
1.0
 26
0.0
 36
0.0
 17
0.0
 27
1.0
 37
0.0
 76
     0
330
23
  0
LAYOUT
  5
22
102
{ACAD_REACTORS
330
1A
102
}
330
1A
100
AcDbPlotSettings
  1

  2
none_device
  4
Letter_(8.50_x_11.00_Inches)
  6

 40
6.35
 41
6.35
 42
6.35000508
 43
6.35000508
 44
215.9
 45
279.4
 46
0.0
 47
0.0
 48
0.0
 49
0.0
140
0.0
141
0.0
142
1.0
143
1.0
 70
  1712
 72
     1
 73
     0
 74
     0
  7

 75
     0
147
1.0
148
0.0
149
0.0
100
AcDbLayout
  1
Model
 70
     1
 71
     0
 10
0.0
 20
0.0
 11
420.0
 21
297.0
 12
0.0
 22
0.0
 32
0.0
 14
0.0
 24
0.0
 34
0.0
 15
420.0
 25
297.0
 35
0.0
146
0.0
 13
0.0
 23
0.0
 33
0.0
 16
1.0
 26
0.0
 36
0.0
 17
0.0
 27
1.0
 37
0.0
 76
     0
330
1F
331
29
  0
MLINESTYLE
  5
18
102
{ACAD_REACTORS
330
17
102
}
330
17
100
AcDbMlineStyle
  2
Standard
 70
     0
  3

 62
   256
 51
90.0
 52
90.0
 71
     2
 49
0.5
 62
   256
  6
BYLAYER
 49
-0.5
 62
   256
  6
BYLAYER
  0
ACDBPLACEHOLDER
  5
F
102
{ACAD_REACTORS
330
E
102
}
330
E
  0
SCALE
  5
48
102
{ACAD_REACTORS
330
47
102
}
330
47
100
AcDbScale
 70
     0
300
1:1
140
1.0
141
1.0
290
     1
  0
SCALE
  5
49
102
{ACAD_REACTORS
330
47
102
}
330
47
100
AcDbScale
 70
     0
300
1:2
140
1.0
141
2.0
290
     0
  0
SCALE
  5
4A
102
{ACAD_REACTORS
330
47
102
}
330
47
100
AcDbScale
 70
     0
300
1:4
140
1.0
141
4.0
290
     0
  0
SCALE
  5
4B
102
{ACAD_REACTORS
330
47
102
}
330
47
100
AcDbScale
 70
     0
300
1:5
140
1.0
141
5.0
290
     0
  0
SCALE
  5
4C
102
{ACAD_REACTORS
330
47
102
}
330
47
100
AcDbScale
 70
     0
300
1:8
140
1.0
141
8.0
290
     0
  0
SCALE
  5
4D
102
{ACAD_REACTORS
330
47
102
}
330
47
100
AcDbScale
 70
     0
300
1:10
140
1.0
141
10.0
290
     0
  0
SCALE
  5
4E
102
{ACAD_REACTORS
330
47
102
}
330
47
100
AcDbScale
 70
     0
300
1:16
140
1.0
141
16.0
290
     0
  0
SCALE
  5
4F
102
{ACAD_REACTORS
330
47
102
}
330
47
100
AcDbScale
 70
     0
300
1:20
140
1.0
141
20.0
290
     0
  0
SCALE
  5
50
102
{ACAD_REACTORS
330
47
102
}
330
47
100
AcDbScale
 70
     0
300
1:30
140
1.0
141
30.0
290
     0
  0
SCALE
  5
51
102
{ACAD_REACTORS
330
47
102
}
330
47
100
AcDbScale
 70
     0
300
1:40
140
1.0
141
40.0
290
     0
  0
SCALE
  5
52
102
{ACAD_REACTORS
330
47
102
}
330
47
100
AcDbScale
 70
     0
300
1:50
140
1.0
141
50.0
290
     0
  0
SCALE
  5
53
102
{ACAD_REACTORS
330
47
102
}
330
47
100
AcDbScale
 70
     0
300
1:100
140
1.0
141
100.0
290
     0
  0
SCALE
  5
54
102
{ACAD_REACTORS
330
47
102
}
330
47
100
AcDbScale
 70
     0
300
2:1
140
2.0
141
1.0
290
     0
  0
SCALE
  5
55
102
{ACAD_REACTORS
330
47
102
}
330
47
100
AcDbScale
 70
     0
300
4:1
140
4.0
141
1.0
290
     0
  0
SCALE
  5
56
102
{ACAD_REACTORS
330
47
102
}
330
47
100
AcDbScale
 70
     0
300
8:1
140
8.0
141
1.0
290
     0
  0
SCALE
  5
57
102
{ACAD_REACTORS
330
47
102
}
330
47
100
AcDbScale
 70
     0
300
10:1
140
10.0
141
1.0
290
     0
  0
SCALE
  5
58
102
{ACAD_REACTORS
330
47
102
}
330
47
100
AcDbScale
 70
     0
300
100:1
140
100.0
141
1.0
290
     0
  0
SCALE
  5
59
102
{ACAD_REACTORS
330
47
102
}
330
47
100
AcDbScale
 70
     0
300
1/128" = 1'-0"
140
0.0078125
141
12.0
290
     0
  0
SCALE
  5
5A
102
{ACAD_REACTORS
330
47
102
}
330
47
100
AcDbScale
 70
     0
300
1/64" = 1'-0"
140
0.015625
141
12.0
290
     0
  0
SCALE
  5
5B
102
{ACAD_REACTORS
330
47
102
}
330
47
100
AcDbScale
 70
     0
300
1/32" = 1'-0"
140
0.03125
141
12.0
290
     0
  0
SCALE
  5
5C
102
{ACAD_REACTORS
330
47
102
}
330
47
100
AcDbScale
 70
     0
300
1/16" = 1'-0"
140
0.0625
141
12.0
290
     0
  0
SCALE
  5
5D
102
{ACAD_REACTORS
330
47
102
}
330
47
100
AcDbScale
 70
     0
300
3/32" = 1'-0"
140
0.09375
141
12.0
290
     0
  0
SCALE
  5
5E
102
{ACAD_REACTORS
330
47
102
}
330
47
100
AcDbScale
 70
     0
300
1/8" = 1'-0"
140
0.125
141
12.0
290
     0
  0
SCALE
  5
5F
102
{ACAD_REACTORS
330
47
102
}
330
47
100
AcDbScale
 70
     0
300
3/16" = 1'-0"
140
0.1875
141
12.0
290
     0
  0
SCALE
  5
60
102
{ACAD_REACTORS
330
47
102
}
330
47
100
AcDbScale
 70
     0
300
1/4" = 1'-0"
140
0.25
141
12.0
290
     0
  0
SCALE
  5
61
102
{ACAD_REACTORS
330
47
102
}
330
47
100
AcDbScale
 70
     0
300
3/8" = 1'-0"
140
0.375
141
12.0
290
     0
  0
SCALE
  5
62
102
{ACAD_REACTORS
330
47
102
}
330
47
100
AcDbScale
 70
     0
300
1/2" = 1'-0"
140
0.5
141
12.0
290
     0
  0
SCALE
  5
63
102
{ACAD_REACTORS
330
47
102
}
330
47
100
AcDbScale
 70
     0
300
3/4" = 1'-0"
140
0.75
141
12.0
290
     0
  0
SCALE
  5
64
102
{ACAD_REACTORS
330
47
102
}
330
47
100
AcDbScale
 70
     0
300
1" = 1'-0"
140
1.0
141
12.0
290
     0
  0
SCALE
  5
65
102
{ACAD_REACTORS
330
47
102
}
330
47
100
AcDbScale
 70
     0
300
1-1/2" = 1'-0"
140
1.5
141
12.0
290
     0
  0
SCALE
  5
66
102
{ACAD_REACTORS
330
47
102
}
330
47
100
AcDbScale
 70
     0
300
3" = 1'-0"
140
3.0
141
12.0
290
     0
  0
SCALE
  5
67
102
{ACAD_REACTORS
330
47
102
}
330
47
100
AcDbScale
 70
     0
300
6" = 1'-0"
140
6.0
141
12.0
290
     0
  0
SCALE
  5
68
102
{ACAD_REACTORS
330
47
102
}
330
47
100
AcDbScale
 70
     0
300
1'-0" = 1'-0"
140
12.0
141
12.0
290
     0
  0
ENDSEC
  0
EOF
