  0
SECTION
  2
HEADER
  9
$ACADVER
  1
AC1018
  9
$ACADMAINTVER
 70
     0
  9
$DWGCODEPAGE
  3
ANSI_1252
  9
$INSBASE
 10
0.0
 20
0.0
 30
0.0
  9
$EXTMIN
 10
-52.1981
 20
2.5674
 30
0.0
  9
$EXTMAX
 10
71.2702
 20
76.2805
 30
0.0
  9
$LIMMIN
 10
0.0
 20
0.0
  9
$LIMMAX
 10
12.0
 20
9.0
  9
$ORTHOMODE
 70
     0
  9
$REGENMODE
 70
     1
  9
$FILLMODE
 70
     1
  9
$QTEXTMODE
 70
     0
  9
$MIRRTEXT
 70
     1
  9
$LTSCALE
 40
1.0
  9
$ATTMODE
 70
     1
  9
$TEXTSIZE
 40
0.2
  9
$TRACEWID
 40
0.05
  9
$TEXTSTYLE
  7
Standard
  9
$CLAYER
  8
0
  9
$CELTYPE
  6
ByLayer
  9
$CECOLOR
 62
   256
  9
$CELTSCALE
 40
1.0
  9
$DISPSILH
 70
     0
  9
$DIMSCALE
 40
1.0
  9
$DIMASZ
 40
0.18
  9
$DIMEXO
 40
0.0625
  9
$DIMDLI
 40
0.38
  9
$DIMRND
 40
0.0
  9
$DIMDLE
 40
0.0
  9
$DIMEXE
 40
0.18
  9
$DIMTP
 40
0.0
  9
$DIMTM
 40
0.0
  9
$DIMTXT
 40
0.18
  9
$DIMCEN
 40
0.09
  9
$DIMTSZ
 40
0.0
  9
$DIMTOL
 70
     0
  9
$DIMLIM
 70
     0
  9
$DIMTIH
 70
     1
  9
$DIMTOH
 70
     1
  9
$DIMSE1
 70
     0
  9
$DIMSE2
 70
     0
  9
$DIMTAD
 70
     0
  9
$DIMZIN
 70
     0
  9
$DIMBLK
  1

  9
$DIMASO
 70
     1
  9
$DIMSHO
 70
     1
  9
$DIMPOST
  1

  9
$DIMAPOST
  1

  9
$DIMALT
 70
     0
  9
$DIMALTD
 70
     2
  9
$DIMALTF
 40
25.4
  9
$DIMLFAC
 40
1.0
  9
$DIMTOFL
 70
     0
  9
$DIMTVP
 40
0.0
  9
$DIMTIX
 70
     0
  9
$DIMSOXD
 70
     0
  9
$DIMSAH
 70
     0
  9
$DIMBLK1
  1

  9
$DIMBLK2
  1

  9
$DIMSTYLE
  2
Standard
  9
$DIMCLRD
 70
     0
  9
$DIMCLRE
 70
     0
  9
$DIMCLRT
 70
     0
  9
$DIMTFAC
 40
1.0
  9
$DIMGAP
 40
0.09
  9
$DIMJUST
 70
     0
  9
$DIMSD1
 70
     0
  9
$DIMSD2
 70
     0
  9
$DIMTOLJ
 70
     1
  9
$DIMTZIN
 70
     0
  9
$DIMALTZ
 70
     0
  9
$DIMALTTZ
 70
     0
  9
$DIMUPT
 70
     0
  9
$DIMDEC
 70
     4
  9
$DIMTDEC
 70
     4
  9
$DIMALTU
 70
     2
  9
$DIMALTTD
 70
     2
  9
$DIMTXSTY
  7
Standard
  9
$DIMAUNIT
 70
     0
  9
$DIMADEC
 70
     0
  9
$DIMALTRND
 40
0.0
  9
$DIMAZIN
 70
     0
  9
$DIMDSEP
 70
    46
  9
$DIMATFIT
 70
     3
  9
$DIMFRAC
 70
     0
  9
$DIMLDRBLK
  1

  9
$DIMLUNIT
 70
     2
  9
$DIMLWD
 70
    -2
  9
$DIMLWE
 70
    -2
  9
$DIMTMOVE
 70
     0
  9
$LUNITS
 70
     2
  9
$LUPREC
 70
     4
  9
$SKETCHINC
 40
0.1
  9
$FILLETRAD
 40
0.5
  9
$AUNITS
 70
     0
  9
$AUPREC
 70
     0
  9
$MENU
  1
.
  9
$ELEVATION
 40
0.0
  9
$PELEVATION
 40
0.0
  9
$THICKNESS
 40
0.0
  9
$LIMCHECK
 70
     0
  9
$CHAMFERA
 40
0.5
  9
$CHAMFERB
 40
0.5
  9
$CHAMFERC
 40
1.0
  9
$CHAMFERD
 40
0.0
  9
$SKPOLY
 70
     0
  9
$TDCREATE
 40
2455448.559437072
  9
$TDUCREATE
 40
2455448.517770405
  9
$TDUPDATE
 40
2455448.60110375
  9
$TDUUPDATE
 40
2455448.517770417
  9
$TDINDWG
 40
0.0000000116
  9
$TDUSRTIMER
 40
0.0000000116
  9
$USRTIMER
 70
     1
  9
$ANGBASE
 50
0.0
  9
$ANGDIR
 70
     0
  9
$PDMODE
 70
     0
  9
$PDSIZE
 40
0.0
  9
$PLINEWID
 40
0.0
  9
$SPLFRAME
 70
     0
  9
$SPLINETYPE
 70
     6
  9
$SPLINESEGS
 70
     8
  9
$HANDSEED
  5
C9
  9
$SURFTAB1
 70
     6
  9
$SURFTAB2
 70
     6
  9
$SURFTYPE
 70
     6
  9
$SURFU
 70
     6
  9
$SURFV
 70
     6
  9
$UCSBASE
  2

  9
$UCSNAME
  2

  9
$UCSORG
 10
0.0
 20
0.0
 30
0.0
  9
$UCSXDIR
 10
1.0
 20
0.0
 30
0.0
  9
$UCSYDIR
 10
0.0
 20
1.0
 30
0.0
  9
$UCSORTHOREF
  2

  9
$UCSORTHOVIEW
 70
     0
  9
$UCSORGTOP
 10
0.0
 20
0.0
 30
0.0
  9
$UCSORGBOTTOM
 10
0.0
 20
0.0
 30
0.0
  9
$UCSORGLEFT
 10
0.0
 20
0.0
 30
0.0
  9
$UCSORGRIGHT
 10
0.0
 20
0.0
 30
0.0
  9
$UCSORGFRONT
 10
0.0
 20
0.0
 30
0.0
  9
$UCSORGBACK
 10
0.0
 20
0.0
 30
0.0
  9
$PUCSBASE
  2

  9
$PUCSNAME
  2

  9
$PUCSORG
 10
0.0
 20
0.0
 30
0.0
  9
$PUCSXDIR
 10
1.0
 20
0.0
 30
0.0
  9
$PUCSYDIR
 10
0.0
 20
1.0
 30
0.0
  9
$PUCSORTHOREF
  2

  9
$PUCSORTHOVIEW
 70
     0
  9
$PUCSORGTOP
 10
0.0
 20
0.0
 30
0.0
  9
$PUCSORGBOTTOM
 10
0.0
 20
0.0
 30
0.0
  9
$PUCSORGLEFT
 10
0.0
 20
0.0
 30
0.0
  9
$PUCSORGRIGHT
 10
0.0
 20
0.0
 30
0.0
  9
$PUCSORGFRONT
 10
0.0
 20
0.0
 30
0.0
  9
$PUCSORGBACK
 10
0.0
 20
0.0
 30
0.0
  9
$USERI1
 70
     0
  9
$USERI2
 70
     0
  9
$USERI3
 70
     0
  9
$USERI4
 70
     0
  9
$USERI5
 70
     0
  9
$USERR1
 40
0.0
  9
$USERR2
 40
0.0
  9
$USERR3
 40
0.0
  9
$USERR4
 40
0.0
  9
$USERR5
 40
0.0
  9
$WORLDVIEW
 70
     1
  9
$SHADEDGE
 70
     3
  9
$SHADEDIF
 70
    70
  9
$TILEMODE
 70
     1
  9
$MAXACTVP
 70
    64
  9
$PINSBASE
 10
0.0
 20
0.0
 30
0.0
  9
$PLIMCHECK
 70
     0
  9
$PEXTMIN
 10
1.000000000000000E+20
 20
1.000000000000000E+20
 30
1.000000000000000E+20
  9
$PEXTMAX
 10
-1.000000000000000E+20
 20
-1.000000000000000E+20
 30
-1.000000000000000E+20
  9
$PLIMMIN
 10
0.0
 20
0.0
  9
$PLIMMAX
 10
12.0
 20
9.0
  9
$UNITMODE
 70
     0
  9
$VISRETAIN
 70
     1
  9
$PLINEGEN
 70
     0
  9
$PSLTSCALE
 70
     1
  9
$TREEDEPTH
 70
  3020
  9
$CMLSTYLE
  2
Standard
  9
$CMLJUST
 70
     0
  9
$CMLSCALE
 40
1.0
  9
$PROXYGRAPHICS
 70
     1
  9
$MEASUREMENT
 70
     0
  9
$CELWEIGHT
370
    -1
  9
$ENDCAPS
280
     0
  9
$JOINSTYLE
280
     0
  9
$LWDISPLAY
290
     0
  9
$INSUNITS
 70
     4
  9
$HYPERLINKBASE
  1

  9
$STYLESHEET
  1

  9
$XEDIT
290
     1
  9
$CEPSNTYPE
380
     0
  9
$PSTYLEMODE
290
     0
  9
$FINGERPRINTGUID
  2
{FAEB1C30-E019-11D5-929B-00C0DF256EC4}
  9
$VERSIONGUID
  2
{FAEB1C32-E019-11D5-929B-00C0DF256EC4}
  9
$EXTNAMES
290
     1
  9
$PSVPSCALE
 40
0.0
  9
$OLESTARTUP
290
     0
  9
$SORTENTS
280
   127
  9
$INDEXCTL
280
     0
  9
$HIDETEXT
280
     1
  9
$XCLIPFRAME
290
     0
  9
$HALOGAP
280
     0
  9
$OBSCOLOR
 70
   257
  9
$OBSLTYPE
280
     0
  9
$INTERSECTIONDISPLAY
280
     0
  9
$INTERSECTIONCOLOR
 70
   257
  9
$DIMASSOC
280
     2
  9
$PROJECTNAME
  1

  0
ENDSEC
  0
SECTION
  2
CLASSES
  0
CLASS
  1
ACDBDICTIONARYWDFLT
  2
AcDbDictionaryWithDefault
  3
ObjectDBX Classes
 90
        0
 91
        1
280
     0
281
     0
  0
ENDSEC
  0
SECTION
  2
TABLES
  0
TABLE
  2
VPORT
  5
8
330
0
100
AcDbSymbolTable
 70
     2
  0
VPORT
  5
29
330
8
100
AcDbSymbolTableRecord
100
AcDbViewportTableRecord
  2
*Active
 70
     0
 10
0.0
 20
0.0
 11
1.0
 21
1.0
 12
10.42990654205607
 22
4.5
 13
0.0
 23
0.0
 14
0.5
 24
0.5
 15
0.5
 25
0.5
 16
0.0
 26
0.0
 36
1.0
 17
0.0
 27
0.0
 37
0.0
 40
9.0
 41
1.972972972850329
 42
50.0
 43
0.0
 44
0.0
 50
0.0
 51
0.0
 71
     0
 72
   100
 73
     1
 74
     3
 75
     0
 76
     0
 77
     0
 78
     0
281
     0
 65
     1
110
0.0
120
0.0
130
0.0
111
1.0
121
0.0
131
0.0
112
0.0
122
1.0
132
0.0
 79
     0
146
0.0
  0
ENDTAB
  0
TABLE
  2
LTYPE
  5
5
330
0
100
AcDbSymbolTable
 70
     1
  0
LTYPE
  5
14
330
5
100
AcDbSymbolTableRecord
100
AcDbLinetypeTableRecord
  2
ByBlock
 70
     0
  3

 72
    65
 73
     0
 40
0.0
  0
LTYPE
  5
15
330
5
100
AcDbSymbolTableRecord
100
AcDbLinetypeTableRecord
  2
ByLayer
 70
     0
  3

 72
    65
 73
     0
 40
0.0
  0
LTYPE
  5
16
330
5
100
AcDbSymbolTableRecord
100
AcDbLinetypeTableRecord
  2
Continuous
 70
     0
  3
Solid line
 72
    65
 73
     0
 40
0.0
  0
ENDTAB
  0
TABLE
  2
LAYER
  5
2
330
0
100
AcDbSymbolTable
 70
     3
  0
LAYER
  5
10
330
2
100
AcDbSymbolTableRecord
100
AcDbLayerTableRecord
  2
0
 70
     0
 62
     7
  6
Continuous
370
    -3
390
F
  0
LAYER
  5
2B
330
2
100
AcDbSymbolTableRecord
100
AcDbLayerTableRecord
  2
Ebene 1
 70
     0
 62
     7
  6
Continuous
370
    -3
390
F
  0
LAYER
  5
3A
330
2
100
AcDbSymbolTableRecord
100
AcDbLayerTableRecord
  2
LC-003-003-----0
 70
     0
 62
     7
  6
Continuous
370
    -3
390
F
  0
ENDTAB
  0
TABLE
  2
STYLE
  5
3
330
0
100
AcDbSymbolTable
 70
     1
  0
STYLE
  5
11
330
3
100
AcDbSymbolTableRecord
100
AcDbTextStyleTableRecord
  2
Standard
 70
     0
 40
0.0
 41
1.0
 50
0.0
 71
     0
 42
0.2
  3
txt
  4

  0
ENDTAB
  0
TABLE
  2
VIEW
  5
6
330
0
100
AcDbSymbolTable
 70
     0
  0
ENDTAB
  0
TABLE
  2
UCS
  5
7
330
0
100
AcDbSymbolTable
 70
     0
  0
ENDTAB
  0
TABLE
  2
APPID
  5
9
330
0
100
AcDbSymbolTable
 70
     2
  0
APPID
  5
12
330
9
100
AcDbSymbolTableRecord
100
AcDbRegAppTableRecord
  2
ACAD
 70
     0
  0
APPID
  5
2A
330
9
100
AcDbSymbolTableRecord
100
AcDbRegAppTableRecord
  2
ODA
 70
     0
  0
ENDTAB
  0
TABLE
  2
DIMSTYLE
  5
A
330
0
100
AcDbSymbolTable
 70
     1
100
AcDbDimStyleTable
  0
DIMSTYLE
105
27
330
A
100
AcDbSymbolTableRecord
100
AcDbDimStyleTableRecord
  2
Standard
 70
     0
340
11
  0
ENDTAB
  0
TABLE
  2
BLOCK_RECORD
  5
1
330
0
100
AcDbSymbolTable
 70
     1
  0
BLOCK_RECORD
  5
1F
330
1
100
AcDbSymbolTableRecord
100
AcDbBlockTableRecord
  2
*Model_Space
340
22
  0
BLOCK_RECORD
  5
1B
330
1
100
AcDbSymbolTableRecord
100
AcDbBlockTableRecord
  2
*Paper_Space
340
1E
  0
BLOCK_RECORD
  5
23
330
1
100
AcDbSymbolTableRecord
100
AcDbBlockTableRecord
  2
*Paper_Space0
340
26
  0
ENDTAB
  0
ENDSEC
  0
SECTION
  2
BLOCKS
  0
BLOCK
  5
20
330
1F
100
AcDbEntity
  8
0
100
AcDbBlockBegin
  2
*Model_Space
 70
     0
 71
     0
 10
0.0
 20
0.0
 30
0.0
  3
*Model_Space
  1

  0
ENDBLK
  5
21
330
1F
100
AcDbEntity
  8
0
100
AcDbBlockEnd
  0
BLOCK
  5
1C
330
1B
100
AcDbEntity
 67
     1
  8
0
100
AcDbBlockBegin
  2
*Paper_Space
 70
     0
 71
     0
 10
0.0
 20
0.0
 30
0.0
  3
*Paper_Space
  1

  0
ENDBLK
  5
1D
330
1B
100
AcDbEntity
 67
     1
  8
0
100
AcDbBlockEnd
  0
BLOCK
  5
24
330
23
100
AcDbEntity
  8
0
100
AcDbBlockBegin
  2
*Paper_Space0
 70
     0
 71
     0
 10
0.0
 20
0.0
 30
0.0
  3
*Paper_Space0
  1

  0
ENDBLK
  5
25
330
23
100
AcDbEntity
  8
0
100
AcDbBlockEnd
  0
ENDSEC
  0
SECTION
  2
ENTITIES
  0
SPLINE
  5
2C
330
1F
100
AcDbEntity
  8
Ebene 1
 62
   250
100
AcDbSpline
210
0.0
220
0.0
230
1.0
 70
    11
 71
     3
 72
    84
 73
    80
 74
     0
 42
0.0000000001
 43
0.0000000001
 40
0.0
 40
0.0
 40
0.0
 40
0.0
 40
0.05
 40
0.05
 40
0.05
 40
0.05
 40
0.1
 40
0.1
 40
0.1
 40
0.1
 40
0.15
 40
0.15
 40
0.15
 40
0.15
 40
0.2
 40
0.2
 40
0.2
 40
0.2
 40
0.25
 40
0.25
 40
0.25
 40
0.25
 40
0.3
 40
0.3
 40
0.3
 40
0.3
 40
0.35
 40
0.35
 40
0.35
 40
0.35
 40
0.4
 40
0.4
 40
0.4
 40
0.4
 40
0.45
 40
0.45
 40
0.45
 40
0.45
 40
0.4999999999999999
 40
0.4999999999999999
 40
0.4999999999999999
 40
0.4999999999999999
 40
0.5499999999999999
 40
0.5499999999999999
 40
0.5499999999999999
 40
0.5499999999999999
 40
0.6
 40
0.6
 40
0.6
 40
0.6
 40
0.65
 40
0.65
 40
0.65
 40
0.65
 40
0.7000000000000001
 40
0.7000000000000001
 40
0.7000000000000001
 40
0.7000000000000001
 40
0.7500000000000001
 40
0.7500000000000001
 40
0.7500000000000001
 40
0.7500000000000001
 40
0.8000000000000002
 40
0.8000000000000002
 40
0.8000000000000002
 40
0.8000000000000002
 40
0.8500000000000002
 40
0.8500000000000002
 40
0.8500000000000002
 40
0.8500000000000002
 40
0.9000000000000002
 40
0.9000000000000002
 40
0.9000000000000002
 40
0.9000000000000002
 40
0.9500000000000003
 40
0.9500000000000003
 40
0.9500000000000003
 40
0.9500000000000003
 40
1.0
 40
1.0
 40
1.0
 40
1.0
 10
-48.8809
 20
22.2441
 30
0.0
 10
-49.1048
 20
22.5134
 30
0.0
 10
-49.274
 20
22.7826
 30
0.0
 10
-49.38500000000001
 20
23.052
 30
0.0
 10
-49.38500000000001
 20
23.052
 30
0.0
 10
-49.49780000000001
 20
23.3194
 30
0.0
 10
-49.5523
 20
23.5851
 30
0.0
 10
-49.5523
 20
23.849
 30
0.0
 10
-49.5523
 20
23.849
 30
0.0
 10
-49.5523
 20
24.4421
 30
0.0
 10
-49.3504
 20
24.9334
 30
0.0
 10
-48.9446
 20
25.3192
 30
0.0
 10
-48.9446
 20
25.3192
 30
0.0
 10
-48.5407
 20
25.7068
 30
0.0
 10
-47.99480000000001
 20
25.9015
 30
0.0
 10
-47.30880000000001
 20
25.9015
 30
0.0
 10
-47.30880000000001
 20
25.9015
 30
0.0
 10
-46.42440000000001
 20
25.9015
 30
0.0
 10
-45.6657
 20
25.614
 30
0.0
 10
-45.0324
 20
25.0372
 30
0.0
 10
-45.0324
 20
25.0372
 30
0.0
 10
-44.4883
 20
24.5404
 30
0.0
 10
-44.21720000000001
 20
23.9363
 30
0.0
 10
-44.21720000000001
 20
23.2248
 30
0.0
 10
-44.21720000000001
 20
23.2248
 30
0.0
 10
-44.21720000000001
 20
22.5788
 30
0.0
 10
-44.4538
 20
22.0384
 30
0.0
 10
-44.9287
 20
21.6072
 30
0.0
 10
-44.9287
 20
21.6072
 30
0.0
 10
-45.4036
 20
21.1759
 30
0.0
 10
-46.07870000000001
 20
20.9594
 30
0.0
 10
-46.9576
 20
20.9594
 30
0.0
 10
-46.9576
 20
20.9594
 30
0.0
 10
-47.74180000000001
 20
20.9594
 30
0.0
 10
-48.5552
 20
21.0977
 30
0.0
 10
-49.39230000000001
 20
21.3761
 30
0.0
 10
-49.39230000000001
 20
21.3761
 30
0.0
 10
-50.0364
 20
21.589
 30
0.0
 10
-50.5677
 20
21.8528
 30
0.0
 10
-50.9844
 20
22.1676
 30
0.0
 10
-50.9844
 20
22.1676
 30
0.0
 10
-51.4011
 20
22.4806
 30
0.0
 10
-51.7086
 20
22.8154
 30
0.0
 10
-51.9033
 20
23.1684
 30
0.0
 10
-51.9033
 20
23.1684
 30
0.0
 10
-52.0998
 20
23.5232
 30
0.0
 10
-52.1981
 20
23.9218
 30
0.0
 10
-52.1981
 20
24.3657
 30
0.0
 10
-52.1981
 20
24.3657
 30
0.0
 10
-52.1981
 20
24.8989
 30
0.0
 10
-52.0307
 20
25.3338
 30
0.0
 10
-51.6995
 20
25.6723
 30
0.0
 10
-51.6995
 20
25.6723
 30
0.0
 10
-51.3665
 20
26.0089
 30
0.0
 10
-50.8916
 20
26.2018
 30
0.0
 10
-50.273
 20
26.2473
 30
0.0
 10
-50.273
 20
26.2473
 30
0.0
 10
-50.273
 20
26.2473
 30
0.0
 10
-50.1874
 20
25.3519
 30
0.0
 10
-50.1874
 20
25.3519
 30
0.0
 10
-50.1874
 20
25.3519
 30
0.0
 10
-50.6096
 20
25.3028
 30
0.0
 10
-50.9153
 20
25.1827
 30
0.0
 10
-51.1045
 20
24.9917
 30
0.0
 10
-51.1045
 20
24.9917
 30
0.0
 10
-51.29190000000001
 20
24.8025
 30
0.0
 10
-51.38650000000001
 20
24.5695
 30
0.0
 10
-51.38650000000001
 20
24.2966
 30
0.0
 10
-51.38650000000001
 20
24.2966
 30
0.0
 10
-51.38650000000001
 20
24.0091
 30
0.0
 10
-51.2755
 20
23.7197
 30
0.0
 10
-51.0518
 20
23.4268
 30
0.0
 10
-51.0518
 20
23.4268
 30
0.0
 10
-50.8279
 20
23.1357
 30
0.0
 10
-50.4949
 20
22.8864
 30
0.0
 10
-50.0564
 20
22.6753
 30
0.0
 10
-50.0564
 20
22.6753
 30
0.0
 10
-49.61790000000001
 20
22.466
 30
0.0
 10
-49.2267
 20
22.3223
 30
0.0
 10
-48.8809
 20
22.2441
 30
0.0
  0
SPLINE
  5
2D
330
1F
100
AcDbEntity
  8
Ebene 1
 62
   250
100
AcDbSpline
210
0.0
220
0.0
230
1.0
 70
    11
 71
     3
 72
    40
 73
    36
 74
     0
 42
0.0000000001
 43
0.0000000001
 40
0.0
 40
0.0
 40
0.0
 40
0.0
 40
0.1111111111111111
 40
0.1111111111111111
 40
0.1111111111111111
 40
0.1111111111111111
 40
0.2222222222222222
 40
0.2222222222222222
 40
0.2222222222222222
 40
0.2222222222222222
 40
0.3333333333333333
 40
0.3333333333333333
 40
0.3333333333333333
 40
0.3333333333333333
 40
0.4444444444444444
 40
0.4444444444444444
 40
0.4444444444444444
 40
0.4444444444444444
 40
0.5555555555555556
 40
0.5555555555555556
 40
0.5555555555555556
 40
0.5555555555555556
 40
0.6666666666666667
 40
0.6666666666666667
 40
0.6666666666666667
 40
0.6666666666666667
 40
0.7777777777777779
 40
0.7777777777777779
 40
0.7777777777777779
 40
0.7777777777777779
 40
0.8888888888888891
 40
0.8888888888888891
 40
0.8888888888888891
 40
0.8888888888888891
 40
1.0
 40
1.0
 40
1.0
 40
1.0
 10
-46.54640000000001
 20
21.9074
 30
0.0
 10
-46.106
 20
21.9074
 30
0.0
 10
-45.7348
 20
22.0457
 30
0.0
 10
-45.4346
 20
22.3187
 30
0.0
 10
-45.4346
 20
22.3187
 30
0.0
 10
-45.1343
 20
22.5916
 30
0.0
 10
-44.9851
 20
22.9009
 30
0.0
 10
-44.9851
 20
23.2467
 30
0.0
 10
-44.9851
 20
23.2467
 30
0.0
 10
-44.9851
 20
23.4886
 30
0.0
 10
-45.0761
 20
23.7434
 30
0.0
 10
-45.2599
 20
24.0145
 30
0.0
 10
-45.2599
 20
24.0145
 30
0.0
 10
-45.4418
 20
24.2838
 30
0.0
 10
-45.72020000000001
 20
24.5131
 30
0.0
 10
-46.0933
 20
24.7023
 30
0.0
 10
-46.0933
 20
24.7023
 30
0.0
 10
-46.4663
 20
24.8898
 30
0.0
 10
-46.83750000000001
 20
24.9844
 30
0.0
 10
-47.20690000000001
 20
24.9844
 30
0.0
 10
-47.20690000000001
 20
24.9844
 30
0.0
 10
-47.68360000000001
 20
24.9844
 30
0.0
 10
-48.0658
 20
24.8534
 30
0.0
 10
-48.35140000000001
 20
24.5932
 30
0.0
 10
-48.35140000000001
 20
24.5932
 30
0.0
 10
-48.6371
 20
24.3312
 30
0.0
 10
-48.7809
 20
24.0164
 30
0.0
 10
-48.7809
 20
23.647
 30
0.0
 10
-48.7809
 20
23.647
 30
0.0
 10
-48.7809
 20
23.2194
 30
0.0
 10
-48.5716
 20
22.8227
 30
0.0
 10
-48.1531
 20
22.4569
 30
0.0
 10
-48.1531
 20
22.4569
 30
0.0
 10
-47.7364
 20
22.0912
 30
0.0
 10
-47.1996
 20
21.9074
 30
0.0
 10
-46.54640000000001
 20
21.9074
 30
0.0
  0
SPLINE
  5
2E
330
1F
100
AcDbEntity
  8
Ebene 1
 62
   250
100
AcDbSpline
210
0.0
220
0.0
230
1.0
 70
    11
 71
     3
 72
   120
 73
   116
 74
     0
 42
0.0000000001
 43
0.0000000001
 40
0.0
 40
0.0
 40
0.0
 40
0.0
 40
0.0344827586206897
 40
0.0344827586206897
 40
0.0344827586206897
 40
0.0344827586206897
 40
0.0689655172413793
 40
0.0689655172413793
 40
0.0689655172413793
 40
0.0689655172413793
 40
0.103448275862069
 40
0.103448275862069
 40
0.103448275862069
 40
0.103448275862069
 40
0.1379310344827586
 40
0.1379310344827586
 40
0.1379310344827586
 40
0.1379310344827586
 40
0.1724137931034483
 40
0.1724137931034483
 40
0.1724137931034483
 40
0.1724137931034483
 40
0.206896551724138
 40
0.206896551724138
 40
0.206896551724138
 40
0.206896551724138
 40
0.2413793103448276
 40
0.2413793103448276
 40
0.2413793103448276
 40
0.2413793103448276
 40
0.2758620689655173
 40
0.2758620689655173
 40
0.2758620689655173
 40
0.2758620689655173
 40
0.310344827586207
 40
0.310344827586207
 40
0.310344827586207
 40
0.310344827586207
 40
0.3448275862068966
 40
0.3448275862068966
 40
0.3448275862068966
 40
0.3448275862068966
 40
0.3793103448275863
 40
0.3793103448275863
 40
0.3793103448275863
 40
0.3793103448275863
 40
0.413793103448276
 40
0.413793103448276
 40
0.413793103448276
 40
0.413793103448276
 40
0.4482758620689656
 40
0.4482758620689656
 40
0.4482758620689656
 40
0.4482758620689656
 40
0.4827586206896553
 40
0.4827586206896553
 40
0.4827586206896553
 40
0.4827586206896553
 40
0.517241379310345
 40
0.517241379310345
 40
0.517241379310345
 40
0.517241379310345
 40
0.5517241379310346
 40
0.5517241379310346
 40
0.5517241379310346
 40
0.5517241379310346
 40
0.5862068965517242
 40
0.5862068965517242
 40
0.5862068965517242
 40
0.5862068965517242
 40
0.6206896551724138
 40
0.6206896551724138
 40
0.6206896551724138
 40
0.6206896551724138
 40
0.6551724137931034
 40
0.6551724137931034
 40
0.6551724137931034
 40
0.6551724137931034
 40
0.689655172413793
 40
0.689655172413793
 40
0.689655172413793
 40
0.689655172413793
 40
0.7241379310344827
 40
0.7241379310344827
 40
0.7241379310344827
 40
0.7241379310344827
 40
0.7586206896551723
 40
0.7586206896551723
 40
0.7586206896551723
 40
0.7586206896551723
 40
0.7931034482758619
 40
0.7931034482758619
 40
0.7931034482758619
 40
0.7931034482758619
 40
0.8275862068965515
 40
0.8275862068965515
 40
0.8275862068965515
 40
0.8275862068965515
 40
0.8620689655172411
 40
0.8620689655172411
 40
0.8620689655172411
 40
0.8620689655172411
 40
0.8965517241379307
 40
0.8965517241379307
 40
0.8965517241379307
 40
0.8965517241379307
 40
0.9310344827586203
 40
0.9310344827586203
 40
0.9310344827586203
 40
0.9310344827586203
 40
0.9655172413793099
 40
0.9655172413793099
 40
0.9655172413793099
 40
0.9655172413793099
 40
1.0
 40
1.0
 40
1.0
 40
1.0
 10
-46.5846
 20
26.8823
 30
0.0
 10
-46.5846
 20
26.8823
 30
0.0
 10
-46.6792
 20
27.8631
 30
0.0
 10
-46.6792
 20
27.8631
 30
0.0
 10
-46.6792
 20
27.8631
 30
0.0
 10
-46.5409
 20
27.8558
 30
0.0
 10
-46.4572
 20
27.8522
 30
0.0
 10
-46.4299
 20
27.8522
 30
0.0
 10
-46.4299
 20
27.8522
 30
0.0
 10
-46.1952
 20
27.8522
 30
0.0
 10
-45.9586
 20
27.9122
 30
0.0
 10
-45.72020000000001
 20
28.0304
 30
0.0
 10
-45.72020000000001
 20
28.0304
 30
0.0
 10
-45.4819
 20
28.1506
 30
0.0
 10
-45.2999
 20
28.3125
 30
0.0
 10
-45.17440000000001
 20
28.5163
 30
0.0
 10
-45.17440000000001
 20
28.5163
 30
0.0
 10
-45.047
 20
28.7201
 30
0.0
 10
-44.9851
 20
28.9367
 30
0.0
 10
-44.9851
 20
29.1641
 30
0.0
 10
-44.9851
 20
29.1641
 30
0.0
 10
-44.9851
 20
29.4625
 30
0.0
 10
-45.087
 20
29.7664
 30
0.0
 10
-45.2944
 20
30.0757
 30
0.0
 10
-45.2944
 20
30.0757
 30
0.0
 10
-45.5001
 20
30.385
 30
0.0
 10
-45.8003
 20
30.6343
 30
0.0
 10
-46.1952
 20
30.8272
 30
0.0
 10
-46.1952
 20
30.8272
 30
0.0
 10
-46.5882
 20
31.0183
 30
0.0
 10
-46.97940000000001
 20
31.1147
 30
0.0
 10
-47.367
 20
31.1147
 30
0.0
 10
-47.367
 20
31.1147
 30
0.0
 10
-47.8037
 20
31.1147
 30
0.0
 10
-48.15490000000001
 20
30.9855
 30
0.0
 10
-48.41690000000001
 20
30.7289
 30
0.0
 10
-48.41690000000001
 20
30.7289
 30
0.0
 10
-48.68080000000001
 20
30.4706
 30
0.0
 10
-48.81180000000001
 20
30.1321
 30
0.0
 10
-48.81180000000001
 20
29.7136
 30
0.0
 10
-48.81180000000001
 20
29.7136
 30
0.0
 10
-48.81180000000001
 20
29.4316
 30
0.0
 10
-48.7444
 20
29.1659
 30
0.0
 10
-48.6098
 20
28.9166
 30
0.0
 10
-48.6098
 20
28.9166
 30
0.0
 10
-48.47510000000001
 20
28.6655
 30
0.0
 10
-48.2713
 20
28.4326
 30
0.0
 10
-48.00210000000001
 20
28.2143
 30
0.0
 10
-48.00210000000001
 20
28.2143
 30
0.0
 10
-48.00210000000001
 20
28.2143
 30
0.0
 10
-48.06030000000001
 20
27.3718
 30
0.0
 10
-48.06030000000001
 20
27.3718
 30
0.0
 10
-48.06030000000001
 20
27.3718
 30
0.0
 10
-48.06030000000001
 20
27.3718
 30
0.0
 10
-52.058
 20
28.5509
 30
0.0
 10
-52.058
 20
28.5509
 30
0.0
 10
-52.058
 20
28.5509
 30
0.0
 10
-52.058
 20
28.5509
 30
0.0
 10
-52.058
 20
32.3685
 30
0.0
 10
-52.058
 20
32.3685
 30
0.0
 10
-52.058
 20
32.3685
 30
0.0
 10
-52.058
 20
32.3685
 30
0.0
 10
-51.1736
 20
32.181
 30
0.0
 10
-51.1736
 20
32.181
 30
0.0
 10
-51.1736
 20
32.181
 30
0.0
 10
-51.1736
 20
32.181
 30
0.0
 10
-51.1736
 20
29.2114
 30
0.0
 10
-51.1736
 20
29.2114
 30
0.0
 10
-51.1736
 20
29.2114
 30
0.0
 10
-51.1736
 20
29.2114
 30
0.0
 10
-49.1848
 20
28.6255
 30
0.0
 10
-49.1848
 20
28.6255
 30
0.0
 10
-49.1848
 20
28.6255
 30
0.0
 10
-49.3449
 20
28.8457
 30
0.0
 10
-49.4651
 20
29.0732
 30
0.0
 10
-49.54510000000001
 20
29.3042
 30
0.0
 10
-49.54510000000001
 20
29.3042
 30
0.0
 10
-49.6251
 20
29.5371
 30
0.0
 10
-49.66520000000001
 20
29.7773
 30
0.0
 10
-49.66520000000001
 20
30.0229
 30
0.0
 10
-49.66520000000001
 20
30.0229
 30
0.0
 10
-49.66520000000001
 20
30.6198
 30
0.0
 10
-49.46870000000001
 20
31.1093
 30
0.0
 10
-49.07380000000001
 20
31.4932
 30
0.0
 10
-49.07380000000001
 20
31.4932
 30
0.0
 10
-48.679
 20
31.8772
 30
0.0
 10
-48.1386
 20
32.07
 30
0.0
 10
-47.4525
 20
32.07
 30
0.0
 10
-47.4525
 20
32.07
 30
0.0
 10
-46.8521
 20
32.07
 30
0.0
 10
-46.2989
 20
31.9372
 30
0.0
 10
-45.7912
 20
31.6752
 30
0.0
 10
-45.7912
 20
31.6752
 30
0.0
 10
-45.2854
 20
31.4114
 30
0.0
 10
-44.896
 20
31.0493
 30
0.0
 10
-44.6248
 20
30.5907
 30
0.0
 10
-44.6248
 20
30.5907
 30
0.0
 10
-44.3519
 20
30.1303
 30
0.0
 10
-44.21720000000001
 20
29.6335
 30
0.0
 10
-44.21720000000001
 20
29.1004
 30
0.0
 10
-44.21720000000001
 20
29.1004
 30
0.0
 10
-44.21720000000001
 20
28.6528
 30
0.0
 10
-44.3173
 20
28.2561
 30
0.0
 10
-44.5211
 20
27.9104
 30
0.0
 10
-44.5211
 20
27.9104
 30
0.0
 10
-44.7231
 20
27.5665
 30
0.0
 10
-45.0015
 20
27.3081
 30
0.0
 10
-45.3581
 20
27.1352
 30
0.0
 10
-45.3581
 20
27.1352
 30
0.0
 10
-45.71290000000001
 20
26.9623
 30
0.0
 10
-46.06780000000001
 20
26.8769
 30
0.0
 10
-46.42440000000001
 20
26.8769
 30
0.0
 10
-46.42440000000001
 20
26.8769
 30
0.0
 10
-46.459
 20
26.8769
 30
0.0
 10
-46.5118
 20
26.8786
 30
0.0
 10
-46.5846
 20
26.8823
 30
0.0
  0
SPLINE
  5
2F
330
1F
100
AcDbEntity
  8
Ebene 1
 62
   250
100
AcDbSpline
210
0.0
220
0.0
230
1.0
 70
    11
 71
     3
 72
    96
 73
    92
 74
     0
 42
0.0000000001
 43
0.0000000001
 40
0.0
 40
0.0
 40
0.0
 40
0.0
 40
0.0434782608695652
 40
0.0434782608695652
 40
0.0434782608695652
 40
0.0434782608695652
 40
0.0869565217391304
 40
0.0869565217391304
 40
0.0869565217391304
 40
0.0869565217391304
 40
0.1304347826086957
 40
0.1304347826086957
 40
0.1304347826086957
 40
0.1304347826086957
 40
0.1739130434782609
 40
0.1739130434782609
 40
0.1739130434782609
 40
0.1739130434782609
 40
0.2173913043478261
 40
0.2173913043478261
 40
0.2173913043478261
 40
0.2173913043478261
 40
0.2608695652173913
 40
0.2608695652173913
 40
0.2608695652173913
 40
0.2608695652173913
 40
0.3043478260869565
 40
0.3043478260869565
 40
0.3043478260869565
 40
0.3043478260869565
 40
0.3478260869565217
 40
0.3478260869565217
 40
0.3478260869565217
 40
0.3478260869565217
 40
0.3913043478260869
 40
0.3913043478260869
 40
0.3913043478260869
 40
0.3913043478260869
 40
0.4347826086956521
 40
0.4347826086956521
 40
0.4347826086956521
 40
0.4347826086956521
 40
0.4782608695652173
 40
0.4782608695652173
 40
0.4782608695652173
 40
0.4782608695652173
 40
0.5217391304347825
 40
0.5217391304347825
 40
0.5217391304347825
 40
0.5217391304347825
 40
0.5652173913043477
 40
0.5652173913043477
 40
0.5652173913043477
 40
0.5652173913043477
 40
0.6086956521739129
 40
0.6086956521739129
 40
0.6086956521739129
 40
0.6086956521739129
 40
0.6521739130434781
 40
0.6521739130434781
 40
0.6521739130434781
 40
0.6521739130434781
 40
0.6956521739130432
 40
0.6956521739130432
 40
0.6956521739130432
 40
0.6956521739130432
 40
0.7391304347826084
 40
0.7391304347826084
 40
0.7391304347826084
 40
0.7391304347826084
 40
0.7826086956521736
 40
0.7826086956521736
 40
0.7826086956521736
 40
0.7826086956521736
 40
0.8260869565217388
 40
0.8260869565217388
 40
0.8260869565217388
 40
0.8260869565217388
 40
0.869565217391304
 40
0.869565217391304
 40
0.869565217391304
 40
0.869565217391304
 40
0.9130434782608692
 40
0.9130434782608692
 40
0.9130434782608692
 40
0.9130434782608692
 40
0.9565217391304344
 40
0.9565217391304344
 40
0.9565217391304344
 40
0.9565217391304344
 40
1.0
 40
1.0
 40
1.0
 40
1.0
 10
-31.2229
 20
39.6247
 30
0.0
 10
-31.6887
 20
39.723
 30
0.0
 10
-32.0781
 20
39.8612
 30
0.0
 10
-32.3929
 20
40.0377
 30
0.0
 10
-32.3929
 20
40.0377
 30
0.0
 10
-32.7077
 20
40.2124
 30
0.0
 10
-33.0061
 20
40.4472
 30
0.0
 10
-33.2881
 20
40.7383
 30
0.0
 10
-33.2881
 20
40.7383
 30
0.0
 10
-33.572
 20
41.0294
 30
0.0
 10
-34.04510000000001
 20
41.5917
 30
0.0
 10
-34.7092
 20
42.42330000000001
 30
0.0
 10
-34.7092
 20
42.42330000000001
 30
0.0
 10
-35.1114
 20
42.9273
 30
0.0
 10
-35.408
 20
43.2712
 30
0.0
 10
-35.5991
 20
43.4568
 30
0.0
 10
-35.5991
 20
43.4568
 30
0.0
 10
-35.8774
 20
43.7225
 30
0.0
 10
-36.1486
 20
43.9172
 30
0.0
 10
-36.4161
 20
44.0373
 30
0.0
 10
-36.4161
 20
44.0373
 30
0.0
 10
-36.5962
 20
44.1191
 30
0.0
 10
-36.7946
 20
44.161
 30
0.0
 10
-37.0074
 20
44.161
 30
0.0
 10
-37.0074
 20
44.161
 30
0.0
 10
-37.3659
 20
44.161
 30
0.0
 10
-37.6698
 20
44.0336
 30
0.0
 10
-37.9209
 20
43.7789
 30
0.0
 10
-37.9209
 20
43.7789
 30
0.0
 10
-38.172
 20
43.5259
 30
0.0
 10
-38.2976
 20
43.213
 30
0.0
 10
-38.2976
 20
42.8436
 30
0.0
 10
-38.2976
 20
42.8436
 30
0.0
 10
-38.2976
 20
42.47790000000001
 30
0.0
 10
-38.1702
 20
42.1576
 30
0.0
 10
-37.91540000000001
 20
41.8846
 30
0.0
 10
-37.91540000000001
 20
41.8846
 30
0.0
 10
-37.6625
 20
41.6099
 30
0.0
 10
-37.2531
 20
41.4152
 30
0.0
 10
-36.6927
 20
41.2969
 30
0.0
 10
-36.6927
 20
41.2969
 30
0.0
 10
-36.6927
 20
41.2969
 30
0.0
 10
-36.8309
 20
40.3543
 30
0.0
 10
-36.8309
 20
40.3543
 30
0.0
 10
-36.8309
 20
40.3543
 30
0.0
 10
-37.5243
 20
40.4472
 30
0.0
 10
-38.0701
 20
40.7165
 30
0.0
 10
-38.47040000000001
 20
41.1623
 30
0.0
 10
-38.47040000000001
 20
41.1623
 30
0.0
 10
-38.8707
 20
41.6081
 30
0.0
 10
-39.0709
 20
42.1631
 30
0.0
 10
-39.0709
 20
42.82720000000001
 30
0.0
 10
-39.0709
 20
42.82720000000001
 30
0.0
 10
-39.0709
 20
43.2712
 30
0.0
 10
-38.97810000000001
 20
43.6752
 30
0.0
 10
-38.7925
 20
44.0354
 30
0.0
 10
-38.7925
 20
44.0354
 30
0.0
 10
-38.6088
 20
44.39570000000001
 30
0.0
 10
-38.3485
 20
44.6668
 30
0.0
 10
-38.0137
 20
44.8488
 30
0.0
 10
-38.0137
 20
44.8488
 30
0.0
 10
-37.6807
 20
45.0289
 30
0.0
 10
-37.335
 20
45.1199
 30
0.0
 10
-36.9802
 20
45.1199
 30
0.0
 10
-36.9802
 20
45.1199
 30
0.0
 10
-36.4616
 20
45.1199
 30
0.0
 10
-35.96120000000001
 20
44.9362
 30
0.0
 10
-35.48260000000001
 20
44.5649
 30
0.0
 10
-35.48260000000001
 20
44.5649
 30
0.0
 10
-35.1842
 20
44.3375
 30
0.0
 10
-34.5964
 20
43.6697
 30
0.0
 10
-33.7176
 20
42.5615
 30
0.0
 10
-33.7176
 20
42.5615
 30
0.0
 10
-33.34090000000001
 20
42.0848
 30
0.0
 10
-33.0315
 20
41.7299
 30
0.0
 10
-32.7895
 20
41.4971
 30
0.0
 10
-32.7895
 20
41.4971
 30
0.0
 10
-32.5494
 20
41.2642
 30
0.0
 10
-32.3219
 20
41.0895
 30
0.0
 10
-32.1072
 20
40.973
 30
0.0
 10
-32.1072
 20
40.973
 30
0.0
 10
-32.1072
 20
40.973
 30
0.0
 10
-32.1072
 20
44.4703
 30
0.0
 10
-32.1072
 20
44.4703
 30
0.0
 10
-32.1072
 20
44.4703
 30
0.0
 10
-32.1072
 20
44.4703
 30
0.0
 10
-31.2229
 20
44.28290000000001
 30
0.0
 10
-31.2229
 20
44.28290000000001
 30
0.0
 10
-31.2229
 20
44.28290000000001
 30
0.0
 10
-31.2229
 20
44.28290000000001
 30
0.0
 10
-31.2229
 20
39.6247
 30
0.0
 10
-31.2229
 20
39.6247
 30
0.0
  0
SPLINE
  5
30
330
1F
100
AcDbEntity
  8
Ebene 1
 62
   250
100
AcDbSpline
210
0.0
220
0.0
230
1.0
 70
    11
 71
     3
 72
    52
 73
    48
 74
     0
 42
0.0000000001
 43
0.0000000001
 40
0.0
 40
0.0
 40
0.0
 40
0.0
 40
0.0833333333333333
 40
0.0833333333333333
 40
0.0833333333333333
 40
0.0833333333333333
 40
0.1666666666666667
 40
0.1666666666666667
 40
0.1666666666666667
 40
0.1666666666666667
 40
0.25
 40
0.25
 40
0.25
 40
0.25
 40
0.3333333333333333
 40
0.3333333333333333
 40
0.3333333333333333
 40
0.3333333333333333
 40
0.4166666666666666
 40
0.4166666666666666
 40
0.4166666666666666
 40
0.4166666666666666
 40
0.4999999999999999
 40
0.4999999999999999
 40
0.4999999999999999
 40
0.4999999999999999
 40
0.5833333333333333
 40
0.5833333333333333
 40
0.5833333333333333
 40
0.5833333333333333
 40
0.6666666666666666
 40
0.6666666666666666
 40
0.6666666666666666
 40
0.6666666666666666
 40
0.75
 40
0.75
 40
0.75
 40
0.75
 40
0.8333333333333334
 40
0.8333333333333334
 40
0.8333333333333334
 40
0.8333333333333334
 40
0.9166666666666667
 40
0.9166666666666667
 40
0.9166666666666667
 40
0.9166666666666667
 40
1.0
 40
1.0
 40
1.0
 40
1.0
 10
-33.7867
 20
45.8296
 30
0.0
 10
-34.4473
 20
45.8296
 30
0.0
 10
-35.1205
 20
45.92780000000001
 30
0.0
 10
-35.8029
 20
46.1244
 30
0.0
 10
-35.8029
 20
46.1244
 30
0.0
 10
-36.4853
 20
46.32270000000001
 30
0.0
 10
-37.0293
 20
46.5411
 30
0.0
 10
-37.4387
 20
46.78310000000001
 30
0.0
 10
-37.4387
 20
46.78310000000001
 30
0.0
 10
-37.8481
 20
47.0251
 30
0.0
 10
-38.1666
 20
47.2762
 30
0.0
 10
-38.3976
 20
47.53460000000001
 30
0.0
 10
-38.3976
 20
47.53460000000001
 30
0.0
 10
-38.6287
 20
47.7948
 30
0.0
 10
-38.79980000000001
 20
48.04960000000001
 30
0.0
 10
-38.9072
 20
48.3006
 30
0.0
 10
-38.9072
 20
48.3006
 30
0.0
 10
-39.0163
 20
48.55
 30
0.0
 10
-39.0709
 20
48.8284
 30
0.0
 10
-39.0709
 20
49.134
 30
0.0
 10
-39.0709
 20
49.134
 30
0.0
 10
-39.0709
 20
49.73090000000001
 30
0.0
 10
-38.84710000000001
 20
50.2295
 30
0.0
 10
-38.4031
 20
50.6298
 30
0.0
 10
-38.4031
 20
50.6298
 30
0.0
 10
-37.9591
 20
51.0301
 30
0.0
 10
-37.3186
 20
51.2302
 30
0.0
 10
-36.4798
 20
51.2302
 30
0.0
 10
-36.4798
 20
51.2302
 30
0.0
 10
-35.6155
 20
51.2302
 30
0.0
 10
-34.76020000000001
 20
51.0901
 30
0.0
 10
-33.9159
 20
50.8136
 30
0.0
 10
-33.9159
 20
50.8136
 30
0.0
 10
-32.9133
 20
50.486
 30
0.0
 10
-32.1618
 20
50.03120000000001
 30
0.0
 10
-31.6595
 20
49.4489
 30
0.0
 10
-31.6595
 20
49.4489
 30
0.0
 10
-31.2793
 20
49.0012
 30
0.0
 10
-31.09
 20
48.4917
 30
0.0
 10
-31.09
 20
47.91860000000001
 30
0.0
 10
-31.09
 20
47.91860000000001
 30
0.0
 10
-31.09
 20
47.3326
 30
0.0
 10
-31.3193
 20
46.83770000000001
 30
0.0
 10
-31.7797
 20
46.43380000000001
 30
0.0
 10
-31.7797
 20
46.43380000000001
 30
0.0
 10
-32.24
 20
46.03160000000001
 30
0.0
 10
-32.9097
 20
45.8296
 30
0.0
 10
-33.7867
 20
45.8296
 30
0.0
  0
SPLINE
  5
31
330
1F
100
AcDbEntity
  8
Ebene 1
 62
   250
100
AcDbSpline
210
0.0
220
0.0
230
1.0
 70
    11
 71
     3
 72
    48
 73
    44
 74
     0
 42
0.0000000001
 43
0.0000000001
 40
0.0
 40
0.0
 40
0.0
 40
0.0
 40
0.0909090909090909
 40
0.0909090909090909
 40
0.0909090909090909
 40
0.0909090909090909
 40
0.1818181818181818
 40
0.1818181818181818
 40
0.1818181818181818
 40
0.1818181818181818
 40
0.2727272727272727
 40
0.2727272727272727
 40
0.2727272727272727
 40
0.2727272727272727
 40
0.3636363636363637
 40
0.3636363636363637
 40
0.3636363636363637
 40
0.3636363636363637
 40
0.4545454545454546
 40
0.4545454545454546
 40
0.4545454545454546
 40
0.4545454545454546
 40
0.5454545454545455
 40
0.5454545454545455
 40
0.5454545454545455
 40
0.5454545454545455
 40
0.6363636363636365
 40
0.6363636363636365
 40
0.6363636363636365
 40
0.6363636363636365
 40
0.7272727272727274
 40
0.7272727272727274
 40
0.7272727272727274
 40
0.7272727272727274
 40
0.8181818181818183
 40
0.8181818181818183
 40
0.8181818181818183
 40
0.8181818181818183
 40
0.9090909090909093
 40
0.9090909090909093
 40
0.9090909090909093
 40
0.9090909090909093
 40
1.0
 40
1.0
 40
1.0
 40
1.0
 10
-33.5411
 20
46.76300000000001
 30
0.0
 10
-33.0625
 20
46.76300000000001
 30
0.0
 10
-32.6876
 20
46.8413
 30
0.0
 10
-32.4165
 20
47.0014
 30
0.0
 10
-32.4165
 20
47.0014
 30
0.0
 10
-32.0435
 20
47.218
 30
0.0
 10
-31.8579
 20
47.5401
 30
0.0
 10
-31.8579
 20
47.9677
 30
0.0
 10
-31.8579
 20
47.9677
 30
0.0
 10
-31.8579
 20
48.34070000000001
 30
0.0
 10
-32.0253
 20
48.67910000000001
 30
0.0
 10
-32.36380000000001
 20
48.9848
 30
0.0
 10
-32.36380000000001
 20
48.9848
 30
0.0
 10
-32.8405
 20
49.4252
 30
0.0
 10
-33.5375
 20
49.7582
 30
0.0
 10
-34.4563
 20
49.9802
 30
0.0
 10
-34.4563
 20
49.9802
 30
0.0
 10
-35.3752
 20
50.2021
 30
0.0
 10
-36.1249
 20
50.3132
 30
0.0
 10
-36.709
 20
50.3132
 30
0.0
 10
-36.709
 20
50.3132
 30
0.0
 10
-37.2695
 20
50.3132
 30
0.0
 10
-37.6753
 20
50.2058
 30
0.0
 10
-37.92460000000001
 20
49.9893
 30
0.0
 10
-37.92460000000001
 20
49.9893
 30
0.0
 10
-38.172
 20
49.7745
 30
0.0
 10
-38.2976
 20
49.4925
 30
0.0
 10
-38.2976
 20
49.13950000000001
 30
0.0
 10
-38.2976
 20
49.13950000000001
 30
0.0
 10
-38.2976
 20
48.88480000000001
 30
0.0
 10
-38.232
 20
48.6445
 30
0.0
 10
-38.0992
 20
48.4226
 30
0.0
 10
-38.0992
 20
48.4226
 30
0.0
 10
-37.9682
 20
48.2006
 30
0.0
 10
-37.7426
 20
47.9877
 30
0.0
 10
-37.4224
 20
47.78570000000001
 30
0.0
 10
-37.4224
 20
47.78570000000001
 30
0.0
 10
-36.9711
 20
47.4982
 30
0.0
 10
-36.296
 20
47.2471
 30
0.0
 10
-35.397
 20
47.03420000000001
 30
0.0
 10
-35.397
 20
47.03420000000001
 30
0.0
 10
-34.6292
 20
46.8523
 30
0.0
 10
-34.0105
 20
46.76300000000001
 30
0.0
 10
-33.5411
 20
46.76300000000001
 30
0.0
  0
SPLINE
  5
32
330
1F
100
AcDbEntity
  8
Ebene 1
 62
   250
100
AcDbSpline
210
0.0
220
0.0
230
1.0
 70
    11
 71
     3
 72
    96
 73
    92
 74
     0
 42
0.0000000001
 43
0.0000000001
 40
0.0
 40
0.0
 40
0.0
 40
0.0
 40
0.0434782608695652
 40
0.0434782608695652
 40
0.0434782608695652
 40
0.0434782608695652
 40
0.0869565217391304
 40
0.0869565217391304
 40
0.0869565217391304
 40
0.0869565217391304
 40
0.1304347826086957
 40
0.1304347826086957
 40
0.1304347826086957
 40
0.1304347826086957
 40
0.1739130434782609
 40
0.1739130434782609
 40
0.1739130434782609
 40
0.1739130434782609
 40
0.2173913043478261
 40
0.2173913043478261
 40
0.2173913043478261
 40
0.2173913043478261
 40
0.2608695652173913
 40
0.2608695652173913
 40
0.2608695652173913
 40
0.2608695652173913
 40
0.3043478260869565
 40
0.3043478260869565
 40
0.3043478260869565
 40
0.3043478260869565
 40
0.3478260869565217
 40
0.3478260869565217
 40
0.3478260869565217
 40
0.3478260869565217
 40
0.3913043478260869
 40
0.3913043478260869
 40
0.3913043478260869
 40
0.3913043478260869
 40
0.4347826086956521
 40
0.4347826086956521
 40
0.4347826086956521
 40
0.4347826086956521
 40
0.4782608695652173
 40
0.4782608695652173
 40
0.4782608695652173
 40
0.4782608695652173
 40
0.5217391304347825
 40
0.5217391304347825
 40
0.5217391304347825
 40
0.5217391304347825
 40
0.5652173913043477
 40
0.5652173913043477
 40
0.5652173913043477
 40
0.5652173913043477
 40
0.6086956521739129
 40
0.6086956521739129
 40
0.6086956521739129
 40
0.6086956521739129
 40
0.6521739130434781
 40
0.6521739130434781
 40
0.6521739130434781
 40
0.6521739130434781
 40
0.6956521739130432
 40
0.6956521739130432
 40
0.6956521739130432
 40
0.6956521739130432
 40
0.7391304347826084
 40
0.7391304347826084
 40
0.7391304347826084
 40
0.7391304347826084
 40
0.7826086956521736
 40
0.7826086956521736
 40
0.7826086956521736
 40
0.7826086956521736
 40
0.8260869565217388
 40
0.8260869565217388
 40
0.8260869565217388
 40
0.8260869565217388
 40
0.869565217391304
 40
0.869565217391304
 40
0.869565217391304
 40
0.869565217391304
 40
0.9130434782608692
 40
0.9130434782608692
 40
0.9130434782608692
 40
0.9130434782608692
 40
0.9565217391304344
 40
0.9565217391304344
 40
0.9565217391304344
 40
0.9565217391304344
 40
1.0
 40
1.0
 40
1.0
 40
1.0
 10
39.313
 20
68.43250000000001
 30
0.0
 10
39.4113
 20
68.89830000000001
 30
0.0
 10
39.5495
 20
69.2877
 30
0.0
 10
39.726
 20
69.60250000000001
 30
0.0
 10
39.726
 20
69.60250000000001
 30
0.0
 10
39.9007
 20
69.9173
 30
0.0
 10
40.1355
 20
70.2157
 30
0.0
 10
40.4266
 20
70.49770000000001
 30
0.0
 10
40.4266
 20
70.49770000000001
 30
0.0
 10
40.7177
 20
70.7816
 30
0.0
 10
41.28
 20
71.2547
 30
0.0
 10
42.1116
 20
71.91880000000001
 30
0.0
 10
42.1116
 20
71.91880000000001
 30
0.0
 10
42.6156
 20
72.321
 30
0.0
 10
42.95950000000001
 20
72.61760000000001
 30
0.0
 10
43.1451
 20
72.8087
 30
0.0
 10
43.1451
 20
72.8087
 30
0.0
 10
43.4108
 20
73.087
 30
0.0
 10
43.6055
 20
73.3582
 30
0.0
 10
43.7256
 20
73.62570000000001
 30
0.0
 10
43.7256
 20
73.62570000000001
 30
0.0
 10
43.8074
 20
73.80580000000001
 30
0.0
 10
43.8493
 20
74.0042
 30
0.0
 10
43.8493
 20
74.217
 30
0.0
 10
43.8493
 20
74.217
 30
0.0
 10
43.8493
 20
74.57550000000001
 30
0.0
 10
43.72190000000001
 20
74.8794
 30
0.0
 10
43.46720000000001
 20
75.1305
 30
0.0
 10
43.46720000000001
 20
75.1305
 30
0.0
 10
43.21420000000001
 20
75.38160000000001
 30
0.0
 10
42.9013
 20
75.5072
 30
0.0
 10
42.5319
 20
75.5072
 30
0.0
 10
42.5319
 20
75.5072
 30
0.0
 10
42.1662
 20
75.5072
 30
0.0
 10
41.8459
 20
75.3798
 30
0.0
 10
41.5729
 20
75.125
 30
0.0
 10
41.5729
 20
75.125
 30
0.0
 10
41.2982
 20
74.8721
 30
0.0
 10
41.1035
 20
74.4627
 30
0.0
 10
40.9852
 20
73.9023
 30
0.0
 10
40.9852
 20
73.9023
 30
0.0
 10
40.9852
 20
73.9023
 30
0.0
 10
40.0426
 20
74.04050000000001
 30
0.0
 10
40.0426
 20
74.04050000000001
 30
0.0
 10
40.0426
 20
74.04050000000001
 30
0.0
 10
40.1355
 20
74.73390000000001
 30
0.0
 10
40.4048
 20
75.27970000000001
 30
0.0
 10
40.8506
 20
75.68000000000001
 30
0.0
 10
40.8506
 20
75.68000000000001
 30
0.0
 10
41.2964
 20
76.08030000000001
 30
0.0
 10
41.85140000000001
 20
76.2805
 30
0.0
 10
42.5155
 20
76.2805
 30
0.0
 10
42.5155
 20
76.2805
 30
0.0
 10
42.95950000000001
 20
76.2805
 30
0.0
 10
43.3635
 20
76.18770000000001
 30
0.0
 10
43.7237
 20
76.0021
 30
0.0
 10
43.7237
 20
76.0021
 30
0.0
 10
44.084
 20
75.8184
 30
0.0
 10
44.3551
 20
75.55810000000001
 30
0.0
 10
44.5371
 20
75.22330000000001
 30
0.0
 10
44.5371
 20
75.22330000000001
 30
0.0
 10
44.71720000000001
 20
74.89030000000001
 30
0.0
 10
44.8082
 20
74.5446
 30
0.0
 10
44.8082
 20
74.18980000000001
 30
0.0
 10
44.8082
 20
74.18980000000001
 30
0.0
 10
44.8082
 20
73.6712
 30
0.0
 10
44.62450000000001
 20
73.1708
 30
0.0
 10
44.2532
 20
72.6922
 30
0.0
 10
44.2532
 20
72.6922
 30
0.0
 10
44.0258
 20
72.3938
 30
0.0
 10
43.358
 20
71.806
 30
0.0
 10
42.2498
 20
70.9272
 30
0.0
 10
42.2498
 20
70.9272
 30
0.0
 10
41.7731
 20
70.5505
 30
0.0
 10
41.4182
 20
70.2411
 30
0.0
 10
41.1854
 20
69.9991
 30
0.0
 10
41.1854
 20
69.9991
 30
0.0
 10
40.9525
 20
69.759
 30
0.0
 10
40.7778
 20
69.53150000000001
 30
0.0
 10
40.6613
 20
69.3168
 30
0.0
 10
40.6613
 20
69.3168
 30
0.0
 10
40.6613
 20
69.3168
 30
0.0
 10
44.1586
 20
69.3168
 30
0.0
 10
44.1586
 20
69.3168
 30
0.0
 10
44.1586
 20
69.3168
 30
0.0
 10
44.1586
 20
69.3168
 30
0.0
 10
43.9712
 20
68.43250000000001
 30
0.0
 10
43.9712
 20
68.43250000000001
 30
0.0
 10
43.9712
 20
68.43250000000001
 30
0.0
 10
43.9712
 20
68.43250000000001
 30
0.0
 10
39.313
 20
68.43250000000001
 30
0.0
 10
39.313
 20
68.43250000000001
 30
0.0
  0
SPLINE
  5
33
330
1F
100
AcDbEntity
  8
Ebene 1
 62
   250
100
AcDbSpline
210
0.0
220
0.0
230
1.0
 70
    11
 71
     3
 72
    52
 73
    48
 74
     0
 42
0.0000000001
 43
0.0000000001
 40
0.0
 40
0.0
 40
0.0
 40
0.0
 40
0.0833333333333333
 40
0.0833333333333333
 40
0.0833333333333333
 40
0.0833333333333333
 40
0.1666666666666667
 40
0.1666666666666667
 40
0.1666666666666667
 40
0.1666666666666667
 40
0.25
 40
0.25
 40
0.25
 40
0.25
 40
0.3333333333333333
 40
0.3333333333333333
 40
0.3333333333333333
 40
0.3333333333333333
 40
0.4166666666666666
 40
0.4166666666666666
 40
0.4166666666666666
 40
0.4166666666666666
 40
0.4999999999999999
 40
0.4999999999999999
 40
0.4999999999999999
 40
0.4999999999999999
 40
0.5833333333333333
 40
0.5833333333333333
 40
0.5833333333333333
 40
0.5833333333333333
 40
0.6666666666666666
 40
0.6666666666666666
 40
0.6666666666666666
 40
0.6666666666666666
 40
0.75
 40
0.75
 40
0.75
 40
0.75
 40
0.8333333333333334
 40
0.8333333333333334
 40
0.8333333333333334
 40
0.8333333333333334
 40
0.9166666666666667
 40
0.9166666666666667
 40
0.9166666666666667
 40
0.9166666666666667
 40
1.0
 40
1.0
 40
1.0
 40
1.0
 10
45.5179
 20
70.99630000000001
 30
0.0
 10
45.5179
 20
71.65690000000001
 30
0.0
 10
45.6161
 20
72.3301
 30
0.0
 10
45.8127
 20
73.0125
 30
0.0
 10
45.8127
 20
73.0125
 30
0.0
 10
46.011
 20
73.6949
 30
0.0
 10
46.22940000000001
 20
74.2389
 30
0.0
 10
46.4714
 20
74.64830000000001
 30
0.0
 10
46.4714
 20
74.64830000000001
 30
0.0
 10
46.7134
 20
75.0577
 30
0.0
 10
46.9645
 20
75.3762
 30
0.0
 10
47.2229
 20
75.60720000000001
 30
0.0
 10
47.2229
 20
75.60720000000001
 30
0.0
 10
47.4831
 20
75.8383
 30
0.0
 10
47.7379
 20
76.0094
 30
0.0
 10
47.9889
 20
76.1168
 30
0.0
 10
47.9889
 20
76.1168
 30
0.0
 10
48.2383
 20
76.22590000000001
 30
0.0
 10
48.5167
 20
76.2805
 30
0.0
 10
48.82230000000001
 20
76.2805
 30
0.0
 10
48.82230000000001
 20
76.2805
 30
0.0
 10
49.4192
 20
76.2805
 30
0.0
 10
49.9177
 20
76.05670000000001
 30
0.0
 10
50.3181
 20
75.6127
 30
0.0
 10
50.3181
 20
75.6127
 30
0.0
 10
50.7184
 20
75.1687
 30
0.0
 10
50.9185
 20
74.5282
 30
0.0
 10
50.9185
 20
73.68940000000001
 30
0.0
 10
50.9185
 20
73.68940000000001
 30
0.0
 10
50.9185
 20
72.82510000000001
 30
0.0
 10
50.77840000000001
 20
71.96980000000001
 30
0.0
 10
50.5019
 20
71.1255
 30
0.0
 10
50.5019
 20
71.1255
 30
0.0
 10
50.1743
 20
70.1229
 30
0.0
 10
49.7194
 20
69.37140000000001
 30
0.0
 10
49.1372
 20
68.8691
 30
0.0
 10
49.1372
 20
68.8691
 30
0.0
 10
48.6895
 20
68.4889
 30
0.0
 10
48.18
 20
68.2996
 30
0.0
 10
47.6069
 20
68.2996
 30
0.0
 10
47.6069
 20
68.2996
 30
0.0
 10
47.02090000000001
 20
68.2996
 30
0.0
 10
46.526
 20
68.52890000000001
 30
0.0
 10
46.1221
 20
68.9893
 30
0.0
 10
46.1221
 20
68.9893
 30
0.0
 10
45.7199
 20
69.4496
 30
0.0
 10
45.5179
 20
70.11930000000001
 30
0.0
 10
45.5179
 20
70.99630000000001
 30
0.0
  0
SPLINE
  5
34
330
1F
100
AcDbEntity
  8
Ebene 1
 62
   250
100
AcDbSpline
210
0.0
220
0.0
230
1.0
 70
    11
 71
     3
 72
    48
 73
    44
 74
     0
 42
0.0000000001
 43
0.0000000001
 40
0.0
 40
0.0
 40
0.0
 40
0.0
 40
0.0909090909090909
 40
0.0909090909090909
 40
0.0909090909090909
 40
0.0909090909090909
 40
0.1818181818181818
 40
0.1818181818181818
 40
0.1818181818181818
 40
0.1818181818181818
 40
0.2727272727272727
 40
0.2727272727272727
 40
0.2727272727272727
 40
0.2727272727272727
 40
0.3636363636363637
 40
0.3636363636363637
 40
0.3636363636363637
 40
0.3636363636363637
 40
0.4545454545454546
 40
0.4545454545454546
 40
0.4545454545454546
 40
0.4545454545454546
 40
0.5454545454545455
 40
0.5454545454545455
 40
0.5454545454545455
 40
0.5454545454545455
 40
0.6363636363636365
 40
0.6363636363636365
 40
0.6363636363636365
 40
0.6363636363636365
 40
0.7272727272727274
 40
0.7272727272727274
 40
0.7272727272727274
 40
0.7272727272727274
 40
0.8181818181818183
 40
0.8181818181818183
 40
0.8181818181818183
 40
0.8181818181818183
 40
0.9090909090909093
 40
0.9090909090909093
 40
0.9090909090909093
 40
0.9090909090909093
 40
1.0
 40
1.0
 40
1.0
 40
1.0
 10
46.4513
 20
70.75070000000001
 30
0.0
 10
46.4513
 20
70.27210000000001
 30
0.0
 10
46.5296
 20
69.8972
 30
0.0
 10
46.6897
 20
69.62610000000001
 30
0.0
 10
46.6897
 20
69.62610000000001
 30
0.0
 10
46.9063
 20
69.2531
 30
0.0
 10
47.2284
 20
69.06750000000001
 30
0.0
 10
47.656
 20
69.06750000000001
 30
0.0
 10
47.656
 20
69.06750000000001
 30
0.0
 10
48.029
 20
69.06750000000001
 30
0.0
 10
48.3674
 20
69.23490000000001
 30
0.0
 10
48.67310000000001
 20
69.57340000000001
 30
0.0
 10
48.67310000000001
 20
69.57340000000001
 30
0.0
 10
49.1135
 20
70.0501
 30
0.0
 10
49.4465
 20
70.7471
 30
0.0
 10
49.6685
 20
71.66590000000001
 30
0.0
 10
49.6685
 20
71.66590000000001
 30
0.0
 10
49.8904
 20
72.5848
 30
0.0
 10
50.0015
 20
73.33450000000001
 30
0.0
 10
50.0015
 20
73.9186
 30
0.0
 10
50.0015
 20
73.9186
 30
0.0
 10
50.0015
 20
74.4791
 30
0.0
 10
49.8941
 20
74.8849
 30
0.0
 10
49.67760000000001
 20
75.13420000000001
 30
0.0
 10
49.67760000000001
 20
75.13420000000001
 30
0.0
 10
49.4628
 20
75.38160000000001
 30
0.0
 10
49.18080000000001
 20
75.5072
 30
0.0
 10
48.8278
 20
75.5072
 30
0.0
 10
48.8278
 20
75.5072
 30
0.0
 10
48.5731
 20
75.5072
 30
0.0
 10
48.3328
 20
75.44160000000001
 30
0.0
 10
48.1109
 20
75.30880000000001
 30
0.0
 10
48.1109
 20
75.30880000000001
 30
0.0
 10
47.8889
 20
75.17780000000001
 30
0.0
 10
47.676
 20
74.95220000000001
 30
0.0
 10
47.474
 20
74.63200000000001
 30
0.0
 10
47.474
 20
74.63200000000001
 30
0.0
 10
47.1865
 20
74.1807
 30
0.0
 10
46.9354
 20
73.5056
 30
0.0
 10
46.7225
 20
72.6066
 30
0.0
 10
46.7225
 20
72.6066
 30
0.0
 10
46.54060000000001
 20
71.83880000000001
 30
0.0
 10
46.4513
 20
71.2201
 30
0.0
 10
46.4513
 20
70.75070000000001
 30
0.0
  0
SPLINE
  5
35
330
1F
100
AcDbEntity
  8
Ebene 1
 62
   250
100
AcDbSpline
210
0.0
220
0.0
230
1.0
 70
    11
 71
     3
 72
    48
 73
    44
 74
     0
 42
0.0000000001
 43
0.0000000001
 40
0.0
 40
0.0
 40
0.0
 40
0.0
 40
0.0909090909090909
 40
0.0909090909090909
 40
0.0909090909090909
 40
0.0909090909090909
 40
0.1818181818181818
 40
0.1818181818181818
 40
0.1818181818181818
 40
0.1818181818181818
 40
0.2727272727272727
 40
0.2727272727272727
 40
0.2727272727272727
 40
0.2727272727272727
 40
0.3636363636363637
 40
0.3636363636363637
 40
0.3636363636363637
 40
0.3636363636363637
 40
0.4545454545454546
 40
0.4545454545454546
 40
0.4545454545454546
 40
0.4545454545454546
 40
0.5454545454545455
 40
0.5454545454545455
 40
0.5454545454545455
 40
0.5454545454545455
 40
0.6363636363636365
 40
0.6363636363636365
 40
0.6363636363636365
 40
0.6363636363636365
 40
0.7272727272727274
 40
0.7272727272727274
 40
0.7272727272727274
 40
0.7272727272727274
 40
0.8181818181818183
 40
0.8181818181818183
 40
0.8181818181818183
 40
0.8181818181818183
 40
0.9090909090909093
 40
0.9090909090909093
 40
0.9090909090909093
 40
0.9090909090909093
 40
1.0
 40
1.0
 40
1.0
 40
1.0
 10
-17.1899
 20
62.3977
 30
0.0
 10
-17.1899
 20
62.3977
 30
0.0
 10
-16.7697
 20
64.39200000000001
 30
0.0
 10
-16.7697
 20
64.39200000000001
 30
0.0
 10
-16.7697
 20
64.39200000000001
 30
0.0
 10
-16.7697
 20
64.39200000000001
 30
0.0
 10
-19.9576
 20
64.39200000000001
 30
0.0
 10
-19.9576
 20
64.39200000000001
 30
0.0
 10
-19.9576
 20
64.39200000000001
 30
0.0
 10
-19.9576
 20
64.39200000000001
 30
0.0
 10
-19.7538
 20
65.3455
 30
0.0
 10
-19.7538
 20
65.3455
 30
0.0
 10
-19.7538
 20
65.3455
 30
0.0
 10
-19.7538
 20
65.3455
 30
0.0
 10
-15.3776
 20
70.21300000000001
 30
0.0
 10
-15.3776
 20
70.21300000000001
 30
0.0
 10
-15.3776
 20
70.21300000000001
 30
0.0
 10
-15.3776
 20
70.21300000000001
 30
0.0
 10
-14.5879
 20
70.21300000000001
 30
0.0
 10
-14.5879
 20
70.21300000000001
 30
0.0
 10
-14.5879
 20
70.21300000000001
 30
0.0
 10
-14.5879
 20
70.21300000000001
 30
0.0
 10
-15.6287
 20
65.2436
 30
0.0
 10
-15.6287
 20
65.2436
 30
0.0
 10
-15.6287
 20
65.2436
 30
0.0
 10
-15.6287
 20
65.2436
 30
0.0
 10
-14.5296
 20
65.2436
 30
0.0
 10
-14.5296
 20
65.2436
 30
0.0
 10
-14.5296
 20
65.2436
 30
0.0
 10
-14.5296
 20
65.2436
 30
0.0
 10
-14.7062
 20
64.39200000000001
 30
0.0
 10
-14.7062
 20
64.39200000000001
 30
0.0
 10
-14.7062
 20
64.39200000000001
 30
0.0
 10
-14.7062
 20
64.39200000000001
 30
0.0
 10
-15.8034
 20
64.39200000000001
 30
0.0
 10
-15.8034
 20
64.39200000000001
 30
0.0
 10
-15.8034
 20
64.39200000000001
 30
0.0
 10
-15.8034
 20
64.39200000000001
 30
0.0
 10
-16.2256
 20
62.3977
 30
0.0
 10
-16.2256
 20
62.3977
 30
0.0
 10
-16.2256
 20
62.3977
 30
0.0
 10
-16.2256
 20
62.3977
 30
0.0
 10
-17.1899
 20
62.3977
 30
0.0
 10
-17.1899
 20
62.3977
 30
0.0
  0
SPLINE
  5
36
330
1F
100
AcDbEntity
  8
Ebene 1
 62
   250
100
AcDbSpline
210
0.0
220
0.0
230
1.0
 70
    11
 71
     3
 72
    16
 73
    12
 74
     0
 42
0.0000000001
 43
0.0000000001
 40
0.0
 40
0.0
 40
0.0
 40
0.0
 40
0.3333333333333333
 40
0.3333333333333333
 40
0.3333333333333333
 40
0.3333333333333333
 40
0.6666666666666666
 40
0.6666666666666666
 40
0.6666666666666666
 40
0.6666666666666666
 40
1.0
 40
1.0
 40
1.0
 40
1.0
 10
-16.5931
 20
65.2436
 30
0.0
 10
-16.5931
 20
65.2436
 30
0.0
 10
-15.9108
 20
68.50620000000001
 30
0.0
 10
-15.9108
 20
68.50620000000001
 30
0.0
 10
-15.9108
 20
68.50620000000001
 30
0.0
 10
-15.9108
 20
68.50620000000001
 30
0.0
 10
-18.8221
 20
65.2436
 30
0.0
 10
-18.8221
 20
65.2436
 30
0.0
 10
-18.8221
 20
65.2436
 30
0.0
 10
-18.8221
 20
65.2436
 30
0.0
 10
-16.5931
 20
65.2436
 30
0.0
 10
-16.5931
 20
65.2436
 30
0.0
  0
SPLINE
  5
37
330
1F
100
AcDbEntity
  8
Ebene 1
 62
   250
100
AcDbSpline
210
0.0
220
0.0
230
1.0
 70
    11
 71
     3
 72
   120
 73
   116
 74
     0
 42
0.0000000001
 43
0.0000000001
 40
0.0
 40
0.0
 40
0.0
 40
0.0
 40
0.0344827586206897
 40
0.0344827586206897
 40
0.0344827586206897
 40
0.0344827586206897
 40
0.0689655172413793
 40
0.0689655172413793
 40
0.0689655172413793
 40
0.0689655172413793
 40
0.103448275862069
 40
0.103448275862069
 40
0.103448275862069
 40
0.103448275862069
 40
0.1379310344827586
 40
0.1379310344827586
 40
0.1379310344827586
 40
0.1379310344827586
 40
0.1724137931034483
 40
0.1724137931034483
 40
0.1724137931034483
 40
0.1724137931034483
 40
0.206896551724138
 40
0.206896551724138
 40
0.206896551724138
 40
0.206896551724138
 40
0.2413793103448276
 40
0.2413793103448276
 40
0.2413793103448276
 40
0.2413793103448276
 40
0.2758620689655173
 40
0.2758620689655173
 40
0.2758620689655173
 40
0.2758620689655173
 40
0.310344827586207
 40
0.310344827586207
 40
0.310344827586207
 40
0.310344827586207
 40
0.3448275862068966
 40
0.3448275862068966
 40
0.3448275862068966
 40
0.3448275862068966
 40
0.3793103448275863
 40
0.3793103448275863
 40
0.3793103448275863
 40
0.3793103448275863
 40
0.413793103448276
 40
0.413793103448276
 40
0.413793103448276
 40
0.413793103448276
 40
0.4482758620689656
 40
0.4482758620689656
 40
0.4482758620689656
 40
0.4482758620689656
 40
0.4827586206896553
 40
0.4827586206896553
 40
0.4827586206896553
 40
0.4827586206896553
 40
0.517241379310345
 40
0.517241379310345
 40
0.517241379310345
 40
0.517241379310345
 40
0.5517241379310346
 40
0.5517241379310346
 40
0.5517241379310346
 40
0.5517241379310346
 40
0.5862068965517242
 40
0.5862068965517242
 40
0.5862068965517242
 40
0.5862068965517242
 40
0.6206896551724138
 40
0.6206896551724138
 40
0.6206896551724138
 40
0.6206896551724138
 40
0.6551724137931034
 40
0.6551724137931034
 40
0.6551724137931034
 40
0.6551724137931034
 40
0.689655172413793
 40
0.689655172413793
 40
0.689655172413793
 40
0.689655172413793
 40
0.7241379310344827
 40
0.7241379310344827
 40
0.7241379310344827
 40
0.7241379310344827
 40
0.7586206896551723
 40
0.7586206896551723
 40
0.7586206896551723
 40
0.7586206896551723
 40
0.7931034482758619
 40
0.7931034482758619
 40
0.7931034482758619
 40
0.7931034482758619
 40
0.8275862068965515
 40
0.8275862068965515
 40
0.8275862068965515
 40
0.8275862068965515
 40
0.8620689655172411
 40
0.8620689655172411
 40
0.8620689655172411
 40
0.8620689655172411
 40
0.8965517241379307
 40
0.8965517241379307
 40
0.8965517241379307
 40
0.8965517241379307
 40
0.9310344827586203
 40
0.9310344827586203
 40
0.9310344827586203
 40
0.9310344827586203
 40
0.9655172413793099
 40
0.9655172413793099
 40
0.9655172413793099
 40
0.9655172413793099
 40
1.0
 40
1.0
 40
1.0
 40
1.0
 10
-13.7836
 20
64.4447
 30
0.0
 10
-13.7836
 20
64.4447
 30
0.0
 10
-12.8446
 20
64.5612
 30
0.0
 10
-12.8446
 20
64.5612
 30
0.0
 10
-12.8446
 20
64.5612
 30
0.0
 10
-12.7737
 20
64.0153
 30
0.0
 10
-12.6173
 20
63.6223
 30
0.0
 10
-12.3734
 20
63.3858
 30
0.0
 10
-12.3734
 20
63.3858
 30
0.0
 10
-12.1296
 20
63.151
 30
0.0
 10
-11.8111
 20
63.03270000000001
 30
0.0
 10
-11.4162
 20
63.03270000000001
 30
0.0
 10
-11.4162
 20
63.03270000000001
 30
0.0
 10
-10.9396
 20
63.03270000000001
 30
0.0
 10
-10.5283
 20
63.2019
 30
0.0
 10
-10.1826
 20
63.5441
 30
0.0
 10
-10.1826
 20
63.5441
 30
0.0
 10
-9.835000000000001
 20
63.8843
 30
0.0
 10
-9.6622
 20
64.27550000000001
 30
0.0
 10
-9.6622
 20
64.71590000000001
 30
0.0
 10
-9.6622
 20
64.71590000000001
 30
0.0
 10
-9.6622
 20
65.0998
 30
0.0
 10
-9.793200000000001
 20
65.4183
 30
0.0
 10
-10.0515
 20
65.6675
 30
0.0
 10
-10.0515
 20
65.6675
 30
0.0
 10
-10.3118
 20
65.9186
 30
0.0
 10
-10.6593
 20
66.0442
 30
0.0
 10
-11.096
 20
66.0442
 30
0.0
 10
-11.096
 20
66.0442
 30
0.0
 10
-11.147
 20
66.0442
 30
0.0
 10
-11.2489
 20
66.0369
 30
0.0
 10
-11.4053
 20
66.02240000000001
 30
0.0
 10
-11.4053
 20
66.02240000000001
 30
0.0
 10
-11.4053
 20
66.02240000000001
 30
0.0
 10
-11.2398
 20
66.82850000000001
 30
0.0
 10
-11.2398
 20
66.82850000000001
 30
0.0
 10
-11.2398
 20
66.82850000000001
 30
0.0
 10
-11.1488
 20
66.8139
 30
0.0
 10
-11.0596
 20
66.8066
 30
0.0
 10
-10.9741
 20
66.8066
 30
0.0
 10
-10.9741
 20
66.8066
 30
0.0
 10
-10.4227
 20
66.8066
 30
0.0
 10
-9.998700000000001
 20
66.9413
 30
0.0
 10
-9.702200000000001
 20
67.2088
 30
0.0
 10
-9.702200000000001
 20
67.2088
 30
0.0
 10
-9.4056
 20
67.4781
 30
0.0
 10
-9.2582
 20
67.8074
 30
0.0
 10
-9.2582
 20
68.1986
 30
0.0
 10
-9.2582
 20
68.1986
 30
0.0
 10
-9.2582
 20
68.55710000000001
 30
0.0
 10
-9.378300000000001
 20
68.8591
 30
0.0
 10
-9.6221
 20
69.1048
 30
0.0
 10
-9.6221
 20
69.1048
 30
0.0
 10
-9.866
 20
69.34870000000001
 30
0.0
 10
-10.1644
 20
69.47240000000001
 30
0.0
 10
-10.5156
 20
69.47240000000001
 30
0.0
 10
-10.5156
 20
69.47240000000001
 30
0.0
 10
-10.8595
 20
69.47240000000001
 30
0.0
 10
-11.1706
 20
69.3468
 30
0.0
 10
-11.4454
 20
69.09570000000001
 30
0.0
 10
-11.4454
 20
69.09570000000001
 30
0.0
 10
-11.7219
 20
68.8446
 30
0.0
 10
-11.8985
 20
68.49160000000001
 30
0.0
 10
-11.9767
 20
68.03310000000001
 30
0.0
 10
-11.9767
 20
68.03310000000001
 30
0.0
 10
-11.9767
 20
68.03310000000001
 30
0.0
 10
-12.9247
 20
68.22410000000001
 30
0.0
 10
-12.9247
 20
68.22410000000001
 30
0.0
 10
-12.9247
 20
68.22410000000001
 30
0.0
 10
-12.7683
 20
68.86830000000001
 30
0.0
 10
-12.468
 20
69.36500000000001
 30
0.0
 10
-12.0241
 20
69.7162
 30
0.0
 10
-12.0241
 20
69.7162
 30
0.0
 10
-11.58
 20
70.06920000000001
 30
0.0
 10
-11.0541
 20
70.2457
 30
0.0
 10
-10.4464
 20
70.2457
 30
0.0
 10
-10.4464
 20
70.2457
 30
0.0
 10
-9.805900000000001
 20
70.2457
 30
0.0
 10
-9.289100000000001
 20
70.051
 30
0.0
 10
-8.8924
 20
69.66340000000001
 30
0.0
 10
-8.8924
 20
69.66340000000001
 30
0.0
 10
-8.495800000000001
 20
69.2758
 30
0.0
 10
-8.297500000000001
 20
68.801
 30
0.0
 10
-8.297500000000001
 20
68.235
 30
0.0
 10
-8.297500000000001
 20
68.235
 30
0.0
 10
-8.297500000000001
 20
67.822
 30
0.0
 10
-8.4048
 20
67.4635
 30
0.0
 10
-8.6195
 20
67.15600000000001
 30
0.0
 10
-8.6195
 20
67.15600000000001
 30
0.0
 10
-8.836
 20
66.8484
 30
0.0
 10
-9.158100000000001
 20
66.5937
 30
0.0
 10
-9.5875
 20
66.39
 30
0.0
 10
-9.5875
 20
66.39
 30
0.0
 10
-9.281800000000001
 20
66.2098
 30
0.0
 10
-9.054400000000001
 20
65.9914
 30
0.0
 10
-8.9033
 20
65.7349
 30
0.0
 10
-8.9033
 20
65.7349
 30
0.0
 10
-8.7523
 20
65.4783
 30
0.0
 10
-8.676
 20
65.1853
 30
0.0
 10
-8.676
 20
64.85590000000001
 30
0.0
 10
-8.676
 20
64.85590000000001
 30
0.0
 10
-8.676
 20
64.1554
 30
0.0
 10
-8.937900000000001
 20
63.54770000000001
 30
0.0
 10
-9.462
 20
63.0345
 30
0.0
 10
-9.462
 20
63.0345
 30
0.0
 10
-9.9861
 20
62.5214
 30
0.0
 10
-10.6138
 20
62.2648
 30
0.0
 10
-11.3417
 20
62.2648
 30
0.0
 10
-11.3417
 20
62.2648
 30
0.0
 10
-12.0495
 20
62.2648
 30
0.0
 10
-12.6209
 20
62.4632
 30
0.0
 10
-13.0558
 20
62.858
 30
0.0
 10
-13.0558
 20
62.858
 30
0.0
 10
-13.4906
 20
63.2547
 30
0.0
 10
-13.7345
 20
63.78420000000001
 30
0.0
 10
-13.7836
 20
64.4447
 30
0.0
  0
SPLINE
  5
38
330
1F
100
AcDbEntity
  8
Ebene 1
 62
   250
100
AcDbSpline
210
0.0
220
0.0
230
1.0
 70
    11
 71
     3
 72
    36
 73
    32
 74
     0
 42
0.0000000001
 43
0.0000000001
 40
0.0
 40
0.0
 40
0.0
 40
0.0
 40
0.125
 40
0.125
 40
0.125
 40
0.125
 40
0.25
 40
0.25
 40
0.25
 40
0.25
 40
0.375
 40
0.375
 40
0.375
 40
0.375
 40
0.5
 40
0.5
 40
0.5
 40
0.5
 40
0.625
 40
0.625
 40
0.625
 40
0.625
 40
0.75
 40
0.75
 40
0.75
 40
0.75
 40
0.875
 40
0.875
 40
0.875
 40
0.875
 40
1.0
 40
1.0
 40
1.0
 40
1.0
 10
-7.717000000000001
 20
62.3977
 30
0.0
 10
-7.717000000000001
 20
62.3977
 30
0.0
 10
-7.4878
 20
63.4913
 30
0.0
 10
-7.4878
 20
63.4913
 30
0.0
 10
-7.4878
 20
63.4913
 30
0.0
 10
-7.4878
 20
63.4913
 30
0.0
 10
-6.3887
 20
63.4913
 30
0.0
 10
-6.3887
 20
63.4913
 30
0.0
 10
-6.3887
 20
63.4913
 30
0.0
 10
-6.3887
 20
63.4913
 30
0.0
 10
-6.587000000000001
 20
62.53590000000001
 30
0.0
 10
-6.587000000000001
 20
62.53590000000001
 30
0.0
 10
-6.587000000000001
 20
62.53590000000001
 30
0.0
 10
-6.7072
 20
61.9646
 30
0.0
 10
-6.894600000000001
 20
61.5443
 30
0.0
 10
-7.1494
 20
61.2786
 30
0.0
 10
-7.1494
 20
61.2786
 30
0.0
 10
-7.4023
 20
61.01110000000001
 30
0.0
 10
-7.702500000000001
 20
60.8582
 30
0.0
 10
-8.0464
 20
60.82
 30
0.0
 10
-8.0464
 20
60.82
 30
0.0
 10
-8.0464
 20
60.82
 30
0.0
 10
-7.9573
 20
61.2404
 30
0.0
 10
-7.9573
 20
61.2404
 30
0.0
 10
-7.9573
 20
61.2404
 30
0.0
 10
-7.533300000000001
 20
61.35870000000001
 30
0.0
 10
-7.2549
 20
61.74440000000001
 30
0.0
 10
-7.120200000000001
 20
62.3977
 30
0.0
 10
-7.120200000000001
 20
62.3977
 30
0.0
 10
-7.120200000000001
 20
62.3977
 30
0.0
 10
-7.717000000000001
 20
62.3977
 30
0.0
 10
-7.717000000000001
 20
62.3977
 30
0.0
  0
SPLINE
  5
39
330
1F
100
AcDbEntity
  8
Ebene 1
 62
   250
100
AcDbSpline
210
0.0
220
0.0
230
1.0
 70
    11
 71
     3
 72
   120
 73
   116
 74
     0
 42
0.0000000001
 43
0.0000000001
 40
0.0
 40
0.0
 40
0.0
 40
0.0
 40
0.0344827586206897
 40
0.0344827586206897
 40
0.0344827586206897
 40
0.0344827586206897
 40
0.0689655172413793
 40
0.0689655172413793
 40
0.0689655172413793
 40
0.0689655172413793
 40
0.103448275862069
 40
0.103448275862069
 40
0.103448275862069
 40
0.103448275862069
 40
0.1379310344827586
 40
0.1379310344827586
 40
0.1379310344827586
 40
0.1379310344827586
 40
0.1724137931034483
 40
0.1724137931034483
 40
0.1724137931034483
 40
0.1724137931034483
 40
0.206896551724138
 40
0.206896551724138
 40
0.206896551724138
 40
0.206896551724138
 40
0.2413793103448276
 40
0.2413793103448276
 40
0.2413793103448276
 40
0.2413793103448276
 40
0.2758620689655173
 40
0.2758620689655173
 40
0.2758620689655173
 40
0.2758620689655173
 40
0.310344827586207
 40
0.310344827586207
 40
0.310344827586207
 40
0.310344827586207
 40
0.3448275862068966
 40
0.3448275862068966
 40
0.3448275862068966
 40
0.3448275862068966
 40
0.3793103448275863
 40
0.3793103448275863
 40
0.3793103448275863
 40
0.3793103448275863
 40
0.413793103448276
 40
0.413793103448276
 40
0.413793103448276
 40
0.413793103448276
 40
0.4482758620689656
 40
0.4482758620689656
 40
0.4482758620689656
 40
0.4482758620689656
 40
0.4827586206896553
 40
0.4827586206896553
 40
0.4827586206896553
 40
0.4827586206896553
 40
0.517241379310345
 40
0.517241379310345
 40
0.517241379310345
 40
0.517241379310345
 40
0.5517241379310346
 40
0.5517241379310346
 40
0.5517241379310346
 40
0.5517241379310346
 40
0.5862068965517242
 40
0.5862068965517242
 40
0.5862068965517242
 40
0.5862068965517242
 40
0.6206896551724138
 40
0.6206896551724138
 40
0.6206896551724138
 40
0.6206896551724138
 40
0.6551724137931034
 40
0.6551724137931034
 40
0.6551724137931034
 40
0.6551724137931034
 40
0.689655172413793
 40
0.689655172413793
 40
0.689655172413793
 40
0.689655172413793
 40
0.7241379310344827
 40
0.7241379310344827
 40
0.7241379310344827
 40
0.7241379310344827
 40
0.7586206896551723
 40
0.7586206896551723
 40
0.7586206896551723
 40
0.7586206896551723
 40
0.7931034482758619
 40
0.7931034482758619
 40
0.7931034482758619
 40
0.7931034482758619
 40
0.8275862068965515
 40
0.8275862068965515
 40
0.8275862068965515
 40
0.8275862068965515
 40
0.8620689655172411
 40
0.8620689655172411
 40
0.8620689655172411
 40
0.8620689655172411
 40
0.8965517241379307
 40
0.8965517241379307
 40
0.8965517241379307
 40
0.8965517241379307
 40
0.9310344827586203
 40
0.9310344827586203
 40
0.9310344827586203
 40
0.9310344827586203
 40
0.9655172413793099
 40
0.9655172413793099
 40
0.9655172413793099
 40
0.9655172413793099
 40
1.0
 40
1.0
 40
1.0
 40
1.0
 10
-4.512700000000001
 20
64.6322
 30
0.0
 10
-4.512700000000001
 20
64.6322
 30
0.0
 10
-3.5319
 20
64.7268
 30
0.0
 10
-3.5319
 20
64.7268
 30
0.0
 10
-3.5319
 20
64.7268
 30
0.0
 10
-3.5392
 20
64.5885
 30
0.0
 10
-3.5428
 20
64.5048
 30
0.0
 10
-3.5428
 20
64.47750000000001
 30
0.0
 10
-3.5428
 20
64.47750000000001
 30
0.0
 10
-3.5428
 20
64.2428
 30
0.0
 10
-3.4828
 20
64.00620000000001
 30
0.0
 10
-3.3646
 20
63.7678
 30
0.0
 10
-3.3646
 20
63.7678
 30
0.0
 10
-3.2444
 20
63.52950000000001
 30
0.0
 10
-3.0825
 20
63.3475
 30
0.0
 10
-2.8787
 20
63.222
 30
0.0
 10
-2.8787
 20
63.222
 30
0.0
 10
-2.6749
 20
63.0946
 30
0.0
 10
-2.4583
 20
63.03270000000001
 30
0.0
 10
-2.2309
 20
63.03270000000001
 30
0.0
 10
-2.2309
 20
63.03270000000001
 30
0.0
 10
-1.9325
 20
63.03270000000001
 30
0.0
 10
-1.6286
 20
63.13460000000001
 30
0.0
 10
-1.3193
 20
63.34200000000001
 30
0.0
 10
-1.3193
 20
63.34200000000001
 30
0.0
 10
-1.01
 20
63.54770000000001
 30
0.0
 10
-0.7607
 20
63.8479
 30
0.0
 10
-0.5678000000000001
 20
64.2428
 30
0.0
 10
-0.5678000000000001
 20
64.2428
 30
0.0
 10
-0.3767
 20
64.6358
 30
0.0
 10
-0.2803
 20
65.027
 30
0.0
 10
-0.2803
 20
65.41460000000001
 30
0.0
 10
-0.2803
 20
65.41460000000001
 30
0.0
 10
-0.2803
 20
65.85130000000001
 30
0.0
 10
-0.4095
 20
66.2025
 30
0.0
 10
-0.6661
 20
66.4645
 30
0.0
 10
-0.6661
 20
66.4645
 30
0.0
 10
-0.9244
 20
66.72840000000001
 30
0.0
 10
-1.2629
 20
66.85940000000001
 30
0.0
 10
-1.6814
 20
66.85940000000001
 30
0.0
 10
-1.6814
 20
66.85940000000001
 30
0.0
 10
-1.9634
 20
66.85940000000001
 30
0.0
 10
-2.2291
 20
66.792
 30
0.0
 10
-2.4784
 20
66.65740000000001
 30
0.0
 10
-2.4784
 20
66.65740000000001
 30
0.0
 10
-2.7295
 20
66.5227
 30
0.0
 10
-2.9624
 20
66.3189
 30
0.0
 10
-3.1807
 20
66.0497
 30
0.0
 10
-3.1807
 20
66.0497
 30
0.0
 10
-3.1807
 20
66.0497
 30
0.0
 10
-4.0232
 20
66.1079
 30
0.0
 10
-4.0232
 20
66.1079
 30
0.0
 10
-4.0232
 20
66.1079
 30
0.0
 10
-4.0232
 20
66.1079
 30
0.0
 10
-2.8441
 20
70.10560000000001
 30
0.0
 10
-2.8441
 20
70.10560000000001
 30
0.0
 10
-2.8441
 20
70.10560000000001
 30
0.0
 10
-2.8441
 20
70.10560000000001
 30
0.0
 10
0.9735
 20
70.10560000000001
 30
0.0
 10
0.9735
 20
70.10560000000001
 30
0.0
 10
0.9735
 20
70.10560000000001
 30
0.0
 10
0.9735
 20
70.10560000000001
 30
0.0
 10
0.786
 20
69.22120000000001
 30
0.0
 10
0.786
 20
69.22120000000001
 30
0.0
 10
0.786
 20
69.22120000000001
 30
0.0
 10
0.786
 20
69.22120000000001
 30
0.0
 10
-2.1836
 20
69.22120000000001
 30
0.0
 10
-2.1836
 20
69.22120000000001
 30
0.0
 10
-2.1836
 20
69.22120000000001
 30
0.0
 10
-2.1836
 20
69.22120000000001
 30
0.0
 10
-2.7695
 20
67.2324
 30
0.0
 10
-2.7695
 20
67.2324
 30
0.0
 10
-2.7695
 20
67.2324
 30
0.0
 10
-2.5493
 20
67.3925
 30
0.0
 10
-2.3218
 20
67.51270000000001
 30
0.0
 10
-2.0908
 20
67.59270000000001
 30
0.0
 10
-2.0908
 20
67.59270000000001
 30
0.0
 10
-1.8579
 20
67.67270000000001
 30
0.0
 10
-1.6177
 20
67.7128
 30
0.0
 10
-1.3721
 20
67.7128
 30
0.0
 10
-1.3721
 20
67.7128
 30
0.0
 10
-0.7752
 20
67.7128
 30
0.0
 10
-0.2857
 20
67.5163
 30
0.0
 10
0.0982
 20
67.12140000000001
 30
0.0
 10
0.0982
 20
67.12140000000001
 30
0.0
 10
0.4822
 20
66.72660000000001
 30
0.0
 10
0.675
 20
66.1862
 30
0.0
 10
0.675
 20
65.5001
 30
0.0
 10
0.675
 20
65.5001
 30
0.0
 10
0.675
 20
64.89970000000001
 30
0.0
 10
0.5422
 20
64.34650000000001
 30
0.0
 10
0.2802
 20
63.83880000000001
 30
0.0
 10
0.2802
 20
63.83880000000001
 30
0.0
 10
0.0163
 20
63.33300000000001
 30
0.0
 10
-0.3457
 20
62.9436
 30
0.0
 10
-0.8043
 20
62.6724
 30
0.0
 10
-0.8043
 20
62.6724
 30
0.0
 10
-1.2647
 20
62.3995
 30
0.0
 10
-1.7615
 20
62.2648
 30
0.0
 10
-2.2946
 20
62.2648
 30
0.0
 10
-2.2946
 20
62.2648
 30
0.0
 10
-2.7422
 20
62.2648
 30
0.0
 10
-3.1389
 20
62.36490000000001
 30
0.0
 10
-3.4846
 20
62.5687
 30
0.0
 10
-3.4846
 20
62.5687
 30
0.0
 10
-3.8285
 20
62.77070000000001
 30
0.0
 10
-4.0869
 20
63.0491
 30
0.0
 10
-4.2598
 20
63.4057
 30
0.0
 10
-4.2598
 20
63.4057
 30
0.0
 10
-4.432700000000001
 20
63.7605
 30
0.0
 10
-4.5181
 20
64.11540000000001
 30
0.0
 10
-4.5181
 20
64.47200000000001
 30
0.0
 10
-4.5181
 20
64.47200000000001
 30
0.0
 10
-4.5181
 20
64.50660000000001
 30
0.0
 10
-4.5164
 20
64.5594
 30
0.0
 10
-4.512700000000001
 20
64.6322
 30
0.0
  0
SPLINE
  5
3B
330
1F
100
AcDbEntity
  8
LC-003-003-----0
370
    20
100
AcDbSpline
210
0.0
220
0.0
230
1.0
 70
    24
 71
     3
 72
     8
 73
     4
 74
     0
 42
0.0000000001
 43
0.0000000001
 40
0.0
 40
0.0
 40
0.0
 40
0.0
 40
1.0
 40
1.0
 40
1.0
 40
1.0
 10
-42.9876
 20
42.3734
 30
0.0
 10
-42.9876
 20
42.3734
 30
0.0
 10
-42.6599
 20
44.7314
 30
0.0
 10
-42.6599
 20
44.7314
 30
0.0
  0
SPLINE
  5
3C
330
1F
100
AcDbEntity
  8
LC-003-003-----0
370
    20
100
AcDbSpline
210
0.0
220
0.0
230
1.0
 70
    24
 71
     3
 72
     8
 73
     4
 74
     0
 42
0.0000000001
 43
0.0000000001
 40
0.0
 40
0.0
 40
0.0
 40
0.0
 40
1.0
 40
1.0
 40
1.0
 40
1.0
 10
-42.3324
 20
42.3735
 30
0.0
 10
-42.3324
 20
42.3735
 30
0.0
 10
-42.6599
 20
44.7314
 30
0.0
 10
-42.6599
 20
44.7314
 30
0.0
  0
SPLINE
  5
3D
330
1F
100
AcDbEntity
  8
LC-003-003-----0
370
    20
100
AcDbSpline
210
0.0
220
0.0
230
1.0
 70
    24
 71
     3
 72
     8
 73
     4
 74
     0
 42
0.0000000001
 43
0.0000000001
 40
0.0
 40
0.0
 40
0.0
 40
0.0
 40
1.0
 40
1.0
 40
1.0
 40
1.0
 10
-43.3151
 20
42.4387
 30
0.0
 10
-43.3151
 20
42.4387
 30
0.0
 10
-42.66
 20
47.5484
 30
0.0
 10
-42.66
 20
47.5484
 30
0.0
  0
SPLINE
  5
3E
330
1F
100
AcDbEntity
  8
LC-003-003-----0
370
    20
100
AcDbSpline
210
0.0
220
0.0
230
1.0
 70
    24
 71
     3
 72
     8
 73
     4
 74
     0
 42
0.0000000001
 43
0.0000000001
 40
0.0
 40
0.0
 40
0.0
 40
0.0
 40
1.0
 40
1.0
 40
1.0
 40
1.0
 10
-42.0051
 20
42.4386
 30
0.0
 10
-42.0051
 20
42.4386
 30
0.0
 10
-42.66
 20
47.5484
 30
0.0
 10
-42.66
 20
47.5484
 30
0.0
  0
SPLINE
  5
3F
330
1F
100
AcDbEntity
  8
LC-003-003-----0
370
    20
100
AcDbSpline
210
0.0
220
0.0
230
1.0
 70
    24
 71
     3
 72
     8
 73
     4
 74
     0
 42
0.0000000001
 43
0.0000000001
 40
0.0
 40
0.0
 40
0.0
 40
0.0
 40
1.0
 40
1.0
 40
1.0
 40
1.0
 10
-43.70800000000001
 20
42.4388
 30
0.0
 10
-43.70800000000001
 20
42.4388
 30
0.0
 10
-42.6604
 20
50.365
 30
0.0
 10
-42.6604
 20
50.365
 30
0.0
  0
SPLINE
  5
40
330
1F
100
AcDbEntity
  8
LC-003-003-----0
370
    20
100
AcDbSpline
210
0.0
220
0.0
230
1.0
 70
    24
 71
     3
 72
     8
 73
     4
 74
     0
 42
0.0000000001
 43
0.0000000001
 40
0.0
 40
0.0
 40
0.0
 40
0.0
 40
1.0
 40
1.0
 40
1.0
 40
1.0
 10
-41.6118
 20
42.4389
 30
0.0
 10
-41.6118
 20
42.4389
 30
0.0
 10
-42.6604
 20
50.365
 30
0.0
 10
-42.6604
 20
50.365
 30
0.0
  0
SPLINE
  5
41
330
1F
100
AcDbEntity
  8
LC-003-003-----0
370
    20
100
AcDbSpline
210
0.0
220
0.0
230
1.0
 70
    24
 71
     3
 72
     8
 73
     4
 74
     0
 42
0.0000000001
 43
0.0000000001
 40
0.0
 40
0.0
 40
0.0
 40
0.0
 40
1.0
 40
1.0
 40
1.0
 40
1.0
 10
-41.2186
 20
42.4389
 30
0.0
 10
-41.2186
 20
42.4389
 30
0.0
 10
-44.1013
 20
42.4389
 30
0.0
 10
-44.1013
 20
42.4389
 30
0.0
  0
SPLINE
  5
42
330
1F
100
AcDbEntity
  8
LC-003-003-----0
370
    20
100
AcDbSpline
210
0.0
220
0.0
230
1.0
 70
    24
 71
     3
 72
     8
 73
     4
 74
     0
 42
0.0000000001
 43
0.0000000001
 40
0.0
 40
0.0
 40
0.0
 40
0.0
 40
1.0
 40
1.0
 40
1.0
 40
1.0
 10
-44.1013
 20
42.4389
 30
0.0
 10
-44.1013
 20
42.4389
 30
0.0
 10
-42.6602
 20
53.1816
 30
0.0
 10
-42.6602
 20
53.1816
 30
0.0
  0
SPLINE
  5
43
330
1F
100
AcDbEntity
  8
LC-003-003-----0
370
    20
100
AcDbSpline
210
0.0
220
0.0
230
1.0
 70
    24
 71
     3
 72
     8
 73
     4
 74
     0
 42
0.0000000001
 43
0.0000000001
 40
0.0
 40
0.0
 40
0.0
 40
0.0
 40
1.0
 40
1.0
 40
1.0
 40
1.0
 10
-41.2186
 20
42.4389
 30
0.0
 10
-41.2186
 20
42.4389
 30
0.0
 10
-42.6602
 20
53.1816
 30
0.0
 10
-42.6602
 20
53.1816
 30
0.0
  0
SPLINE
  5
44
330
1F
100
AcDbEntity
  8
LC-003-003-----0
370
    20
100
AcDbSpline
210
0.0
220
0.0
230
1.0
 70
    24
 71
     3
 72
     8
 73
     4
 74
     0
 42
0.0000000001
 43
0.0000000001
 40
0.0
 40
0.0
 40
0.0
 40
0.0
 40
1.0
 40
1.0
 40
1.0
 40
1.0
 10
-1.9736
 20
59.2957
 30
0.0
 10
-1.9736
 20
59.2957
 30
0.0
 10
0.3844
 20
58.9679
 30
0.0
 10
0.3844
 20
58.9679
 30
0.0
  0
SPLINE
  5
45
330
1F
100
AcDbEntity
  8
LC-003-003-----0
370
    20
100
AcDbSpline
210
0.0
220
0.0
230
1.0
 70
    24
 71
     3
 72
     8
 73
     4
 74
     0
 42
0.0000000001
 43
0.0000000001
 40
0.0
 40
0.0
 40
0.0
 40
0.0
 40
1.0
 40
1.0
 40
1.0
 40
1.0
 10
-1.9735
 20
58.6405
 30
0.0
 10
-1.9735
 20
58.6405
 30
0.0
 10
0.3844
 20
58.9679
 30
0.0
 10
0.3844
 20
58.9679
 30
0.0
  0
SPLINE
  5
46
330
1F
100
AcDbEntity
  8
LC-003-003-----0
370
    20
100
AcDbSpline
210
0.0
220
0.0
230
1.0
 70
    24
 71
     3
 72
     8
 73
     4
 74
     0
 42
0.0000000001
 43
0.0000000001
 40
0.0
 40
0.0
 40
0.0
 40
0.0
 40
1.0
 40
1.0
 40
1.0
 40
1.0
 10
-1.9084
 20
59.6232
 30
0.0
 10
-1.9084
 20
59.6232
 30
0.0
 10
3.2014
 20
58.9681
 30
0.0
 10
3.2014
 20
58.9681
 30
0.0
  0
SPLINE
  5
47
330
1F
100
AcDbEntity
  8
LC-003-003-----0
370
    20
100
AcDbSpline
210
0.0
220
0.0
230
1.0
 70
    24
 71
     3
 72
     8
 73
     4
 74
     0
 42
0.0000000001
 43
0.0000000001
 40
0.0
 40
0.0
 40
0.0
 40
0.0
 40
1.0
 40
1.0
 40
1.0
 40
1.0
 10
-1.9084
 20
58.3132
 30
0.0
 10
-1.9084
 20
58.3132
 30
0.0
 10
3.2014
 20
58.9681
 30
0.0
 10
3.2014
 20
58.9681
 30
0.0
  0
SPLINE
  5
48
330
1F
100
AcDbEntity
  8
LC-003-003-----0
370
    20
100
AcDbSpline
210
0.0
220
0.0
230
1.0
 70
    24
 71
     3
 72
     8
 73
     4
 74
     0
 42
0.0000000001
 43
0.0000000001
 40
0.0
 40
0.0
 40
0.0
 40
0.0
 40
1.0
 40
1.0
 40
1.0
 40
1.0
 10
-1.9081
 20
60.01600000000001
 30
0.0
 10
-1.9081
 20
60.01600000000001
 30
0.0
 10
6.018000000000001
 20
58.9686
 30
0.0
 10
6.018000000000001
 20
58.9686
 30
0.0
  0
SPLINE
  5
49
330
1F
100
AcDbEntity
  8
LC-003-003-----0
370
    20
100
AcDbSpline
210
0.0
220
0.0
230
1.0
 70
    24
 71
     3
 72
     8
 73
     4
 74
     0
 42
0.0000000001
 43
0.0000000001
 40
0.0
 40
0.0
 40
0.0
 40
0.0
 40
1.0
 40
1.0
 40
1.0
 40
1.0
 10
-1.908
 20
57.91990000000001
 30
0.0
 10
-1.908
 20
57.91990000000001
 30
0.0
 10
6.018000000000001
 20
58.9686
 30
0.0
 10
6.018000000000001
 20
58.9686
 30
0.0
  0
SPLINE
  5
4A
330
1F
100
AcDbEntity
  8
LC-003-003-----0
370
    20
100
AcDbSpline
210
0.0
220
0.0
230
1.0
 70
    24
 71
     3
 72
     8
 73
     4
 74
     0
 42
0.0000000001
 43
0.0000000001
 40
0.0
 40
0.0
 40
0.0
 40
0.0
 40
1.0
 40
1.0
 40
1.0
 40
1.0
 10
-1.9081
 20
57.52670000000001
 30
0.0
 10
-1.9081
 20
57.52670000000001
 30
0.0
 10
-1.9081
 20
60.40940000000001
 30
0.0
 10
-1.9081
 20
60.40940000000001
 30
0.0
  0
SPLINE
  5
4B
330
1F
100
AcDbEntity
  8
LC-003-003-----0
370
    20
100
AcDbSpline
210
0.0
220
0.0
230
1.0
 70
    24
 71
     3
 72
     8
 73
     4
 74
     0
 42
0.0000000001
 43
0.0000000001
 40
0.0
 40
0.0
 40
0.0
 40
0.0
 40
1.0
 40
1.0
 40
1.0
 40
1.0
 10
-1.9081
 20
60.40940000000001
 30
0.0
 10
-1.9081
 20
60.40940000000001
 30
0.0
 10
8.8346
 20
58.96830000000001
 30
0.0
 10
8.8346
 20
58.96830000000001
 30
0.0
  0
SPLINE
  5
4C
330
1F
100
AcDbEntity
  8
LC-003-003-----0
370
    20
100
AcDbSpline
210
0.0
220
0.0
230
1.0
 70
    24
 71
     3
 72
     8
 73
     4
 74
     0
 42
0.0000000001
 43
0.0000000001
 40
0.0
 40
0.0
 40
0.0
 40
0.0
 40
1.0
 40
1.0
 40
1.0
 40
1.0
 10
-1.9081
 20
57.52670000000001
 30
0.0
 10
-1.9081
 20
57.52670000000001
 30
0.0
 10
8.8346
 20
58.96830000000001
 30
0.0
 10
8.8346
 20
58.96830000000001
 30
0.0
  0
SPLINE
  5
4D
330
1F
100
AcDbEntity
  8
LC-003-003-----0
370
    20
100
AcDbSpline
210
0.0
220
0.0
230
1.0
 70
    24
 71
     3
 72
     8
 73
     4
 74
     0
 42
0.0000000001
 43
0.0000000001
 40
0.0
 40
0.0
 40
0.0
 40
0.0
 40
1.0
 40
1.0
 40
1.0
 40
1.0
 10
-30.7175
 20
27.0922
 30
0.0
 10
-30.7175
 20
27.0922
 30
0.0
 10
-30.3898
 20
29.4502
 30
0.0
 10
-30.3898
 20
29.4502
 30
0.0
  0
SPLINE
  5
4E
330
1F
100
AcDbEntity
  8
LC-003-003-----0
370
    20
100
AcDbSpline
210
0.0
220
0.0
230
1.0
 70
    24
 71
     3
 72
     8
 73
     4
 74
     0
 42
0.0000000001
 43
0.0000000001
 40
0.0
 40
0.0
 40
0.0
 40
0.0
 40
1.0
 40
1.0
 40
1.0
 40
1.0
 10
-30.0623
 20
27.0923
 30
0.0
 10
-30.0623
 20
27.0923
 30
0.0
 10
-30.3898
 20
29.4502
 30
0.0
 10
-30.3898
 20
29.4502
 30
0.0
  0
SPLINE
  5
4F
330
1F
100
AcDbEntity
  8
LC-003-003-----0
370
    20
100
AcDbSpline
210
0.0
220
0.0
230
1.0
 70
    24
 71
     3
 72
     8
 73
     4
 74
     0
 42
0.0000000001
 43
0.0000000001
 40
0.0
 40
0.0
 40
0.0
 40
0.0
 40
1.0
 40
1.0
 40
1.0
 40
1.0
 10
-31.045
 20
27.1575
 30
0.0
 10
-31.045
 20
27.1575
 30
0.0
 10
-30.3899
 20
32.2672
 30
0.0
 10
-30.3899
 20
32.2672
 30
0.0
  0
SPLINE
  5
50
330
1F
100
AcDbEntity
  8
LC-003-003-----0
370
    20
100
AcDbSpline
210
0.0
220
0.0
230
1.0
 70
    24
 71
     3
 72
     8
 73
     4
 74
     0
 42
0.0000000001
 43
0.0000000001
 40
0.0
 40
0.0
 40
0.0
 40
0.0
 40
1.0
 40
1.0
 40
1.0
 40
1.0
 10
-29.735
 20
27.1574
 30
0.0
 10
-29.735
 20
27.1574
 30
0.0
 10
-30.3899
 20
32.2672
 30
0.0
 10
-30.3899
 20
32.2672
 30
0.0
  0
SPLINE
  5
51
330
1F
100
AcDbEntity
  8
LC-003-003-----0
370
    20
100
AcDbSpline
210
0.0
220
0.0
230
1.0
 70
    24
 71
     3
 72
     8
 73
     4
 74
     0
 42
0.0000000001
 43
0.0000000001
 40
0.0
 40
0.0
 40
0.0
 40
0.0
 40
1.0
 40
1.0
 40
1.0
 40
1.0
 10
-31.4379
 20
27.1576
 30
0.0
 10
-31.4379
 20
27.1576
 30
0.0
 10
-30.3903
 20
35.0838
 30
0.0
 10
-30.3903
 20
35.0838
 30
0.0
  0
SPLINE
  5
52
330
1F
100
AcDbEntity
  8
LC-003-003-----0
370
    20
100
AcDbSpline
210
0.0
220
0.0
230
1.0
 70
    24
 71
     3
 72
     8
 73
     4
 74
     0
 42
0.0000000001
 43
0.0000000001
 40
0.0
 40
0.0
 40
0.0
 40
0.0
 40
1.0
 40
1.0
 40
1.0
 40
1.0
 10
-29.3417
 20
27.1577
 30
0.0
 10
-29.3417
 20
27.1577
 30
0.0
 10
-30.3903
 20
35.0838
 30
0.0
 10
-30.3903
 20
35.0838
 30
0.0
  0
SPLINE
  5
53
330
1F
100
AcDbEntity
  8
LC-003-003-----0
370
    20
100
AcDbSpline
210
0.0
220
0.0
230
1.0
 70
    24
 71
     3
 72
     8
 73
     4
 74
     0
 42
0.0000000001
 43
0.0000000001
 40
0.0
 40
0.0
 40
0.0
 40
0.0
 40
1.0
 40
1.0
 40
1.0
 40
1.0
 10
-28.9485
 20
27.1577
 30
0.0
 10
-28.9485
 20
27.1577
 30
0.0
 10
-31.8312
 20
27.1577
 30
0.0
 10
-31.8312
 20
27.1577
 30
0.0
  0
SPLINE
  5
54
330
1F
100
AcDbEntity
  8
LC-003-003-----0
370
    20
100
AcDbSpline
210
0.0
220
0.0
230
1.0
 70
    24
 71
     3
 72
     8
 73
     4
 74
     0
 42
0.0000000001
 43
0.0000000001
 40
0.0
 40
0.0
 40
0.0
 40
0.0
 40
1.0
 40
1.0
 40
1.0
 40
1.0
 10
-31.8312
 20
27.1577
 30
0.0
 10
-31.8312
 20
27.1577
 30
0.0
 10
-30.3901
 20
37.90040000000001
 30
0.0
 10
-30.3901
 20
37.90040000000001
 30
0.0
  0
SPLINE
  5
55
330
1F
100
AcDbEntity
  8
LC-003-003-----0
370
    20
100
AcDbSpline
210
0.0
220
0.0
230
1.0
 70
    24
 71
     3
 72
     8
 73
     4
 74
     0
 42
0.0000000001
 43
0.0000000001
 40
0.0
 40
0.0
 40
0.0
 40
0.0
 40
1.0
 40
1.0
 40
1.0
 40
1.0
 10
-28.9485
 20
27.1577
 30
0.0
 10
-28.9485
 20
27.1577
 30
0.0
 10
-30.3901
 20
37.90040000000001
 30
0.0
 10
-30.3901
 20
37.90040000000001
 30
0.0
  0
SPLINE
  5
56
330
1F
100
AcDbEntity
  8
LC-003-003-----0
370
    20
100
AcDbSpline
210
0.0
220
0.0
230
1.0
 70
    24
 71
     3
 72
     8
 73
     4
 74
     0
 42
0.0000000001
 43
0.0000000001
 40
0.0
 40
0.0
 40
0.0
 40
0.0
 40
1.0
 40
1.0
 40
1.0
 40
1.0
 10
26.6871
 20
65.84090000000001
 30
0.0
 10
26.6871
 20
65.84090000000001
 30
0.0
 10
29.045
 20
65.51300000000001
 30
0.0
 10
29.045
 20
65.51300000000001
 30
0.0
  0
SPLINE
  5
57
330
1F
100
AcDbEntity
  8
LC-003-003-----0
370
    20
100
AcDbSpline
210
0.0
220
0.0
230
1.0
 70
    24
 71
     3
 72
     8
 73
     4
 74
     0
 42
0.0000000001
 43
0.0000000001
 40
0.0
 40
0.0
 40
0.0
 40
0.0
 40
1.0
 40
1.0
 40
1.0
 40
1.0
 10
26.6871
 20
65.1857
 30
0.0
 10
26.6871
 20
65.1857
 30
0.0
 10
29.045
 20
65.51300000000001
 30
0.0
 10
29.045
 20
65.51300000000001
 30
0.0
  0
SPLINE
  5
58
330
1F
100
AcDbEntity
  8
LC-003-003-----0
370
    20
100
AcDbSpline
210
0.0
220
0.0
230
1.0
 70
    24
 71
     3
 72
     8
 73
     4
 74
     0
 42
0.0000000001
 43
0.0000000001
 40
0.0
 40
0.0
 40
0.0
 40
0.0
 40
1.0
 40
1.0
 40
1.0
 40
1.0
 10
26.7524
 20
66.16840000000001
 30
0.0
 10
26.7524
 20
66.16840000000001
 30
0.0
 10
31.8621
 20
65.5133
 30
0.0
 10
31.8621
 20
65.5133
 30
0.0
  0
SPLINE
  5
59
330
1F
100
AcDbEntity
  8
LC-003-003-----0
370
    20
100
AcDbSpline
210
0.0
220
0.0
230
1.0
 70
    24
 71
     3
 72
     8
 73
     4
 74
     0
 42
0.0000000001
 43
0.0000000001
 40
0.0
 40
0.0
 40
0.0
 40
0.0
 40
1.0
 40
1.0
 40
1.0
 40
1.0
 10
26.7522
 20
64.8584
 30
0.0
 10
26.7522
 20
64.8584
 30
0.0
 10
31.8621
 20
65.5133
 30
0.0
 10
31.8621
 20
65.5133
 30
0.0
  0
SPLINE
  5
5A
330
1F
100
AcDbEntity
  8
LC-003-003-----0
370
    20
100
AcDbSpline
210
0.0
220
0.0
230
1.0
 70
    24
 71
     3
 72
     8
 73
     4
 74
     0
 42
0.0000000001
 43
0.0000000001
 40
0.0
 40
0.0
 40
0.0
 40
0.0
 40
1.0
 40
1.0
 40
1.0
 40
1.0
 10
26.7525
 20
66.5613
 30
0.0
 10
26.7525
 20
66.5613
 30
0.0
 10
34.6787
 20
65.5137
 30
0.0
 10
34.6787
 20
65.5137
 30
0.0
  0
SPLINE
  5
5B
330
1F
100
AcDbEntity
  8
LC-003-003-----0
370
    20
100
AcDbSpline
210
0.0
220
0.0
230
1.0
 70
    24
 71
     3
 72
     8
 73
     4
 74
     0
 42
0.0000000001
 43
0.0000000001
 40
0.0
 40
0.0
 40
0.0
 40
0.0
 40
1.0
 40
1.0
 40
1.0
 40
1.0
 10
26.7526
 20
64.46510000000001
 30
0.0
 10
26.7526
 20
64.46510000000001
 30
0.0
 10
34.6787
 20
65.5137
 30
0.0
 10
34.6787
 20
65.5137
 30
0.0
  0
SPLINE
  5
5C
330
1F
100
AcDbEntity
  8
LC-003-003-----0
370
    20
100
AcDbSpline
210
0.0
220
0.0
230
1.0
 70
    24
 71
     3
 72
     8
 73
     4
 74
     0
 42
0.0000000001
 43
0.0000000001
 40
0.0
 40
0.0
 40
0.0
 40
0.0
 40
1.0
 40
1.0
 40
1.0
 40
1.0
 10
26.7526
 20
64.0719
 30
0.0
 10
26.7526
 20
64.0719
 30
0.0
 10
26.7526
 20
66.95450000000001
 30
0.0
 10
26.7526
 20
66.95450000000001
 30
0.0
  0
SPLINE
  5
5D
330
1F
100
AcDbEntity
  8
LC-003-003-----0
370
    20
100
AcDbSpline
210
0.0
220
0.0
230
1.0
 70
    24
 71
     3
 72
     8
 73
     4
 74
     0
 42
0.0000000001
 43
0.0000000001
 40
0.0
 40
0.0
 40
0.0
 40
0.0
 40
1.0
 40
1.0
 40
1.0
 40
1.0
 10
26.7526
 20
66.95450000000001
 30
0.0
 10
26.7526
 20
66.95450000000001
 30
0.0
 10
37.4953
 20
65.5136
 30
0.0
 10
37.4953
 20
65.5136
 30
0.0
  0
SPLINE
  5
5E
330
1F
100
AcDbEntity
  8
LC-003-003-----0
370
    20
100
AcDbSpline
210
0.0
220
0.0
230
1.0
 70
    24
 71
     3
 72
     8
 73
     4
 74
     0
 42
0.0000000001
 43
0.0000000001
 40
0.0
 40
0.0
 40
0.0
 40
0.0
 40
1.0
 40
1.0
 40
1.0
 40
1.0
 10
26.7526
 20
64.0719
 30
0.0
 10
26.7526
 20
64.0719
 30
0.0
 10
37.4953
 20
65.5136
 30
0.0
 10
37.4953
 20
65.5136
 30
0.0
  0
SPLINE
  5
5F
330
1F
100
AcDbEntity
  8
LC-003-003-----0
370
    20
100
AcDbSpline
210
0.0
220
0.0
230
1.0
 70
    24
 71
     3
 72
     8
 73
     4
 74
     0
 42
0.0000000001
 43
0.0000000001
 40
0.0
 40
0.0
 40
0.0
 40
0.0
 40
1.0
 40
1.0
 40
1.0
 40
1.0
 10
-42.6601
 20
11.2026
 30
0.0
 10
-42.6601
 20
11.2026
 30
0.0
 10
-42.3323
 20
13.5605
 30
0.0
 10
-42.3323
 20
13.5605
 30
0.0
  0
SPLINE
  5
60
330
1F
100
AcDbEntity
  8
LC-003-003-----0
370
    20
100
AcDbSpline
210
0.0
220
0.0
230
1.0
 70
    24
 71
     3
 72
     8
 73
     4
 74
     0
 42
0.0000000001
 43
0.0000000001
 40
0.0
 40
0.0
 40
0.0
 40
0.0
 40
1.0
 40
1.0
 40
1.0
 40
1.0
 10
-42.6601
 20
11.2026
 30
0.0
 10
-42.6601
 20
11.2026
 30
0.0
 10
-42.9874
 20
13.561
 30
0.0
 10
-42.9874
 20
13.561
 30
0.0
  0
SPLINE
  5
61
330
1F
100
AcDbEntity
  8
LC-003-003-----0
370
    20
100
AcDbSpline
210
0.0
220
0.0
230
1.0
 70
    24
 71
     3
 72
     8
 73
     4
 74
     0
 42
0.0000000001
 43
0.0000000001
 40
0.0
 40
0.0
 40
0.0
 40
0.0
 40
1.0
 40
1.0
 40
1.0
 40
1.0
 10
-42.6597
 20
8.3858
 30
0.0
 10
-42.6597
 20
8.3858
 30
0.0
 10
-42.0048
 20
13.5609
 30
0.0
 10
-42.0048
 20
13.5609
 30
0.0
  0
SPLINE
  5
62
330
1F
100
AcDbEntity
  8
LC-003-003-----0
370
    20
100
AcDbSpline
210
0.0
220
0.0
230
1.0
 70
    24
 71
     3
 72
     8
 73
     4
 74
     0
 42
0.0000000001
 43
0.0000000001
 40
0.0
 40
0.0
 40
0.0
 40
0.0
 40
1.0
 40
1.0
 40
1.0
 40
1.0
 10
-42.6597
 20
8.3858
 30
0.0
 10
-42.6597
 20
8.3858
 30
0.0
 10
-43.31480000000001
 20
13.5608
 30
0.0
 10
-43.31480000000001
 20
13.5608
 30
0.0
  0
SPLINE
  5
63
330
1F
100
AcDbEntity
  8
LC-003-003-----0
370
    20
100
AcDbSpline
210
0.0
220
0.0
230
1.0
 70
    24
 71
     3
 72
     8
 73
     4
 74
     0
 42
0.0000000001
 43
0.0000000001
 40
0.0
 40
0.0
 40
0.0
 40
0.0
 40
1.0
 40
1.0
 40
1.0
 40
1.0
 10
-42.6597
 20
5.569100000000001
 30
0.0
 10
-42.6597
 20
5.569100000000001
 30
0.0
 10
-41.6115
 20
13.5609
 30
0.0
 10
-41.6115
 20
13.5609
 30
0.0
  0
SPLINE
  5
64
330
1F
100
AcDbEntity
  8
LC-003-003-----0
370
    20
100
AcDbSpline
210
0.0
220
0.0
230
1.0
 70
    24
 71
     3
 72
     8
 73
     4
 74
     0
 42
0.0000000001
 43
0.0000000001
 40
0.0
 40
0.0
 40
0.0
 40
0.0
 40
1.0
 40
1.0
 40
1.0
 40
1.0
 10
-42.6597
 20
5.569100000000001
 30
0.0
 10
-42.6597
 20
5.569100000000001
 30
0.0
 10
-43.70800000000001
 20
13.5609
 30
0.0
 10
-43.70800000000001
 20
13.5609
 30
0.0
  0
SPLINE
  5
65
330
1F
100
AcDbEntity
  8
LC-003-003-----0
370
    20
100
AcDbSpline
210
0.0
220
0.0
230
1.0
 70
    24
 71
     3
 72
     8
 73
     4
 74
     0
 42
0.0000000001
 43
0.0000000001
 40
0.0
 40
0.0
 40
0.0
 40
0.0
 40
1.0
 40
1.0
 40
1.0
 40
1.0
 10
-44.1009
 20
13.4954
 30
0.0
 10
-44.1009
 20
13.4954
 30
0.0
 10
-41.21890000000001
 20
13.4954
 30
0.0
 10
-41.21890000000001
 20
13.4954
 30
0.0
  0
SPLINE
  5
66
330
1F
100
AcDbEntity
  8
LC-003-003-----0
370
    20
100
AcDbSpline
210
0.0
220
0.0
230
1.0
 70
    24
 71
     3
 72
     8
 73
     4
 74
     0
 42
0.0000000001
 43
0.0000000001
 40
0.0
 40
0.0
 40
0.0
 40
0.0
 40
1.0
 40
1.0
 40
1.0
 40
1.0
 10
-42.6601
 20
2.7524
 30
0.0
 10
-42.6601
 20
2.7524
 30
0.0
 10
-41.21890000000001
 20
13.4954
 30
0.0
 10
-41.21890000000001
 20
13.4954
 30
0.0
  0
SPLINE
  5
67
330
1F
100
AcDbEntity
  8
LC-003-003-----0
370
    20
100
AcDbSpline
210
0.0
220
0.0
230
1.0
 70
    24
 71
     3
 72
     8
 73
     4
 74
     0
 42
0.0000000001
 43
0.0000000001
 40
0.0
 40
0.0
 40
0.0
 40
0.0
 40
1.0
 40
1.0
 40
1.0
 40
1.0
 10
-42.6601
 20
2.7524
 30
0.0
 10
-42.6601
 20
2.7524
 30
0.0
 10
-44.1009
 20
13.4954
 30
0.0
 10
-44.1009
 20
13.4954
 30
0.0
  0
SPLINE
  5
68
330
1F
100
AcDbEntity
  8
LC-003-003-----0
370
    20
100
AcDbSpline
210
0.0
220
0.0
230
1.0
 70
    24
 71
     3
 72
     8
 73
     4
 74
     0
 42
0.0000000001
 43
0.0000000001
 40
0.0
 40
0.0
 40
0.0
 40
0.0
 40
1.0
 40
1.0
 40
1.0
 40
1.0
 10
-16.9916
 20
58.9682
 30
0.0
 10
-16.9916
 20
58.9682
 30
0.0
 10
-14.6338
 20
58.6404
 30
0.0
 10
-14.6338
 20
58.6404
 30
0.0
  0
SPLINE
  5
69
330
1F
100
AcDbEntity
  8
LC-003-003-----0
370
    20
100
AcDbSpline
210
0.0
220
0.0
230
1.0
 70
    24
 71
     3
 72
     8
 73
     4
 74
     0
 42
0.0000000001
 43
0.0000000001
 40
0.0
 40
0.0
 40
0.0
 40
0.0
 40
1.0
 40
1.0
 40
1.0
 40
1.0
 10
-16.9916
 20
58.9682
 30
0.0
 10
-16.9916
 20
58.9682
 30
0.0
 10
-14.6333
 20
59.2955
 30
0.0
 10
-14.6333
 20
59.2955
 30
0.0
  0
SPLINE
  5
6A
330
1F
100
AcDbEntity
  8
LC-003-003-----0
370
    20
100
AcDbSpline
210
0.0
220
0.0
230
1.0
 70
    24
 71
     3
 72
     8
 73
     4
 74
     0
 42
0.0000000001
 43
0.0000000001
 40
0.0
 40
0.0
 40
0.0
 40
0.0
 40
1.0
 40
1.0
 40
1.0
 40
1.0
 10
-19.8085
 20
58.9679
 30
0.0
 10
-19.8085
 20
58.9679
 30
0.0
 10
-14.6333
 20
58.31290000000001
 30
0.0
 10
-14.6333
 20
58.31290000000001
 30
0.0
  0
SPLINE
  5
6B
330
1F
100
AcDbEntity
  8
LC-003-003-----0
370
    20
100
AcDbSpline
210
0.0
220
0.0
230
1.0
 70
    24
 71
     3
 72
     8
 73
     4
 74
     0
 42
0.0000000001
 43
0.0000000001
 40
0.0
 40
0.0
 40
0.0
 40
0.0
 40
1.0
 40
1.0
 40
1.0
 40
1.0
 10
-19.8085
 20
58.9679
 30
0.0
 10
-19.8085
 20
58.9679
 30
0.0
 10
-14.6335
 20
59.6229
 30
0.0
 10
-14.6335
 20
59.6229
 30
0.0
  0
SPLINE
  5
6C
330
1F
100
AcDbEntity
  8
LC-003-003-----0
370
    20
100
AcDbSpline
210
0.0
220
0.0
230
1.0
 70
    24
 71
     3
 72
     8
 73
     4
 74
     0
 42
0.0000000001
 43
0.0000000001
 40
0.0
 40
0.0
 40
0.0
 40
0.0
 40
1.0
 40
1.0
 40
1.0
 40
1.0
 10
-22.6253
 20
58.9678
 30
0.0
 10
-22.6253
 20
58.9678
 30
0.0
 10
-14.6334
 20
57.9196
 30
0.0
 10
-14.6334
 20
57.9196
 30
0.0
  0
SPLINE
  5
6D
330
1F
100
AcDbEntity
  8
LC-003-003-----0
370
    20
100
AcDbSpline
210
0.0
220
0.0
230
1.0
 70
    24
 71
     3
 72
     8
 73
     4
 74
     0
 42
0.0000000001
 43
0.0000000001
 40
0.0
 40
0.0
 40
0.0
 40
0.0
 40
1.0
 40
1.0
 40
1.0
 40
1.0
 10
-22.6253
 20
58.9678
 30
0.0
 10
-22.6253
 20
58.9678
 30
0.0
 10
-14.6334
 20
60.01620000000001
 30
0.0
 10
-14.6334
 20
60.01620000000001
 30
0.0
  0
SPLINE
  5
6E
330
1F
100
AcDbEntity
  8
LC-003-003-----0
370
    20
100
AcDbSpline
210
0.0
220
0.0
230
1.0
 70
    24
 71
     3
 72
     8
 73
     4
 74
     0
 42
0.0000000001
 43
0.0000000001
 40
0.0
 40
0.0
 40
0.0
 40
0.0
 40
1.0
 40
1.0
 40
1.0
 40
1.0
 10
-14.6989
 20
60.40900000000001
 30
0.0
 10
-14.6989
 20
60.40900000000001
 30
0.0
 10
-14.6989
 20
57.527
 30
0.0
 10
-14.6989
 20
57.527
 30
0.0
  0
SPLINE
  5
6F
330
1F
100
AcDbEntity
  8
LC-003-003-----0
370
    20
100
AcDbSpline
210
0.0
220
0.0
230
1.0
 70
    24
 71
     3
 72
     8
 73
     4
 74
     0
 42
0.0000000001
 43
0.0000000001
 40
0.0
 40
0.0
 40
0.0
 40
0.0
 40
1.0
 40
1.0
 40
1.0
 40
1.0
 10
-25.4419
 20
58.96830000000001
 30
0.0
 10
-25.4419
 20
58.96830000000001
 30
0.0
 10
-14.6989
 20
57.527
 30
0.0
 10
-14.6989
 20
57.527
 30
0.0
  0
SPLINE
  5
70
330
1F
100
AcDbEntity
  8
LC-003-003-----0
370
    20
100
AcDbSpline
210
0.0
220
0.0
230
1.0
 70
    24
 71
     3
 72
     8
 73
     4
 74
     0
 42
0.0000000001
 43
0.0000000001
 40
0.0
 40
0.0
 40
0.0
 40
0.0
 40
1.0
 40
1.0
 40
1.0
 40
1.0
 10
-25.4419
 20
58.96830000000001
 30
0.0
 10
-25.4419
 20
58.96830000000001
 30
0.0
 10
-14.6989
 20
60.40900000000001
 30
0.0
 10
-14.6989
 20
60.40900000000001
 30
0.0
  0
SPLINE
  5
71
330
1F
100
AcDbEntity
  8
LC-003-003-----0
370
    20
100
AcDbSpline
210
0.0
220
0.0
230
1.0
 70
    24
 71
     3
 72
     8
 73
     4
 74
     0
 42
0.0000000001
 43
0.0000000001
 40
0.0
 40
0.0
 40
0.0
 40
0.0
 40
1.0
 40
1.0
 40
1.0
 40
1.0
 10
-30.3902
 20
61.4012
 30
0.0
 10
-30.3902
 20
61.4012
 30
0.0
 10
-30.0624
 20
63.7591
 30
0.0
 10
-30.0624
 20
63.7591
 30
0.0
  0
SPLINE
  5
72
330
1F
100
AcDbEntity
  8
LC-003-003-----0
370
    20
100
AcDbSpline
210
0.0
220
0.0
230
1.0
 70
    24
 71
     3
 72
     8
 73
     4
 74
     0
 42
0.0000000001
 43
0.0000000001
 40
0.0
 40
0.0
 40
0.0
 40
0.0
 40
1.0
 40
1.0
 40
1.0
 40
1.0
 10
-30.3902
 20
61.4012
 30
0.0
 10
-30.3902
 20
61.4012
 30
0.0
 10
-30.7175
 20
63.75960000000001
 30
0.0
 10
-30.7175
 20
63.75960000000001
 30
0.0
  0
SPLINE
  5
73
330
1F
100
AcDbEntity
  8
LC-003-003-----0
370
    20
100
AcDbSpline
210
0.0
220
0.0
230
1.0
 70
    24
 71
     3
 72
     8
 73
     4
 74
     0
 42
0.0000000001
 43
0.0000000001
 40
0.0
 40
0.0
 40
0.0
 40
0.0
 40
1.0
 40
1.0
 40
1.0
 40
1.0
 10
-30.3898
 20
58.5844
 30
0.0
 10
-30.3898
 20
58.5844
 30
0.0
 10
-29.7349
 20
63.7595
 30
0.0
 10
-29.7349
 20
63.7595
 30
0.0
  0
SPLINE
  5
74
330
1F
100
AcDbEntity
  8
LC-003-003-----0
370
    20
100
AcDbSpline
210
0.0
220
0.0
230
1.0
 70
    24
 71
     3
 72
     8
 73
     4
 74
     0
 42
0.0000000001
 43
0.0000000001
 40
0.0
 40
0.0
 40
0.0
 40
0.0
 40
1.0
 40
1.0
 40
1.0
 40
1.0
 10
-30.3898
 20
58.5844
 30
0.0
 10
-30.3898
 20
58.5844
 30
0.0
 10
-31.0449
 20
63.75940000000001
 30
0.0
 10
-31.0449
 20
63.75940000000001
 30
0.0
  0
SPLINE
  5
75
330
1F
100
AcDbEntity
  8
LC-003-003-----0
370
    20
100
AcDbSpline
210
0.0
220
0.0
230
1.0
 70
    24
 71
     3
 72
     8
 73
     4
 74
     0
 42
0.0000000001
 43
0.0000000001
 40
0.0
 40
0.0
 40
0.0
 40
0.0
 40
1.0
 40
1.0
 40
1.0
 40
1.0
 10
-30.3898
 20
55.76770000000001
 30
0.0
 10
-30.3898
 20
55.76770000000001
 30
0.0
 10
-29.3416
 20
63.7595
 30
0.0
 10
-29.3416
 20
63.7595
 30
0.0
  0
SPLINE
  5
76
330
1F
100
AcDbEntity
  8
LC-003-003-----0
370
    20
100
AcDbSpline
210
0.0
220
0.0
230
1.0
 70
    24
 71
     3
 72
     8
 73
     4
 74
     0
 42
0.0000000001
 43
0.0000000001
 40
0.0
 40
0.0
 40
0.0
 40
0.0
 40
1.0
 40
1.0
 40
1.0
 40
1.0
 10
-30.3898
 20
55.76770000000001
 30
0.0
 10
-30.3898
 20
55.76770000000001
 30
0.0
 10
-31.4381
 20
63.7595
 30
0.0
 10
-31.4381
 20
63.7595
 30
0.0
  0
SPLINE
  5
77
330
1F
100
AcDbEntity
  8
LC-003-003-----0
370
    20
100
AcDbSpline
210
0.0
220
0.0
230
1.0
 70
    24
 71
     3
 72
     8
 73
     4
 74
     0
 42
0.0000000001
 43
0.0000000001
 40
0.0
 40
0.0
 40
0.0
 40
0.0
 40
1.0
 40
1.0
 40
1.0
 40
1.0
 10
-31.831
 20
63.694
 30
0.0
 10
-31.831
 20
63.694
 30
0.0
 10
-28.949
 20
63.694
 30
0.0
 10
-28.949
 20
63.694
 30
0.0
  0
SPLINE
  5
78
330
1F
100
AcDbEntity
  8
LC-003-003-----0
370
    20
100
AcDbSpline
210
0.0
220
0.0
230
1.0
 70
    24
 71
     3
 72
     8
 73
     4
 74
     0
 42
0.0000000001
 43
0.0000000001
 40
0.0
 40
0.0
 40
0.0
 40
0.0
 40
1.0
 40
1.0
 40
1.0
 40
1.0
 10
-30.3902
 20
52.951
 30
0.0
 10
-30.3902
 20
52.951
 30
0.0
 10
-28.949
 20
63.694
 30
0.0
 10
-28.949
 20
63.694
 30
0.0
  0
SPLINE
  5
79
330
1F
100
AcDbEntity
  8
LC-003-003-----0
370
    20
100
AcDbSpline
210
0.0
220
0.0
230
1.0
 70
    24
 71
     3
 72
     8
 73
     4
 74
     0
 42
0.0000000001
 43
0.0000000001
 40
0.0
 40
0.0
 40
0.0
 40
0.0
 40
1.0
 40
1.0
 40
1.0
 40
1.0
 10
-30.3902
 20
52.951
 30
0.0
 10
-30.3902
 20
52.951
 30
0.0
 10
-31.831
 20
63.694
 30
0.0
 10
-31.831
 20
63.694
 30
0.0
  0
SPLINE
  5
7A
330
1F
100
AcDbEntity
  8
LC-003-003-----0
370
    20
100
AcDbSpline
210
0.0
220
0.0
230
1.0
 70
    24
 71
     3
 72
     8
 73
     4
 74
     0
 42
0.0000000001
 43
0.0000000001
 40
0.0
 40
0.0
 40
0.0
 40
0.0
 40
1.0
 40
1.0
 40
1.0
 40
1.0
 10
61.474
 20
65.5136
 30
0.0
 10
61.474
 20
65.5136
 30
0.0
 10
63.83190000000001
 20
65.1857
 30
0.0
 10
63.83190000000001
 20
65.1857
 30
0.0
  0
SPLINE
  5
7B
330
1F
100
AcDbEntity
  8
LC-003-003-----0
370
    20
100
AcDbSpline
210
0.0
220
0.0
230
1.0
 70
    24
 71
     3
 72
     8
 73
     4
 74
     0
 42
0.0000000001
 43
0.0000000001
 40
0.0
 40
0.0
 40
0.0
 40
0.0
 40
1.0
 40
1.0
 40
1.0
 40
1.0
 10
61.474
 20
65.5136
 30
0.0
 10
61.474
 20
65.5136
 30
0.0
 10
63.8324
 20
65.84090000000001
 30
0.0
 10
63.8324
 20
65.84090000000001
 30
0.0
  0
SPLINE
  5
7C
330
1F
100
AcDbEntity
  8
LC-003-003-----0
370
    20
100
AcDbSpline
210
0.0
220
0.0
230
1.0
 70
    24
 71
     3
 72
     8
 73
     4
 74
     0
 42
0.0000000001
 43
0.0000000001
 40
0.0
 40
0.0
 40
0.0
 40
0.0
 40
1.0
 40
1.0
 40
1.0
 40
1.0
 10
58.6572
 20
65.5132
 30
0.0
 10
58.6572
 20
65.5132
 30
0.0
 10
63.8323
 20
64.8583
 30
0.0
 10
63.8323
 20
64.8583
 30
0.0
  0
SPLINE
  5
7D
330
1F
100
AcDbEntity
  8
LC-003-003-----0
370
    20
100
AcDbSpline
210
0.0
220
0.0
230
1.0
 70
    24
 71
     3
 72
     8
 73
     4
 74
     0
 42
0.0000000001
 43
0.0000000001
 40
0.0
 40
0.0
 40
0.0
 40
0.0
 40
1.0
 40
1.0
 40
1.0
 40
1.0
 10
58.6572
 20
65.5132
 30
0.0
 10
58.6572
 20
65.5132
 30
0.0
 10
63.8323
 20
66.1682
 30
0.0
 10
63.8323
 20
66.1682
 30
0.0
  0
SPLINE
  5
7E
330
1F
100
AcDbEntity
  8
LC-003-003-----0
370
    20
100
AcDbSpline
210
0.0
220
0.0
230
1.0
 70
    24
 71
     3
 72
     8
 73
     4
 74
     0
 42
0.0000000001
 43
0.0000000001
 40
0.0
 40
0.0
 40
0.0
 40
0.0
 40
1.0
 40
1.0
 40
1.0
 40
1.0
 10
55.8404
 20
65.5132
 30
0.0
 10
55.8404
 20
65.5132
 30
0.0
 10
63.8323
 20
64.465
 30
0.0
 10
63.8323
 20
64.465
 30
0.0
  0
SPLINE
  5
7F
330
1F
100
AcDbEntity
  8
LC-003-003-----0
370
    20
100
AcDbSpline
210
0.0
220
0.0
230
1.0
 70
    24
 71
     3
 72
     8
 73
     4
 74
     0
 42
0.0000000001
 43
0.0000000001
 40
0.0
 40
0.0
 40
0.0
 40
0.0
 40
1.0
 40
1.0
 40
1.0
 40
1.0
 10
55.8404
 20
65.5132
 30
0.0
 10
55.8404
 20
65.5132
 30
0.0
 10
63.8323
 20
66.56150000000001
 30
0.0
 10
63.8323
 20
66.56150000000001
 30
0.0
  0
SPLINE
  5
80
330
1F
100
AcDbEntity
  8
LC-003-003-----0
370
    20
100
AcDbSpline
210
0.0
220
0.0
230
1.0
 70
    24
 71
     3
 72
     8
 73
     4
 74
     0
 42
0.0000000001
 43
0.0000000001
 40
0.0
 40
0.0
 40
0.0
 40
0.0
 40
1.0
 40
1.0
 40
1.0
 40
1.0
 10
63.7668
 20
66.95440000000001
 30
0.0
 10
63.7668
 20
66.95440000000001
 30
0.0
 10
63.7668
 20
64.0724
 30
0.0
 10
63.7668
 20
64.0724
 30
0.0
  0
SPLINE
  5
81
330
1F
100
AcDbEntity
  8
LC-003-003-----0
370
    20
100
AcDbSpline
210
0.0
220
0.0
230
1.0
 70
    24
 71
     3
 72
     8
 73
     4
 74
     0
 42
0.0000000001
 43
0.0000000001
 40
0.0
 40
0.0
 40
0.0
 40
0.0
 40
1.0
 40
1.0
 40
1.0
 40
1.0
 10
53.0238
 20
65.5136
 30
0.0
 10
53.0238
 20
65.5136
 30
0.0
 10
63.7668
 20
64.0724
 30
0.0
 10
63.7668
 20
64.0724
 30
0.0
  0
SPLINE
  5
82
330
1F
100
AcDbEntity
  8
LC-003-003-----0
370
    20
100
AcDbSpline
210
0.0
220
0.0
230
1.0
 70
    24
 71
     3
 72
     8
 73
     4
 74
     0
 42
0.0000000001
 43
0.0000000001
 40
0.0
 40
0.0
 40
0.0
 40
0.0
 40
1.0
 40
1.0
 40
1.0
 40
1.0
 10
53.0238
 20
65.5136
 30
0.0
 10
53.0238
 20
65.5136
 30
0.0
 10
63.7668
 20
66.95440000000001
 30
0.0
 10
63.7668
 20
66.95440000000001
 30
0.0
  0
SPLINE
  5
83
330
1F
100
AcDbEntity
  8
LC-003-003-----0
370
    20
100
AcDbSpline
210
0.0
220
0.0
230
1.0
 70
    24
 71
     3
 72
     8
 73
     4
 74
     0
 42
0.0000000001
 43
0.0000000001
 40
0.0
 40
0.0
 40
0.0
 40
0.0
 40
1.0
 40
1.0
 40
1.0
 40
1.0
 10
-42.66
 20
2.7524
 30
0.0
 10
-42.66
 20
2.7524
 30
0.0
 10
-42.6599
 20
53.1816
 30
0.0
 10
-42.6599
 20
53.1816
 30
0.0
  0
SPLINE
  5
84
330
1F
100
AcDbEntity
  8
LC-003-003-----0
370
    20
100
AcDbSpline
210
0.0
220
0.0
230
1.0
 70
    24
 71
     3
 72
     8
 73
     4
 74
     0
 42
0.0000000001
 43
0.0000000001
 40
0.0
 40
0.0
 40
0.0
 40
0.0
 40
1.0
 40
1.0
 40
1.0
 40
1.0
 10
-25.4417
 20
58.9681
 30
0.0
 10
-25.4417
 20
58.9681
 30
0.0
 10
8.8345
 20
58.968
 30
0.0
 10
8.8345
 20
58.968
 30
0.0
  0
SPLINE
  5
85
330
1F
100
AcDbEntity
  8
LC-003-003-----0
370
    20
100
AcDbSpline
210
0.0
220
0.0
230
1.0
 70
    24
 71
     3
 72
     8
 73
     4
 74
     0
 42
0.0000000001
 43
0.0000000001
 40
0.0
 40
0.0
 40
0.0
 40
0.0
 40
1.0
 40
1.0
 40
1.0
 40
1.0
 10
-30.3899
 20
22.7647
 30
0.0
 10
-30.3899
 20
22.7647
 30
0.0
 10
-30.3898
 20
68.4854
 30
0.0
 10
-30.3898
 20
68.4854
 30
0.0
  0
SPLINE
  5
86
330
1F
100
AcDbEntity
  8
LC-003-003-----0
370
    20
100
AcDbSpline
210
0.0
220
0.0
230
1.0
 70
    24
 71
     3
 72
     8
 73
     4
 74
     0
 42
0.0000000001
 43
0.0000000001
 40
0.0
 40
0.0
 40
0.0
 40
0.0
 40
1.0
 40
1.0
 40
1.0
 40
1.0
 10
20.5375
 20
65.5132
 30
0.0
 10
20.5375
 20
65.5132
 30
0.0
 10
71.2003
 20
65.5132
 30
0.0
 10
71.2003
 20
65.5132
 30
0.0
  0
SPLINE
  5
87
330
1F
100
AcDbEntity
  8
LC-003-003-----0
370
    20
100
AcDbSpline
210
0.0
220
0.0
230
1.0
 70
    24
 71
     3
 72
     8
 73
     4
 74
     0
 42
0.0000000001
 43
0.0000000001
 40
0.0
 40
0.0
 40
0.0
 40
0.0
 40
1.0
 40
1.0
 40
1.0
 40
1.0
 10
-44.8885
 20
53.1814
 30
0.0
 10
-44.8885
 20
53.1814
 30
0.0
 10
-14.952
 20
53.1814
 30
0.0
 10
-14.952
 20
53.1814
 30
0.0
  0
SPLINE
  5
88
330
1F
100
AcDbEntity
  8
LC-003-003-----0
370
    20
100
AcDbSpline
210
0.0
220
0.0
230
1.0
 70
    24
 71
     3
 72
     8
 73
     4
 74
     0
 42
0.0000000001
 43
0.0000000001
 40
0.0
 40
0.0
 40
0.0
 40
0.0
 40
1.0
 40
1.0
 40
1.0
 40
1.0
 10
8.3009
 20
66.06950000000001
 30
0.0
 10
8.3009
 20
66.06950000000001
 30
0.0
 10
8.3009
 20
36.133
 30
0.0
 10
8.3009
 20
36.133
 30
0.0
  0
SPLINE
  5
89
330
1F
100
AcDbEntity
  8
LC-003-003-----0
370
    20
100
AcDbSpline
210
0.0
220
0.0
230
1.0
 70
    24
 71
     3
 72
     8
 73
     4
 74
     0
 42
0.0000000001
 43
0.0000000001
 40
0.0
 40
0.0
 40
0.0
 40
0.0
 40
1.0
 40
1.0
 40
1.0
 40
1.0
 10
53.0238
 20
70.08030000000001
 30
0.0
 10
53.0238
 20
70.08030000000001
 30
0.0
 10
53.02390000000001
 20
53.2031
 30
0.0
 10
53.02390000000001
 20
53.2031
 30
0.0
  0
SPLINE
  5
8A
330
1F
100
AcDbEntity
  8
LC-003-003-----0
370
    35
100
AcDbSpline
210
0.0
220
0.0
230
1.0
 70
    24
 71
     3
 72
     8
 73
     4
 74
     0
 42
0.0000000001
 43
0.0000000001
 40
0.0
 40
0.0
 40
0.0
 40
0.0
 40
1.0
 40
1.0
 40
1.0
 40
1.0
 10
37.4952
 20
69.58280000000001
 30
0.0
 10
37.4952
 20
69.58280000000001
 30
0.0
 10
37.4953
 20
52.996
 30
0.0
 10
37.4953
 20
52.996
 30
0.0
  0
SPLINE
  5
8B
330
1F
100
AcDbEntity
  8
LC-003-003-----0
370
    35
100
AcDbSpline
210
0.0
220
0.0
230
1.0
 70
    24
 71
     3
 72
     8
 73
     4
 74
     0
 42
0.0000000001
 43
0.0000000001
 40
0.0
 40
0.0
 40
0.0
 40
0.0
 40
1.0
 40
1.0
 40
1.0
 40
1.0
 10
-45.3381
 20
2.8688
 30
0.0
 10
-45.3381
 20
2.8688
 30
0.0
 10
-25.5877
 20
2.8688
 30
0.0
 10
-25.5877
 20
2.8688
 30
0.0
  0
SPLINE
  5
8C
330
1F
100
AcDbEntity
  8
LC-003-003-----0
370
    20
100
AcDbSpline
210
0.0
220
0.0
230
1.0
 70
    24
 71
     3
 72
     8
 73
     4
 74
     0
 42
0.0000000001
 43
0.0000000001
 40
0.0
 40
0.0
 40
0.0
 40
0.0
 40
1.0
 40
1.0
 40
1.0
 40
1.0
 10
-25.4417
 20
65.94500000000001
 30
0.0
 10
-25.4417
 20
65.94500000000001
 30
0.0
 10
-25.4417
 20
36.48110000000001
 30
0.0
 10
-25.4417
 20
36.48110000000001
 30
0.0
  0
SPLINE
  5
8D
330
1F
100
AcDbEntity
  8
LC-003-003-----0
370
    35
100
AcDbSpline
210
0.0
220
0.0
230
1.0
 70
    24
 71
     3
 72
     8
 73
     4
 74
     0
 42
0.0000000001
 43
0.0000000001
 40
0.0
 40
0.0
 40
0.0
 40
0.0
 40
1.0
 40
1.0
 40
1.0
 40
1.0
 10
-34.1628
 20
37.481
 30
0.0
 10
-34.1628
 20
37.481
 30
0.0
 10
-23.6702
 20
37.481
 30
0.0
 10
-23.6702
 20
37.481
 30
0.0
  0
SPLINE
  5
8E
330
1F
100
AcDbEntity
  8
LC-003-003-----0
370
    35
100
AcDbSpline
210
0.0
220
0.0
230
1.0
 70
     8
 71
     3
 72
    36
 73
    32
 74
     0
 42
0.0000000001
 43
0.0000000001
 40
0.0
 40
0.0
 40
0.0
 40
0.0
 40
0.125
 40
0.125
 40
0.125
 40
0.125
 40
0.25
 40
0.25
 40
0.25
 40
0.25
 40
0.375
 40
0.375
 40
0.375
 40
0.375
 40
0.5
 40
0.5
 40
0.5
 40
0.5
 40
0.625
 40
0.625
 40
0.625
 40
0.625
 40
0.75
 40
0.75
 40
0.75
 40
0.75
 40
0.875
 40
0.875
 40
0.875
 40
0.875
 40
1.0
 40
1.0
 40
1.0
 40
1.0
 10
-2.4112
 20
52.996
 30
0.0
 10
-2.4112
 20
52.996
 30
0.0
 10
-2.111
 20
52.96870000000001
 30
0.0
 10
-2.111
 20
52.96870000000001
 30
0.0
 10
-2.111
 20
52.96870000000001
 30
0.0
 10
-2.111
 20
52.96870000000001
 30
0.0
 10
-1.8107
 20
52.8869
 30
0.0
 10
-1.8107
 20
52.8869
 30
0.0
 10
-1.8107
 20
52.8869
 30
0.0
 10
-1.8107
 20
52.8869
 30
0.0
 10
-1.5378
 20
52.7231
 30
0.0
 10
-1.5378
 20
52.7231
 30
0.0
 10
-1.5378
 20
52.7231
 30
0.0
 10
-1.5378
 20
52.7231
 30
0.0
 10
-1.3194
 20
52.532
 30
0.0
 10
-1.3194
 20
52.532
 30
0.0
 10
-1.3194
 20
52.532
 30
0.0
 10
-1.3194
 20
52.532
 30
0.0
 10
-1.1284
 20
52.3137
 30
0.0
 10
-1.1284
 20
52.3137
 30
0.0
 10
-1.1284
 20
52.3137
 30
0.0
 10
-1.1284
 20
52.3137
 30
0.0
 10
-0.9919
 20
52.0407
 30
0.0
 10
-0.9919
 20
52.0407
 30
0.0
 10
-0.9919
 20
52.0407
 30
0.0
 10
-0.9919
 20
52.0407
 30
0.0
 10
-0.8827
 20
51.7405
 30
0.0
 10
-0.8827
 20
51.7405
 30
0.0
 10
-0.8827
 20
51.7405
 30
0.0
 10
-0.8827
 20
51.7405
 30
0.0
 10
-0.8554000000000001
 20
51.4403
 30
0.0
 10
-0.8554000000000001
 20
51.4403
 30
0.0
  0
SPLINE
  5
8F
330
1F
100
AcDbEntity
  8
LC-003-003-----0
370
    35
100
AcDbSpline
210
0.0
220
0.0
230
1.0
 70
    24
 71
     3
 72
     8
 73
     4
 74
     0
 42
0.0000000001
 43
0.0000000001
 40
0.0
 40
0.0
 40
0.0
 40
0.0
 40
1.0
 40
1.0
 40
1.0
 40
1.0
 10
-0.8554000000000001
 20
51.4403
 30
0.0
 10
-0.8554000000000001
 20
51.4403
 30
0.0
 10
-0.8554000000000001
 20
41.396
 30
0.0
 10
-0.8554000000000001
 20
41.396
 30
0.0
  0
SPLINE
  5
90
330
1F
100
AcDbEntity
  8
LC-003-003-----0
370
    35
100
AcDbSpline
210
0.0
220
0.0
230
1.0
 70
     8
 71
     3
 72
    52
 73
    48
 74
     0
 42
0.0000000001
 43
0.0000000001
 40
0.0
 40
0.0
 40
0.0
 40
0.0
 40
0.0833333333333333
 40
0.0833333333333333
 40
0.0833333333333333
 40
0.0833333333333333
 40
0.1666666666666667
 40
0.1666666666666667
 40
0.1666666666666667
 40
0.1666666666666667
 40
0.25
 40
0.25
 40
0.25
 40
0.25
 40
0.3333333333333333
 40
0.3333333333333333
 40
0.3333333333333333
 40
0.3333333333333333
 40
0.4166666666666666
 40
0.4166666666666666
 40
0.4166666666666666
 40
0.4166666666666666
 40
0.4999999999999999
 40
0.4999999999999999
 40
0.4999999999999999
 40
0.4999999999999999
 40
0.5833333333333333
 40
0.5833333333333333
 40
0.5833333333333333
 40
0.5833333333333333
 40
0.6666666666666666
 40
0.6666666666666666
 40
0.6666666666666666
 40
0.6666666666666666
 40
0.75
 40
0.75
 40
0.75
 40
0.75
 40
0.8333333333333334
 40
0.8333333333333334
 40
0.8333333333333334
 40
0.8333333333333334
 40
0.9166666666666667
 40
0.9166666666666667
 40
0.9166666666666667
 40
0.9166666666666667
 40
1.0
 40
1.0
 40
1.0
 40
1.0
 10
-0.8554000000000001
 20
41.396
 30
0.0
 10
-0.8554000000000001
 20
41.396
 30
0.0
 10
-0.8281000000000001
 20
40.87730000000001
 30
0.0
 10
-0.8281000000000001
 20
40.87730000000001
 30
0.0
 10
-0.8281000000000001
 20
40.87730000000001
 30
0.0
 10
-0.8281000000000001
 20
40.87730000000001
 30
0.0
 10
-0.7190000000000001
 20
40.386
 30
0.0
 10
-0.7190000000000001
 20
40.386
 30
0.0
 10
-0.7190000000000001
 20
40.386
 30
0.0
 10
-0.7190000000000001
 20
40.386
 30
0.0
 10
-0.5552
 20
39.8947
 30
0.0
 10
-0.5552
 20
39.8947
 30
0.0
 10
-0.5552
 20
39.8947
 30
0.0
 10
-0.5552
 20
39.8947
 30
0.0
 10
-0.3368
 20
39.458
 30
0.0
 10
-0.3368
 20
39.458
 30
0.0
 10
-0.3368
 20
39.458
 30
0.0
 10
-0.3368
 20
39.458
 30
0.0
 10
-0.0639
 20
39.0213
 30
0.0
 10
-0.0639
 20
39.0213
 30
0.0
 10
-0.0639
 20
39.0213
 30
0.0
 10
-0.0639
 20
39.0213
 30
0.0
 10
0.2636
 20
38.6392
 30
0.0
 10
0.2636
 20
38.6392
 30
0.0
 10
0.2636
 20
38.6392
 30
0.0
 10
0.2636
 20
38.6392
 30
0.0
 10
0.6458
 20
38.3117
 30
0.0
 10
0.6458
 20
38.3117
 30
0.0
 10
0.6458
 20
38.3117
 30
0.0
 10
0.6458
 20
38.3117
 30
0.0
 10
1.0824
 20
38.0387
 30
0.0
 10
1.0824
 20
38.0387
 30
0.0
 10
1.0824
 20
38.0387
 30
0.0
 10
1.0824
 20
38.0387
 30
0.0
 10
1.5192
 20
37.8204
 30
0.0
 10
1.5192
 20
37.8204
 30
0.0
 10
1.5192
 20
37.8204
 30
0.0
 10
1.5192
 20
37.8204
 30
0.0
 10
2.0105
 20
37.65660000000001
 30
0.0
 10
2.0105
 20
37.65660000000001
 30
0.0
 10
2.0105
 20
37.65660000000001
 30
0.0
 10
2.0105
 20
37.65660000000001
 30
0.0
 10
2.5018
 20
37.5474
 30
0.0
 10
2.5018
 20
37.5474
 30
0.0
 10
2.5018
 20
37.5474
 30
0.0
 10
2.5018
 20
37.5474
 30
0.0
 10
3.0203
 20
37.5201
 30
0.0
 10
3.0203
 20
37.5201
 30
0.0
  0
SPLINE
  5
91
330
1F
100
AcDbEntity
  8
LC-003-003-----0
370
    35
100
AcDbSpline
210
0.0
220
0.0
230
1.0
 70
    24
 71
     3
 72
     8
 73
     4
 74
     0
 42
0.0000000001
 43
0.0000000001
 40
0.0
 40
0.0
 40
0.0
 40
0.0
 40
1.0
 40
1.0
 40
1.0
 40
1.0
 10
3.0203
 20
37.5201
 30
0.0
 10
3.0203
 20
37.5201
 30
0.0
 10
6.7324
 20
37.5201
 30
0.0
 10
6.7324
 20
37.5201
 30
0.0
  0
SPLINE
  5
92
330
1F
100
AcDbEntity
  8
LC-003-003-----0
370
    35
100
AcDbSpline
210
0.0
220
0.0
230
1.0
 70
     8
 71
     3
 72
    36
 73
    32
 74
     0
 42
0.0000000001
 43
0.0000000001
 40
0.0
 40
0.0
 40
0.0
 40
0.0
 40
0.125
 40
0.125
 40
0.125
 40
0.125
 40
0.25
 40
0.25
 40
0.25
 40
0.25
 40
0.375
 40
0.375
 40
0.375
 40
0.375
 40
0.5
 40
0.5
 40
0.5
 40
0.5
 40
0.625
 40
0.625
 40
0.625
 40
0.625
 40
0.75
 40
0.75
 40
0.75
 40
0.75
 40
0.875
 40
0.875
 40
0.875
 40
0.875
 40
1.0
 40
1.0
 40
1.0
 40
1.0
 10
6.7324
 20
37.5201
 30
0.0
 10
6.7324
 20
37.5201
 30
0.0
 10
7.0327
 20
37.4928
 30
0.0
 10
7.0327
 20
37.4928
 30
0.0
 10
7.0327
 20
37.4928
 30
0.0
 10
7.0327
 20
37.4928
 30
0.0
 10
7.3056
 20
37.41090000000001
 30
0.0
 10
7.3056
 20
37.41090000000001
 30
0.0
 10
7.3056
 20
37.41090000000001
 30
0.0
 10
7.3056
 20
37.41090000000001
 30
0.0
 10
7.5785
 20
37.2471
 30
0.0
 10
7.5785
 20
37.2471
 30
0.0
 10
7.5785
 20
37.2471
 30
0.0
 10
7.5785
 20
37.2471
 30
0.0
 10
7.8242
 20
37.0561
 30
0.0
 10
7.8242
 20
37.0561
 30
0.0
 10
7.8242
 20
37.0561
 30
0.0
 10
7.8242
 20
37.0561
 30
0.0
 10
8.0153
 20
36.8378
 30
0.0
 10
8.0153
 20
36.8378
 30
0.0
 10
8.0153
 20
36.8378
 30
0.0
 10
8.0153
 20
36.8378
 30
0.0
 10
8.1517
 20
36.56480000000001
 30
0.0
 10
8.1517
 20
36.56480000000001
 30
0.0
 10
8.1517
 20
36.56480000000001
 30
0.0
 10
8.1517
 20
36.56480000000001
 30
0.0
 10
8.233600000000001
 20
36.26450000000001
 30
0.0
 10
8.233600000000001
 20
36.26450000000001
 30
0.0
 10
8.233600000000001
 20
36.26450000000001
 30
0.0
 10
8.233600000000001
 20
36.26450000000001
 30
0.0
 10
8.260900000000001
 20
35.96440000000001
 30
0.0
 10
8.260900000000001
 20
35.96440000000001
 30
0.0
  0
SPLINE
  5
93
330
1F
100
AcDbEntity
  8
LC-003-003-----0
370
    35
100
AcDbSpline
210
0.0
220
0.0
230
1.0
 70
    24
 71
     3
 72
     8
 73
     4
 74
     0
 42
0.0000000001
 43
0.0000000001
 40
0.0
 40
0.0
 40
0.0
 40
0.0
 40
1.0
 40
1.0
 40
1.0
 40
1.0
 10
8.260900000000001
 20
35.96440000000001
 30
0.0
 10
8.260900000000001
 20
35.96440000000001
 30
0.0
 10
8.260900000000001
 20
3.484
 30
0.0
 10
8.260900000000001
 20
3.484
 30
0.0
  0
SPLINE
  5
94
330
1F
100
AcDbEntity
  8
LC-003-003-----0
370
    35
100
AcDbSpline
210
0.0
220
0.0
230
1.0
 70
     8
 71
     3
 72
    36
 73
    32
 74
     0
 42
0.0000000001
 43
0.0000000001
 40
0.0
 40
0.0
 40
0.0
 40
0.0
 40
0.125
 40
0.125
 40
0.125
 40
0.125
 40
0.25
 40
0.25
 40
0.25
 40
0.25
 40
0.375
 40
0.375
 40
0.375
 40
0.375
 40
0.5
 40
0.5
 40
0.5
 40
0.5
 40
0.625
 40
0.625
 40
0.625
 40
0.625
 40
0.75
 40
0.75
 40
0.75
 40
0.75
 40
0.875
 40
0.875
 40
0.875
 40
0.875
 40
1.0
 40
1.0
 40
1.0
 40
1.0
 10
8.260900000000001
 20
3.484
 30
0.0
 10
8.260900000000001
 20
3.484
 30
0.0
 10
8.260900000000001
 20
3.3203
 30
0.0
 10
8.260900000000001
 20
3.3203
 30
0.0
 10
8.260900000000001
 20
3.3203
 30
0.0
 10
8.260900000000001
 20
3.3203
 30
0.0
 10
8.206300000000001
 20
3.1838
 30
0.0
 10
8.206300000000001
 20
3.1838
 30
0.0
 10
8.206300000000001
 20
3.1838
 30
0.0
 10
8.206300000000001
 20
3.1838
 30
0.0
 10
8.1517
 20
3.0473
 30
0.0
 10
8.1517
 20
3.0473
 30
0.0
 10
8.1517
 20
3.0473
 30
0.0
 10
8.1517
 20
3.0473
 30
0.0
 10
8.0426
 20
2.9381
 30
0.0
 10
8.0426
 20
2.9381
 30
0.0
 10
8.0426
 20
2.9381
 30
0.0
 10
8.0426
 20
2.9381
 30
0.0
 10
7.9333
 20
2.829
 30
0.0
 10
7.9333
 20
2.829
 30
0.0
 10
7.9333
 20
2.829
 30
0.0
 10
7.9333
 20
2.829
 30
0.0
 10
7.7969
 20
2.747
 30
0.0
 10
7.7969
 20
2.747
 30
0.0
 10
7.7969
 20
2.747
 30
0.0
 10
7.7969
 20
2.747
 30
0.0
 10
7.633100000000001
 20
2.7197
 30
0.0
 10
7.633100000000001
 20
2.7197
 30
0.0
 10
7.633100000000001
 20
2.7197
 30
0.0
 10
7.633100000000001
 20
2.7197
 30
0.0
 10
7.496700000000001
 20
2.6925
 30
0.0
 10
7.496700000000001
 20
2.6925
 30
0.0
  0
SPLINE
  5
95
330
1F
100
AcDbEntity
  8
LC-003-003-----0
370
    35
100
AcDbSpline
210
0.0
220
0.0
230
1.0
 70
    24
 71
     3
 72
     8
 73
     4
 74
     0
 42
0.0000000001
 43
0.0000000001
 40
0.0
 40
0.0
 40
0.0
 40
0.0
 40
1.0
 40
1.0
 40
1.0
 40
1.0
 10
7.496700000000001
 20
2.6925
 30
0.0
 10
7.496700000000001
 20
2.6925
 30
0.0
 10
6.323
 20
2.6925
 30
0.0
 10
6.323
 20
2.6925
 30
0.0
  0
SPLINE
  5
96
330
1F
100
AcDbEntity
  8
LC-003-003-----0
370
    35
100
AcDbSpline
210
0.0
220
0.0
230
1.0
 70
     8
 71
     3
 72
    36
 73
    32
 74
     0
 42
0.0000000001
 43
0.0000000001
 40
0.0
 40
0.0
 40
0.0
 40
0.0
 40
0.125
 40
0.125
 40
0.125
 40
0.125
 40
0.25
 40
0.25
 40
0.25
 40
0.25
 40
0.375
 40
0.375
 40
0.375
 40
0.375
 40
0.5
 40
0.5
 40
0.5
 40
0.5
 40
0.625
 40
0.625
 40
0.625
 40
0.625
 40
0.75
 40
0.75
 40
0.75
 40
0.75
 40
0.875
 40
0.875
 40
0.875
 40
0.875
 40
1.0
 40
1.0
 40
1.0
 40
1.0
 10
6.323
 20
2.6925
 30
0.0
 10
6.323
 20
2.6925
 30
0.0
 10
6.2138
 20
2.7197
 30
0.0
 10
6.2138
 20
2.7197
 30
0.0
 10
6.2138
 20
2.7197
 30
0.0
 10
6.2138
 20
2.7197
 30
0.0
 10
6.104600000000001
 20
2.747
 30
0.0
 10
6.104600000000001
 20
2.747
 30
0.0
 10
6.104600000000001
 20
2.747
 30
0.0
 10
6.104600000000001
 20
2.747
 30
0.0
 10
5.9954
 20
2.7743
 30
0.0
 10
5.9954
 20
2.7743
 30
0.0
 10
5.9954
 20
2.7743
 30
0.0
 10
5.9954
 20
2.7743
 30
0.0
 10
5.8863
 20
2.8562
 30
0.0
 10
5.8863
 20
2.8562
 30
0.0
 10
5.8863
 20
2.8562
 30
0.0
 10
5.8863
 20
2.8562
 30
0.0
 10
5.7771
 20
2.9381
 30
0.0
 10
5.7771
 20
2.9381
 30
0.0
 10
5.7771
 20
2.9381
 30
0.0
 10
5.7771
 20
2.9381
 30
0.0
 10
5.695300000000001
 20
3.02
 30
0.0
 10
5.695300000000001
 20
3.02
 30
0.0
 10
5.695300000000001
 20
3.02
 30
0.0
 10
5.695300000000001
 20
3.02
 30
0.0
 10
5.6406
 20
3.1292
 30
0.0
 10
5.6406
 20
3.1292
 30
0.0
 10
5.6406
 20
3.1292
 30
0.0
 10
5.6406
 20
3.1292
 30
0.0
 10
5.5861
 20
3.2383
 30
0.0
 10
5.5861
 20
3.2383
 30
0.0
  0
SPLINE
  5
97
330
1F
100
AcDbEntity
  8
LC-003-003-----0
370
    35
100
AcDbSpline
210
0.0
220
0.0
230
1.0
 70
    24
 71
     3
 72
     8
 73
     4
 74
     0
 42
0.0000000001
 43
0.0000000001
 40
0.0
 40
0.0
 40
0.0
 40
0.0
 40
1.0
 40
1.0
 40
1.0
 40
1.0
 10
5.5861
 20
3.2383
 30
0.0
 10
5.5861
 20
3.2383
 30
0.0
 10
5.1493
 20
4.6304
 30
0.0
 10
5.1493
 20
4.6304
 30
0.0
  0
SPLINE
  5
98
330
1F
100
AcDbEntity
  8
LC-003-003-----0
370
    35
100
AcDbSpline
210
0.0
220
0.0
230
1.0
 70
    24
 71
     3
 72
     8
 73
     4
 74
     0
 42
0.0000000001
 43
0.0000000001
 40
0.0
 40
0.0
 40
0.0
 40
0.0
 40
1.0
 40
1.0
 40
1.0
 40
1.0
 10
5.6679
 20
4.7942
 30
0.0
 10
5.6679
 20
4.7942
 30
0.0
 10
5.1493
 20
4.6304
 30
0.0
 10
5.1493
 20
4.6304
 30
0.0
  0
SPLINE
  5
99
330
1F
100
AcDbEntity
  8
LC-003-003-----0
370
    35
100
AcDbSpline
210
0.0
220
0.0
230
1.0
 70
    24
 71
     3
 72
     8
 73
     4
 74
     0
 42
0.0000000001
 43
0.0000000001
 40
0.0
 40
0.0
 40
0.0
 40
0.0
 40
1.0
 40
1.0
 40
1.0
 40
1.0
 10
6.104600000000001
 20
3.4021
 30
0.0
 10
6.104600000000001
 20
3.4021
 30
0.0
 10
5.6679
 20
4.7942
 30
0.0
 10
5.6679
 20
4.7942
 30
0.0
  0
SPLINE
  5
9A
330
1F
100
AcDbEntity
  8
LC-003-003-----0
370
    35
100
AcDbSpline
210
0.0
220
0.0
230
1.0
 70
     8
 71
     3
 72
    36
 73
    32
 74
     0
 42
0.0000000001
 43
0.0000000001
 40
0.0
 40
0.0
 40
0.0
 40
0.0
 40
0.125
 40
0.125
 40
0.125
 40
0.125
 40
0.25
 40
0.25
 40
0.25
 40
0.25
 40
0.375
 40
0.375
 40
0.375
 40
0.375
 40
0.5
 40
0.5
 40
0.5
 40
0.5
 40
0.625
 40
0.625
 40
0.625
 40
0.625
 40
0.75
 40
0.75
 40
0.75
 40
0.75
 40
0.875
 40
0.875
 40
0.875
 40
0.875
 40
1.0
 40
1.0
 40
1.0
 40
1.0
 10
6.323
 20
3.2383
 30
0.0
 10
6.323
 20
3.2383
 30
0.0
 10
6.2957
 20
3.2383
 30
0.0
 10
6.2957
 20
3.2383
 30
0.0
 10
6.2957
 20
3.2383
 30
0.0
 10
6.2957
 20
3.2383
 30
0.0
 10
6.268400000000001
 20
3.2656
 30
0.0
 10
6.268400000000001
 20
3.2656
 30
0.0
 10
6.268400000000001
 20
3.2656
 30
0.0
 10
6.268400000000001
 20
3.2656
 30
0.0
 10
6.2411
 20
3.2656
 30
0.0
 10
6.2411
 20
3.2656
 30
0.0
 10
6.2411
 20
3.2656
 30
0.0
 10
6.2411
 20
3.2656
 30
0.0
 10
6.1866
 20
3.293
 30
0.0
 10
6.1866
 20
3.293
 30
0.0
 10
6.1866
 20
3.293
 30
0.0
 10
6.1866
 20
3.293
 30
0.0
 10
6.1592
 20
3.3203
 30
0.0
 10
6.1592
 20
3.3203
 30
0.0
 10
6.1592
 20
3.3203
 30
0.0
 10
6.1592
 20
3.3203
 30
0.0
 10
6.1592
 20
3.3475
 30
0.0
 10
6.1592
 20
3.3475
 30
0.0
 10
6.1592
 20
3.3475
 30
0.0
 10
6.1592
 20
3.3475
 30
0.0
 10
6.1319
 20
3.3748
 30
0.0
 10
6.1319
 20
3.3748
 30
0.0
 10
6.1319
 20
3.3748
 30
0.0
 10
6.1319
 20
3.3748
 30
0.0
 10
6.104600000000001
 20
3.4021
 30
0.0
 10
6.104600000000001
 20
3.4021
 30
0.0
  0
SPLINE
  5
9B
330
1F
100
AcDbEntity
  8
LC-003-003-----0
370
    35
100
AcDbSpline
210
0.0
220
0.0
230
1.0
 70
    24
 71
     3
 72
     8
 73
     4
 74
     0
 42
0.0000000001
 43
0.0000000001
 40
0.0
 40
0.0
 40
0.0
 40
0.0
 40
1.0
 40
1.0
 40
1.0
 40
1.0
 10
7.496700000000001
 20
3.2383
 30
0.0
 10
7.496700000000001
 20
3.2383
 30
0.0
 10
6.323
 20
3.2383
 30
0.0
 10
6.323
 20
3.2383
 30
0.0
  0
SPLINE
  5
9C
330
1F
100
AcDbEntity
  8
LC-003-003-----0
370
    35
100
AcDbSpline
210
0.0
220
0.0
230
1.0
 70
     8
 71
     3
 72
    36
 73
    32
 74
     0
 42
0.0000000001
 43
0.0000000001
 40
0.0
 40
0.0
 40
0.0
 40
0.0
 40
0.125
 40
0.125
 40
0.125
 40
0.125
 40
0.25
 40
0.25
 40
0.25
 40
0.25
 40
0.375
 40
0.375
 40
0.375
 40
0.375
 40
0.5
 40
0.5
 40
0.5
 40
0.5
 40
0.625
 40
0.625
 40
0.625
 40
0.625
 40
0.75
 40
0.75
 40
0.75
 40
0.75
 40
0.875
 40
0.875
 40
0.875
 40
0.875
 40
1.0
 40
1.0
 40
1.0
 40
1.0
 10
7.715000000000001
 20
3.484
 30
0.0
 10
7.715000000000001
 20
3.484
 30
0.0
 10
7.715000000000001
 20
3.4294
 30
0.0
 10
7.715000000000001
 20
3.4294
 30
0.0
 10
7.715000000000001
 20
3.4294
 30
0.0
 10
7.715000000000001
 20
3.4294
 30
0.0
 10
7.715000000000001
 20
3.3748
 30
0.0
 10
7.715000000000001
 20
3.3748
 30
0.0
 10
7.715000000000001
 20
3.3748
 30
0.0
 10
7.715000000000001
 20
3.3748
 30
0.0
 10
7.6877
 20
3.3475
 30
0.0
 10
7.6877
 20
3.3475
 30
0.0
 10
7.6877
 20
3.3475
 30
0.0
 10
7.6877
 20
3.3475
 30
0.0
 10
7.6604
 20
3.3203
 30
0.0
 10
7.6604
 20
3.3203
 30
0.0
 10
7.6604
 20
3.3203
 30
0.0
 10
7.6604
 20
3.3203
 30
0.0
 10
7.633100000000001
 20
3.293
 30
0.0
 10
7.633100000000001
 20
3.293
 30
0.0
 10
7.633100000000001
 20
3.293
 30
0.0
 10
7.633100000000001
 20
3.293
 30
0.0
 10
7.5785
 20
3.2656
 30
0.0
 10
7.5785
 20
3.2656
 30
0.0
 10
7.5785
 20
3.2656
 30
0.0
 10
7.5785
 20
3.2656
 30
0.0
 10
7.5513
 20
3.2383
 30
0.0
 10
7.5513
 20
3.2383
 30
0.0
 10
7.5513
 20
3.2383
 30
0.0
 10
7.5513
 20
3.2383
 30
0.0
 10
7.496700000000001
 20
3.2383
 30
0.0
 10
7.496700000000001
 20
3.2383
 30
0.0
  0
SPLINE
  5
9D
330
1F
100
AcDbEntity
  8
LC-003-003-----0
370
    35
100
AcDbSpline
210
0.0
220
0.0
230
1.0
 70
    24
 71
     3
 72
     8
 73
     4
 74
     0
 42
0.0000000001
 43
0.0000000001
 40
0.0
 40
0.0
 40
0.0
 40
0.0
 40
1.0
 40
1.0
 40
1.0
 40
1.0
 10
7.715000000000001
 20
35.96440000000001
 30
0.0
 10
7.715000000000001
 20
35.96440000000001
 30
0.0
 10
7.715000000000001
 20
3.484
 30
0.0
 10
7.715000000000001
 20
3.484
 30
0.0
  0
SPLINE
  5
9E
330
1F
100
AcDbEntity
  8
LC-003-003-----0
370
    35
100
AcDbSpline
210
0.0
220
0.0
230
1.0
 70
     8
 71
     3
 72
    36
 73
    32
 74
     0
 42
0.0000000001
 43
0.0000000001
 40
0.0
 40
0.0
 40
0.0
 40
0.0
 40
0.125
 40
0.125
 40
0.125
 40
0.125
 40
0.25
 40
0.25
 40
0.25
 40
0.25
 40
0.375
 40
0.375
 40
0.375
 40
0.375
 40
0.5
 40
0.5
 40
0.5
 40
0.5
 40
0.625
 40
0.625
 40
0.625
 40
0.625
 40
0.75
 40
0.75
 40
0.75
 40
0.75
 40
0.875
 40
0.875
 40
0.875
 40
0.875
 40
1.0
 40
1.0
 40
1.0
 40
1.0
 10
6.7324
 20
36.9743
 30
0.0
 10
6.7324
 20
36.9743
 30
0.0
 10
6.923500000000001
 20
36.9469
 30
0.0
 10
6.923500000000001
 20
36.9469
 30
0.0
 10
6.923500000000001
 20
36.9469
 30
0.0
 10
6.923500000000001
 20
36.9469
 30
0.0
 10
7.114500000000001
 20
36.8923
 30
0.0
 10
7.114500000000001
 20
36.8923
 30
0.0
 10
7.114500000000001
 20
36.8923
 30
0.0
 10
7.114500000000001
 20
36.8923
 30
0.0
 10
7.278300000000001
 20
36.81050000000001
 30
0.0
 10
7.278300000000001
 20
36.81050000000001
 30
0.0
 10
7.278300000000001
 20
36.81050000000001
 30
0.0
 10
7.278300000000001
 20
36.81050000000001
 30
0.0
 10
7.442
 20
36.674
 30
0.0
 10
7.442
 20
36.674
 30
0.0
 10
7.442
 20
36.674
 30
0.0
 10
7.442
 20
36.674
 30
0.0
 10
7.5513
 20
36.5375
 30
0.0
 10
7.5513
 20
36.5375
 30
0.0
 10
7.5513
 20
36.5375
 30
0.0
 10
7.5513
 20
36.5375
 30
0.0
 10
7.6604
 20
36.3465
 30
0.0
 10
7.6604
 20
36.3465
 30
0.0
 10
7.6604
 20
36.3465
 30
0.0
 10
7.6604
 20
36.3465
 30
0.0
 10
7.715000000000001
 20
36.1554
 30
0.0
 10
7.715000000000001
 20
36.1554
 30
0.0
 10
7.715000000000001
 20
36.1554
 30
0.0
 10
7.715000000000001
 20
36.1554
 30
0.0
 10
7.715000000000001
 20
35.96440000000001
 30
0.0
 10
7.715000000000001
 20
35.96440000000001
 30
0.0
  0
SPLINE
  5
9F
330
1F
100
AcDbEntity
  8
LC-003-003-----0
370
    35
100
AcDbSpline
210
0.0
220
0.0
230
1.0
 70
    24
 71
     3
 72
     8
 73
     4
 74
     0
 42
0.0000000001
 43
0.0000000001
 40
0.0
 40
0.0
 40
0.0
 40
0.0
 40
1.0
 40
1.0
 40
1.0
 40
1.0
 10
3.0203
 20
36.9743
 30
0.0
 10
3.0203
 20
36.9743
 30
0.0
 10
6.7324
 20
36.9743
 30
0.0
 10
6.7324
 20
36.9743
 30
0.0
  0
SPLINE
  5
A0
330
1F
100
AcDbEntity
  8
LC-003-003-----0
370
    35
100
AcDbSpline
210
0.0
220
0.0
230
1.0
 70
     8
 71
     3
 72
    56
 73
    52
 74
     0
 42
0.0000000001
 43
0.0000000001
 40
0.0
 40
0.0
 40
0.0
 40
0.0
 40
0.0769230769230769
 40
0.0769230769230769
 40
0.0769230769230769
 40
0.0769230769230769
 40
0.1538461538461539
 40
0.1538461538461539
 40
0.1538461538461539
 40
0.1538461538461539
 40
0.2307692307692308
 40
0.2307692307692308
 40
0.2307692307692308
 40
0.2307692307692308
 40
0.3076923076923077
 40
0.3076923076923077
 40
0.3076923076923077
 40
0.3076923076923077
 40
0.3846153846153846
 40
0.3846153846153846
 40
0.3846153846153846
 40
0.3846153846153846
 40
0.4615384615384616
 40
0.4615384615384616
 40
0.4615384615384616
 40
0.4615384615384616
 40
0.5384615384615386
 40
0.5384615384615386
 40
0.5384615384615386
 40
0.5384615384615386
 40
0.6153846153846154
 40
0.6153846153846154
 40
0.6153846153846154
 40
0.6153846153846154
 40
0.6923076923076923
 40
0.6923076923076923
 40
0.6923076923076923
 40
0.6923076923076923
 40
0.7692307692307692
 40
0.7692307692307692
 40
0.7692307692307692
 40
0.7692307692307692
 40
0.846153846153846
 40
0.846153846153846
 40
0.846153846153846
 40
0.846153846153846
 40
0.9230769230769229
 40
0.9230769230769229
 40
0.9230769230769229
 40
0.9230769230769229
 40
1.0
 40
1.0
 40
1.0
 40
1.0
 10
-1.4014
 20
41.396
 30
0.0
 10
-1.4014
 20
41.396
 30
0.0
 10
-1.374
 20
40.85
 30
0.0
 10
-1.374
 20
40.85
 30
0.0
 10
-1.374
 20
40.85
 30
0.0
 10
-1.374
 20
40.85
 30
0.0
 10
-1.2649
 20
40.3314
 30
0.0
 10
-1.2649
 20
40.3314
 30
0.0
 10
-1.2649
 20
40.3314
 30
0.0
 10
-1.2649
 20
40.3314
 30
0.0
 10
-1.1284
 20
39.8128
 30
0.0
 10
-1.1284
 20
39.8128
 30
0.0
 10
-1.1284
 20
39.8128
 30
0.0
 10
-1.1284
 20
39.8128
 30
0.0
 10
-0.9101
 20
39.3488
 30
0.0
 10
-0.9101
 20
39.3488
 30
0.0
 10
-0.9101
 20
39.3488
 30
0.0
 10
-0.9101
 20
39.3488
 30
0.0
 10
-0.6098
 20
38.8848
 30
0.0
 10
-0.6098
 20
38.8848
 30
0.0
 10
-0.6098
 20
38.8848
 30
0.0
 10
-0.6098
 20
38.8848
 30
0.0
 10
-0.2823
 20
38.4754
 30
0.0
 10
-0.2823
 20
38.4754
 30
0.0
 10
-0.2823
 20
38.4754
 30
0.0
 10
-0.2823
 20
38.4754
 30
0.0
 10
0.0725
 20
38.0933
 30
0.0
 10
0.0725
 20
38.0933
 30
0.0
 10
0.0725
 20
38.0933
 30
0.0
 10
0.0725
 20
38.0933
 30
0.0
 10
0.5093
 20
37.7658
 30
0.0
 10
0.5093
 20
37.7658
 30
0.0
 10
0.5093
 20
37.7658
 30
0.0
 10
0.5093
 20
37.7658
 30
0.0
 10
0.9460000000000001
 20
37.4928
 30
0.0
 10
0.9460000000000001
 20
37.4928
 30
0.0
 10
0.9460000000000001
 20
37.4928
 30
0.0
 10
0.9460000000000001
 20
37.4928
 30
0.0
 10
1.4373
 20
37.2745
 30
0.0
 10
1.4373
 20
37.2745
 30
0.0
 10
1.4373
 20
37.2745
 30
0.0
 10
1.4373
 20
37.2745
 30
0.0
 10
1.9559
 20
37.1107
 30
0.0
 10
1.9559
 20
37.1107
 30
0.0
 10
1.9559
 20
37.1107
 30
0.0
 10
1.9559
 20
37.1107
 30
0.0
 10
2.4745
 20
37.0015
 30
0.0
 10
2.4745
 20
37.0015
 30
0.0
 10
2.4745
 20
37.0015
 30
0.0
 10
2.4745
 20
37.0015
 30
0.0
 10
3.0203
 20
36.9743
 30
0.0
 10
3.0203
 20
36.9743
 30
0.0
  0
SPLINE
  5
A1
330
1F
100
AcDbEntity
  8
LC-003-003-----0
370
    35
100
AcDbSpline
210
0.0
220
0.0
230
1.0
 70
    24
 71
     3
 72
     8
 73
     4
 74
     0
 42
0.0000000001
 43
0.0000000001
 40
0.0
 40
0.0
 40
0.0
 40
0.0
 40
1.0
 40
1.0
 40
1.0
 40
1.0
 10
-1.4014
 20
51.4403
 30
0.0
 10
-1.4014
 20
51.4403
 30
0.0
 10
-1.4014
 20
41.396
 30
0.0
 10
-1.4014
 20
41.396
 30
0.0
  0
SPLINE
  5
A2
330
1F
100
AcDbEntity
  8
LC-003-003-----0
370
    35
100
AcDbSpline
210
0.0
220
0.0
230
1.0
 70
     8
 71
     3
 72
    36
 73
    32
 74
     0
 42
0.0000000001
 43
0.0000000001
 40
0.0
 40
0.0
 40
0.0
 40
0.0
 40
0.125
 40
0.125
 40
0.125
 40
0.125
 40
0.25
 40
0.25
 40
0.25
 40
0.25
 40
0.375
 40
0.375
 40
0.375
 40
0.375
 40
0.5
 40
0.5
 40
0.5
 40
0.5
 40
0.625
 40
0.625
 40
0.625
 40
0.625
 40
0.75
 40
0.75
 40
0.75
 40
0.75
 40
0.875
 40
0.875
 40
0.875
 40
0.875
 40
1.0
 40
1.0
 40
1.0
 40
1.0
 10
-2.4112
 20
52.4502
 30
0.0
 10
-2.4112
 20
52.4502
 30
0.0
 10
-2.2202
 20
52.42290000000001
 30
0.0
 10
-2.2202
 20
52.42290000000001
 30
0.0
 10
-2.2202
 20
52.42290000000001
 30
0.0
 10
-2.2202
 20
52.42290000000001
 30
0.0
 10
-2.0291
 20
52.36830000000001
 30
0.0
 10
-2.0291
 20
52.36830000000001
 30
0.0
 10
-2.0291
 20
52.36830000000001
 30
0.0
 10
-2.0291
 20
52.36830000000001
 30
0.0
 10
-1.838
 20
52.2864
 30
0.0
 10
-1.838
 20
52.2864
 30
0.0
 10
-1.838
 20
52.2864
 30
0.0
 10
-1.838
 20
52.2864
 30
0.0
 10
-1.7016
 20
52.1499
 30
0.0
 10
-1.7016
 20
52.1499
 30
0.0
 10
-1.7016
 20
52.1499
 30
0.0
 10
-1.7016
 20
52.1499
 30
0.0
 10
-1.5651
 20
52.0134
 30
0.0
 10
-1.5651
 20
52.0134
 30
0.0
 10
-1.5651
 20
52.0134
 30
0.0
 10
-1.5651
 20
52.0134
 30
0.0
 10
-1.4832
 20
51.8224
 30
0.0
 10
-1.4832
 20
51.8224
 30
0.0
 10
-1.4832
 20
51.8224
 30
0.0
 10
-1.4832
 20
51.8224
 30
0.0
 10
-1.4286
 20
51.6313
 30
0.0
 10
-1.4286
 20
51.6313
 30
0.0
 10
-1.4286
 20
51.6313
 30
0.0
 10
-1.4286
 20
51.6313
 30
0.0
 10
-1.4014
 20
51.4403
 30
0.0
 10
-1.4014
 20
51.4403
 30
0.0
  0
SPLINE
  5
A3
330
1F
100
AcDbEntity
  8
LC-003-003-----0
370
    35
100
AcDbSpline
210
0.0
220
0.0
230
1.0
 70
     8
 71
     3
 72
    36
 73
    32
 74
     0
 42
0.0000000001
 43
0.0000000001
 40
0.0
 40
0.0
 40
0.0
 40
0.0
 40
0.125
 40
0.125
 40
0.125
 40
0.125
 40
0.25
 40
0.25
 40
0.25
 40
0.25
 40
0.375
 40
0.375
 40
0.375
 40
0.375
 40
0.5
 40
0.5
 40
0.5
 40
0.5
 40
0.625
 40
0.625
 40
0.625
 40
0.625
 40
0.75
 40
0.75
 40
0.75
 40
0.75
 40
0.875
 40
0.875
 40
0.875
 40
0.875
 40
1.0
 40
1.0
 40
1.0
 40
1.0
 10
-23.5371
 20
2.6925
 30
0.0
 10
-23.5371
 20
2.6925
 30
0.0
 10
-23.4006
 20
2.7197
 30
0.0
 10
-23.4006
 20
2.7197
 30
0.0
 10
-23.4006
 20
2.7197
 30
0.0
 10
-23.4006
 20
2.7197
 30
0.0
 10
-23.2914
 20
2.747
 30
0.0
 10
-23.2914
 20
2.747
 30
0.0
 10
-23.2914
 20
2.747
 30
0.0
 10
-23.2914
 20
2.747
 30
0.0
 10
-23.1823
 20
2.7743
 30
0.0
 10
-23.1823
 20
2.7743
 30
0.0
 10
-23.1823
 20
2.7743
 30
0.0
 10
-23.1823
 20
2.7743
 30
0.0
 10
-23.0731
 20
2.8562
 30
0.0
 10
-23.0731
 20
2.8562
 30
0.0
 10
-23.0731
 20
2.8562
 30
0.0
 10
-23.0731
 20
2.8562
 30
0.0
 10
-22.9912
 20
2.9381
 30
0.0
 10
-22.9912
 20
2.9381
 30
0.0
 10
-22.9912
 20
2.9381
 30
0.0
 10
-22.9912
 20
2.9381
 30
0.0
 10
-22.9093
 20
3.02
 30
0.0
 10
-22.9093
 20
3.02
 30
0.0
 10
-22.9093
 20
3.02
 30
0.0
 10
-22.9093
 20
3.02
 30
0.0
 10
-22.8274
 20
3.1292
 30
0.0
 10
-22.8274
 20
3.1292
 30
0.0
 10
-22.8274
 20
3.1292
 30
0.0
 10
-22.8274
 20
3.1292
 30
0.0
 10
-22.8001
 20
3.2383
 30
0.0
 10
-22.8001
 20
3.2383
 30
0.0
  0
SPLINE
  5
A4
330
1F
100
AcDbEntity
  8
LC-003-003-----0
370
    35
100
AcDbSpline
210
0.0
220
0.0
230
1.0
 70
    24
 71
     3
 72
     8
 73
     4
 74
     0
 42
0.0000000001
 43
0.0000000001
 40
0.0
 40
0.0
 40
0.0
 40
0.0
 40
1.0
 40
1.0
 40
1.0
 40
1.0
 10
-24.6835
 20
2.6925
 30
0.0
 10
-24.6835
 20
2.6925
 30
0.0
 10
-23.5371
 20
2.6925
 30
0.0
 10
-23.5371
 20
2.6925
 30
0.0
  0
SPLINE
  5
A5
330
1F
100
AcDbEntity
  8
LC-003-003-----0
370
    35
100
AcDbSpline
210
0.0
220
0.0
230
1.0
 70
     8
 71
     3
 72
    36
 73
    32
 74
     0
 42
0.0000000001
 43
0.0000000001
 40
0.0
 40
0.0
 40
0.0
 40
0.0
 40
0.125
 40
0.125
 40
0.125
 40
0.125
 40
0.25
 40
0.25
 40
0.25
 40
0.25
 40
0.375
 40
0.375
 40
0.375
 40
0.375
 40
0.5
 40
0.5
 40
0.5
 40
0.5
 40
0.625
 40
0.625
 40
0.625
 40
0.625
 40
0.75
 40
0.75
 40
0.75
 40
0.75
 40
0.875
 40
0.875
 40
0.875
 40
0.875
 40
1.0
 40
1.0
 40
1.0
 40
1.0
 10
-25.475
 20
3.484
 30
0.0
 10
-25.475
 20
3.484
 30
0.0
 10
-25.4477
 20
3.3203
 30
0.0
 10
-25.4477
 20
3.3203
 30
0.0
 10
-25.4477
 20
3.3203
 30
0.0
 10
-25.4477
 20
3.3203
 30
0.0
 10
-25.3931
 20
3.1838
 30
0.0
 10
-25.3931
 20
3.1838
 30
0.0
 10
-25.3931
 20
3.1838
 30
0.0
 10
-25.3931
 20
3.1838
 30
0.0
 10
-25.3386
 20
3.0473
 30
0.0
 10
-25.3386
 20
3.0473
 30
0.0
 10
-25.3386
 20
3.0473
 30
0.0
 10
-25.3386
 20
3.0473
 30
0.0
 10
-25.2294
 20
2.9381
 30
0.0
 10
-25.2294
 20
2.9381
 30
0.0
 10
-25.2294
 20
2.9381
 30
0.0
 10
-25.2294
 20
2.9381
 30
0.0
 10
-25.1202
 20
2.829
 30
0.0
 10
-25.1202
 20
2.829
 30
0.0
 10
-25.1202
 20
2.829
 30
0.0
 10
-25.1202
 20
2.829
 30
0.0
 10
-24.9837
 20
2.747
 30
0.0
 10
-24.9837
 20
2.747
 30
0.0
 10
-24.9837
 20
2.747
 30
0.0
 10
-24.9837
 20
2.747
 30
0.0
 10
-24.8473
 20
2.7197
 30
0.0
 10
-24.8473
 20
2.7197
 30
0.0
 10
-24.8473
 20
2.7197
 30
0.0
 10
-24.8473
 20
2.7197
 30
0.0
 10
-24.6835
 20
2.6925
 30
0.0
 10
-24.6835
 20
2.6925
 30
0.0
  0
SPLINE
  5
A6
330
1F
100
AcDbEntity
  8
LC-003-003-----0
370
    35
100
AcDbSpline
210
0.0
220
0.0
230
1.0
 70
    24
 71
     3
 72
     8
 73
     4
 74
     0
 42
0.0000000001
 43
0.0000000001
 40
0.0
 40
0.0
 40
0.0
 40
0.0
 40
1.0
 40
1.0
 40
1.0
 40
1.0
 10
-25.475
 20
35.96440000000001
 30
0.0
 10
-25.475
 20
35.96440000000001
 30
0.0
 10
-25.475
 20
3.484
 30
0.0
 10
-25.475
 20
3.484
 30
0.0
  0
SPLINE
  5
A7
330
1F
100
AcDbEntity
  8
LC-003-003-----0
370
    35
100
AcDbSpline
210
0.0
220
0.0
230
1.0
 70
     8
 71
     3
 72
    36
 73
    32
 74
     0
 42
0.0000000001
 43
0.0000000001
 40
0.0
 40
0.0
 40
0.0
 40
0.0
 40
0.125
 40
0.125
 40
0.125
 40
0.125
 40
0.25
 40
0.25
 40
0.25
 40
0.25
 40
0.375
 40
0.375
 40
0.375
 40
0.375
 40
0.5
 40
0.5
 40
0.5
 40
0.5
 40
0.625
 40
0.625
 40
0.625
 40
0.625
 40
0.75
 40
0.75
 40
0.75
 40
0.75
 40
0.875
 40
0.875
 40
0.875
 40
0.875
 40
1.0
 40
1.0
 40
1.0
 40
1.0
 10
-23.9192
 20
37.5201
 30
0.0
 10
-23.9192
 20
37.5201
 30
0.0
 10
-24.2195
 20
37.4928
 30
0.0
 10
-24.2195
 20
37.4928
 30
0.0
 10
-24.2195
 20
37.4928
 30
0.0
 10
-24.2195
 20
37.4928
 30
0.0
 10
-24.5197
 20
37.41090000000001
 30
0.0
 10
-24.5197
 20
37.41090000000001
 30
0.0
 10
-24.5197
 20
37.41090000000001
 30
0.0
 10
-24.5197
 20
37.41090000000001
 30
0.0
 10
-24.7653
 20
37.2471
 30
0.0
 10
-24.7653
 20
37.2471
 30
0.0
 10
-24.7653
 20
37.2471
 30
0.0
 10
-24.7653
 20
37.2471
 30
0.0
 10
-25.011
 20
37.0561
 30
0.0
 10
-25.011
 20
37.0561
 30
0.0
 10
-25.011
 20
37.0561
 30
0.0
 10
-25.011
 20
37.0561
 30
0.0
 10
-25.2021
 20
36.8378
 30
0.0
 10
-25.2021
 20
36.8378
 30
0.0
 10
-25.2021
 20
36.8378
 30
0.0
 10
-25.2021
 20
36.8378
 30
0.0
 10
-25.3386
 20
36.56480000000001
 30
0.0
 10
-25.3386
 20
36.56480000000001
 30
0.0
 10
-25.3386
 20
36.56480000000001
 30
0.0
 10
-25.3386
 20
36.56480000000001
 30
0.0
 10
-25.4477
 20
36.26450000000001
 30
0.0
 10
-25.4477
 20
36.26450000000001
 30
0.0
 10
-25.4477
 20
36.26450000000001
 30
0.0
 10
-25.4477
 20
36.26450000000001
 30
0.0
 10
-25.475
 20
35.96440000000001
 30
0.0
 10
-25.475
 20
35.96440000000001
 30
0.0
  0
SPLINE
  5
A8
330
1F
100
AcDbEntity
  8
LC-003-003-----0
370
    35
100
AcDbSpline
210
0.0
220
0.0
230
1.0
 70
    24
 71
     3
 72
     8
 73
     4
 74
     0
 42
0.0000000001
 43
0.0000000001
 40
0.0
 40
0.0
 40
0.0
 40
0.0
 40
1.0
 40
1.0
 40
1.0
 40
1.0
 10
-20.2072
 20
37.5201
 30
0.0
 10
-20.2072
 20
37.5201
 30
0.0
 10
-23.9192
 20
37.5201
 30
0.0
 10
-23.9192
 20
37.5201
 30
0.0
  0
SPLINE
  5
A9
330
1F
100
AcDbEntity
  8
LC-003-003-----0
370
    35
100
AcDbSpline
210
0.0
220
0.0
230
1.0
 70
     8
 71
     3
 72
    52
 73
    48
 74
     0
 42
0.0000000001
 43
0.0000000001
 40
0.0
 40
0.0
 40
0.0
 40
0.0
 40
0.0833333333333333
 40
0.0833333333333333
 40
0.0833333333333333
 40
0.0833333333333333
 40
0.1666666666666667
 40
0.1666666666666667
 40
0.1666666666666667
 40
0.1666666666666667
 40
0.25
 40
0.25
 40
0.25
 40
0.25
 40
0.3333333333333333
 40
0.3333333333333333
 40
0.3333333333333333
 40
0.3333333333333333
 40
0.4166666666666666
 40
0.4166666666666666
 40
0.4166666666666666
 40
0.4166666666666666
 40
0.4999999999999999
 40
0.4999999999999999
 40
0.4999999999999999
 40
0.4999999999999999
 40
0.5833333333333333
 40
0.5833333333333333
 40
0.5833333333333333
 40
0.5833333333333333
 40
0.6666666666666666
 40
0.6666666666666666
 40
0.6666666666666666
 40
0.6666666666666666
 40
0.75
 40
0.75
 40
0.75
 40
0.75
 40
0.8333333333333334
 40
0.8333333333333334
 40
0.8333333333333334
 40
0.8333333333333334
 40
0.9166666666666667
 40
0.9166666666666667
 40
0.9166666666666667
 40
0.9166666666666667
 40
1.0
 40
1.0
 40
1.0
 40
1.0
 10
-16.3314
 20
41.396
 30
0.0
 10
-16.3314
 20
41.396
 30
0.0
 10
-16.3587
 20
40.87730000000001
 30
0.0
 10
-16.3587
 20
40.87730000000001
 30
0.0
 10
-16.3587
 20
40.87730000000001
 30
0.0
 10
-16.3587
 20
40.87730000000001
 30
0.0
 10
-16.4679
 20
40.386
 30
0.0
 10
-16.4679
 20
40.386
 30
0.0
 10
-16.4679
 20
40.386
 30
0.0
 10
-16.4679
 20
40.386
 30
0.0
 10
-16.6317
 20
39.8947
 30
0.0
 10
-16.6317
 20
39.8947
 30
0.0
 10
-16.6317
 20
39.8947
 30
0.0
 10
-16.6317
 20
39.8947
 30
0.0
 10
-16.85
 20
39.458
 30
0.0
 10
-16.85
 20
39.458
 30
0.0
 10
-16.85
 20
39.458
 30
0.0
 10
-16.85
 20
39.458
 30
0.0
 10
-17.123
 20
39.0213
 30
0.0
 10
-17.123
 20
39.0213
 30
0.0
 10
-17.123
 20
39.0213
 30
0.0
 10
-17.123
 20
39.0213
 30
0.0
 10
-17.4778
 20
38.6392
 30
0.0
 10
-17.4778
 20
38.6392
 30
0.0
 10
-17.4778
 20
38.6392
 30
0.0
 10
-17.4778
 20
38.6392
 30
0.0
 10
-17.8599
 20
38.3117
 30
0.0
 10
-17.8599
 20
38.3117
 30
0.0
 10
-17.8599
 20
38.3117
 30
0.0
 10
-17.8599
 20
38.3117
 30
0.0
 10
-18.2693
 20
38.0387
 30
0.0
 10
-18.2693
 20
38.0387
 30
0.0
 10
-18.2693
 20
38.0387
 30
0.0
 10
-18.2693
 20
38.0387
 30
0.0
 10
-18.7333
 20
37.8204
 30
0.0
 10
-18.7333
 20
37.8204
 30
0.0
 10
-18.7333
 20
37.8204
 30
0.0
 10
-18.7333
 20
37.8204
 30
0.0
 10
-19.1973
 20
37.65660000000001
 30
0.0
 10
-19.1973
 20
37.65660000000001
 30
0.0
 10
-19.1973
 20
37.65660000000001
 30
0.0
 10
-19.1973
 20
37.65660000000001
 30
0.0
 10
-19.6886
 20
37.5474
 30
0.0
 10
-19.6886
 20
37.5474
 30
0.0
 10
-19.6886
 20
37.5474
 30
0.0
 10
-19.6886
 20
37.5474
 30
0.0
 10
-20.2072
 20
37.5201
 30
0.0
 10
-20.2072
 20
37.5201
 30
0.0
  0
SPLINE
  5
AA
330
1F
100
AcDbEntity
  8
LC-003-003-----0
370
    35
100
AcDbSpline
210
0.0
220
0.0
230
1.0
 70
    24
 71
     3
 72
     8
 73
     4
 74
     0
 42
0.0000000001
 43
0.0000000001
 40
0.0
 40
0.0
 40
0.0
 40
0.0
 40
1.0
 40
1.0
 40
1.0
 40
1.0
 10
-16.3314
 20
51.4403
 30
0.0
 10
-16.3314
 20
51.4403
 30
0.0
 10
-16.3314
 20
41.396
 30
0.0
 10
-16.3314
 20
41.396
 30
0.0
  0
SPLINE
  5
AB
330
1F
100
AcDbEntity
  8
LC-003-003-----0
370
    35
100
AcDbSpline
210
0.0
220
0.0
230
1.0
 70
     8
 71
     3
 72
    36
 73
    32
 74
     0
 42
0.0000000001
 43
0.0000000001
 40
0.0
 40
0.0
 40
0.0
 40
0.0
 40
0.125
 40
0.125
 40
0.125
 40
0.125
 40
0.25
 40
0.25
 40
0.25
 40
0.25
 40
0.375
 40
0.375
 40
0.375
 40
0.375
 40
0.5
 40
0.5
 40
0.5
 40
0.5
 40
0.625
 40
0.625
 40
0.625
 40
0.625
 40
0.75
 40
0.75
 40
0.75
 40
0.75
 40
0.875
 40
0.875
 40
0.875
 40
0.875
 40
1.0
 40
1.0
 40
1.0
 40
1.0
 10
-14.7756
 20
52.996
 30
0.0
 10
-14.7756
 20
52.996
 30
0.0
 10
-15.0758
 20
52.96870000000001
 30
0.0
 10
-15.0758
 20
52.96870000000001
 30
0.0
 10
-15.0758
 20
52.96870000000001
 30
0.0
 10
-15.0758
 20
52.96870000000001
 30
0.0
 10
-15.3761
 20
52.8869
 30
0.0
 10
-15.3761
 20
52.8869
 30
0.0
 10
-15.3761
 20
52.8869
 30
0.0
 10
-15.3761
 20
52.8869
 30
0.0
 10
-15.6491
 20
52.7231
 30
0.0
 10
-15.6491
 20
52.7231
 30
0.0
 10
-15.6491
 20
52.7231
 30
0.0
 10
-15.6491
 20
52.7231
 30
0.0
 10
-15.8947
 20
52.532
 30
0.0
 10
-15.8947
 20
52.532
 30
0.0
 10
-15.8947
 20
52.532
 30
0.0
 10
-15.8947
 20
52.532
 30
0.0
 10
-16.0857
 20
52.3137
 30
0.0
 10
-16.0857
 20
52.3137
 30
0.0
 10
-16.0857
 20
52.3137
 30
0.0
 10
-16.0857
 20
52.3137
 30
0.0
 10
-16.2222
 20
52.0407
 30
0.0
 10
-16.2222
 20
52.0407
 30
0.0
 10
-16.2222
 20
52.0407
 30
0.0
 10
-16.2222
 20
52.0407
 30
0.0
 10
-16.3041
 20
51.7405
 30
0.0
 10
-16.3041
 20
51.7405
 30
0.0
 10
-16.3041
 20
51.7405
 30
0.0
 10
-16.3041
 20
51.7405
 30
0.0
 10
-16.3314
 20
51.4403
 30
0.0
 10
-16.3314
 20
51.4403
 30
0.0
  0
SPLINE
  5
AC
330
1F
100
AcDbEntity
  8
LC-003-003-----0
370
    35
100
AcDbSpline
210
0.0
220
0.0
230
1.0
 70
    24
 71
     3
 72
     8
 73
     4
 74
     0
 42
0.0000000001
 43
0.0000000001
 40
0.0
 40
0.0
 40
0.0
 40
0.0
 40
1.0
 40
1.0
 40
1.0
 40
1.0
 10
-2.4112
 20
52.996
 30
0.0
 10
-2.4112
 20
52.996
 30
0.0
 10
-14.7756
 20
52.996
 30
0.0
 10
-14.7756
 20
52.996
 30
0.0
  0
SPLINE
  5
AD
330
1F
100
AcDbEntity
  8
LC-003-003-----0
370
    35
100
AcDbSpline
210
0.0
220
0.0
230
1.0
 70
    24
 71
     3
 72
     8
 73
     4
 74
     0
 42
0.0000000001
 43
0.0000000001
 40
0.0
 40
0.0
 40
0.0
 40
0.0
 40
1.0
 40
1.0
 40
1.0
 40
1.0
 10
-2.4112
 20
52.4502
 30
0.0
 10
-2.4112
 20
52.4502
 30
0.0
 10
-14.7756
 20
52.4502
 30
0.0
 10
-14.7756
 20
52.4502
 30
0.0
  0
SPLINE
  5
AE
330
1F
100
AcDbEntity
  8
LC-003-003-----0
370
    35
100
AcDbSpline
210
0.0
220
0.0
230
1.0
 70
     8
 71
     3
 72
    36
 73
    32
 74
     0
 42
0.0000000001
 43
0.0000000001
 40
0.0
 40
0.0
 40
0.0
 40
0.0
 40
0.125
 40
0.125
 40
0.125
 40
0.125
 40
0.25
 40
0.25
 40
0.25
 40
0.25
 40
0.375
 40
0.375
 40
0.375
 40
0.375
 40
0.5
 40
0.5
 40
0.5
 40
0.5
 40
0.625
 40
0.625
 40
0.625
 40
0.625
 40
0.75
 40
0.75
 40
0.75
 40
0.75
 40
0.875
 40
0.875
 40
0.875
 40
0.875
 40
1.0
 40
1.0
 40
1.0
 40
1.0
 10
-14.7756
 20
52.4502
 30
0.0
 10
-14.7756
 20
52.4502
 30
0.0
 10
-14.994
 20
52.42290000000001
 30
0.0
 10
-14.994
 20
52.42290000000001
 30
0.0
 10
-14.994
 20
52.42290000000001
 30
0.0
 10
-14.994
 20
52.42290000000001
 30
0.0
 10
-15.185
 20
52.36830000000001
 30
0.0
 10
-15.185
 20
52.36830000000001
 30
0.0
 10
-15.185
 20
52.36830000000001
 30
0.0
 10
-15.185
 20
52.36830000000001
 30
0.0
 10
-15.3488
 20
52.2864
 30
0.0
 10
-15.3488
 20
52.2864
 30
0.0
 10
-15.3488
 20
52.2864
 30
0.0
 10
-15.3488
 20
52.2864
 30
0.0
 10
-15.4853
 20
52.1499
 30
0.0
 10
-15.4853
 20
52.1499
 30
0.0
 10
-15.4853
 20
52.1499
 30
0.0
 10
-15.4853
 20
52.1499
 30
0.0
 10
-15.6217
 20
52.0134
 30
0.0
 10
-15.6217
 20
52.0134
 30
0.0
 10
-15.6217
 20
52.0134
 30
0.0
 10
-15.6217
 20
52.0134
 30
0.0
 10
-15.7036
 20
51.8224
 30
0.0
 10
-15.7036
 20
51.8224
 30
0.0
 10
-15.7036
 20
51.8224
 30
0.0
 10
-15.7036
 20
51.8224
 30
0.0
 10
-15.7855
 20
51.6313
 30
0.0
 10
-15.7855
 20
51.6313
 30
0.0
 10
-15.7855
 20
51.6313
 30
0.0
 10
-15.7855
 20
51.6313
 30
0.0
 10
-15.7855
 20
51.4403
 30
0.0
 10
-15.7855
 20
51.4403
 30
0.0
  0
SPLINE
  5
AF
330
1F
100
AcDbEntity
  8
LC-003-003-----0
370
    35
100
AcDbSpline
210
0.0
220
0.0
230
1.0
 70
    24
 71
     3
 72
     8
 73
     4
 74
     0
 42
0.0000000001
 43
0.0000000001
 40
0.0
 40
0.0
 40
0.0
 40
0.0
 40
1.0
 40
1.0
 40
1.0
 40
1.0
 10
-15.7855
 20
51.4403
 30
0.0
 10
-15.7855
 20
51.4403
 30
0.0
 10
-15.7855
 20
41.396
 30
0.0
 10
-15.7855
 20
41.396
 30
0.0
  0
SPLINE
  5
B0
330
1F
100
AcDbEntity
  8
LC-003-003-----0
370
    35
100
AcDbSpline
210
0.0
220
0.0
230
1.0
 70
     8
 71
     3
 72
    56
 73
    52
 74
     0
 42
0.0000000001
 43
0.0000000001
 40
0.0
 40
0.0
 40
0.0
 40
0.0
 40
0.0769230769230769
 40
0.0769230769230769
 40
0.0769230769230769
 40
0.0769230769230769
 40
0.1538461538461539
 40
0.1538461538461539
 40
0.1538461538461539
 40
0.1538461538461539
 40
0.2307692307692308
 40
0.2307692307692308
 40
0.2307692307692308
 40
0.2307692307692308
 40
0.3076923076923077
 40
0.3076923076923077
 40
0.3076923076923077
 40
0.3076923076923077
 40
0.3846153846153846
 40
0.3846153846153846
 40
0.3846153846153846
 40
0.3846153846153846
 40
0.4615384615384616
 40
0.4615384615384616
 40
0.4615384615384616
 40
0.4615384615384616
 40
0.5384615384615386
 40
0.5384615384615386
 40
0.5384615384615386
 40
0.5384615384615386
 40
0.6153846153846154
 40
0.6153846153846154
 40
0.6153846153846154
 40
0.6153846153846154
 40
0.6923076923076923
 40
0.6923076923076923
 40
0.6923076923076923
 40
0.6923076923076923
 40
0.7692307692307692
 40
0.7692307692307692
 40
0.7692307692307692
 40
0.7692307692307692
 40
0.846153846153846
 40
0.846153846153846
 40
0.846153846153846
 40
0.846153846153846
 40
0.9230769230769229
 40
0.9230769230769229
 40
0.9230769230769229
 40
0.9230769230769229
 40
1.0
 40
1.0
 40
1.0
 40
1.0
 10
-15.7855
 20
41.396
 30
0.0
 10
-15.7855
 20
41.396
 30
0.0
 10
-15.8128
 20
40.85
 30
0.0
 10
-15.8128
 20
40.85
 30
0.0
 10
-15.8128
 20
40.85
 30
0.0
 10
-15.8128
 20
40.85
 30
0.0
 10
-15.9219
 20
40.3314
 30
0.0
 10
-15.9219
 20
40.3314
 30
0.0
 10
-15.9219
 20
40.3314
 30
0.0
 10
-15.9219
 20
40.3314
 30
0.0
 10
-16.0857
 20
39.8128
 30
0.0
 10
-16.0857
 20
39.8128
 30
0.0
 10
-16.0857
 20
39.8128
 30
0.0
 10
-16.0857
 20
39.8128
 30
0.0
 10
-16.3041
 20
39.3488
 30
0.0
 10
-16.3041
 20
39.3488
 30
0.0
 10
-16.3041
 20
39.3488
 30
0.0
 10
-16.3041
 20
39.3488
 30
0.0
 10
-16.577
 20
38.8848
 30
0.0
 10
-16.577
 20
38.8848
 30
0.0
 10
-16.577
 20
38.8848
 30
0.0
 10
-16.577
 20
38.8848
 30
0.0
 10
-16.9045
 20
38.4754
 30
0.0
 10
-16.9045
 20
38.4754
 30
0.0
 10
-16.9045
 20
38.4754
 30
0.0
 10
-16.9045
 20
38.4754
 30
0.0
 10
-17.2867
 20
38.0933
 30
0.0
 10
-17.2867
 20
38.0933
 30
0.0
 10
-17.2867
 20
38.0933
 30
0.0
 10
-17.2867
 20
38.0933
 30
0.0
 10
-17.6961
 20
37.7658
 30
0.0
 10
-17.6961
 20
37.7658
 30
0.0
 10
-17.6961
 20
37.7658
 30
0.0
 10
-17.6961
 20
37.7658
 30
0.0
 10
-18.1601
 20
37.4928
 30
0.0
 10
-18.1601
 20
37.4928
 30
0.0
 10
-18.1601
 20
37.4928
 30
0.0
 10
-18.1601
 20
37.4928
 30
0.0
 10
-18.6514
 20
37.2745
 30
0.0
 10
-18.6514
 20
37.2745
 30
0.0
 10
-18.6514
 20
37.2745
 30
0.0
 10
-18.6514
 20
37.2745
 30
0.0
 10
-19.1427
 20
37.1107
 30
0.0
 10
-19.1427
 20
37.1107
 30
0.0
 10
-19.1427
 20
37.1107
 30
0.0
 10
-19.1427
 20
37.1107
 30
0.0
 10
-19.6613
 20
37.0015
 30
0.0
 10
-19.6613
 20
37.0015
 30
0.0
 10
-19.6613
 20
37.0015
 30
0.0
 10
-19.6613
 20
37.0015
 30
0.0
 10
-20.2072
 20
36.9743
 30
0.0
 10
-20.2072
 20
36.9743
 30
0.0
  0
SPLINE
  5
B1
330
1F
100
AcDbEntity
  8
LC-003-003-----0
370
    35
100
AcDbSpline
210
0.0
220
0.0
230
1.0
 70
    24
 71
     3
 72
     8
 73
     4
 74
     0
 42
0.0000000001
 43
0.0000000001
 40
0.0
 40
0.0
 40
0.0
 40
0.0
 40
1.0
 40
1.0
 40
1.0
 40
1.0
 10
-20.2072
 20
36.9743
 30
0.0
 10
-20.2072
 20
36.9743
 30
0.0
 10
-23.9192
 20
36.9743
 30
0.0
 10
-23.9192
 20
36.9743
 30
0.0
  0
SPLINE
  5
B2
330
1F
100
AcDbEntity
  8
LC-003-003-----0
370
    35
100
AcDbSpline
210
0.0
220
0.0
230
1.0
 70
     8
 71
     3
 72
    36
 73
    32
 74
     0
 42
0.0000000001
 43
0.0000000001
 40
0.0
 40
0.0
 40
0.0
 40
0.0
 40
0.125
 40
0.125
 40
0.125
 40
0.125
 40
0.25
 40
0.25
 40
0.25
 40
0.25
 40
0.375
 40
0.375
 40
0.375
 40
0.375
 40
0.5
 40
0.5
 40
0.5
 40
0.5
 40
0.625
 40
0.625
 40
0.625
 40
0.625
 40
0.75
 40
0.75
 40
0.75
 40
0.75
 40
0.875
 40
0.875
 40
0.875
 40
0.875
 40
1.0
 40
1.0
 40
1.0
 40
1.0
 10
-23.9192
 20
36.9743
 30
0.0
 10
-23.9192
 20
36.9743
 30
0.0
 10
-24.1103
 20
36.9469
 30
0.0
 10
-24.1103
 20
36.9469
 30
0.0
 10
-24.1103
 20
36.9469
 30
0.0
 10
-24.1103
 20
36.9469
 30
0.0
 10
-24.3013
 20
36.8923
 30
0.0
 10
-24.3013
 20
36.8923
 30
0.0
 10
-24.3013
 20
36.8923
 30
0.0
 10
-24.3013
 20
36.8923
 30
0.0
 10
-24.4651
 20
36.81050000000001
 30
0.0
 10
-24.4651
 20
36.81050000000001
 30
0.0
 10
-24.4651
 20
36.81050000000001
 30
0.0
 10
-24.4651
 20
36.81050000000001
 30
0.0
 10
-24.6289
 20
36.674
 30
0.0
 10
-24.6289
 20
36.674
 30
0.0
 10
-24.6289
 20
36.674
 30
0.0
 10
-24.6289
 20
36.674
 30
0.0
 10
-24.7653
 20
36.5375
 30
0.0
 10
-24.7653
 20
36.5375
 30
0.0
 10
-24.7653
 20
36.5375
 30
0.0
 10
-24.7653
 20
36.5375
 30
0.0
 10
-24.8473
 20
36.3465
 30
0.0
 10
-24.8473
 20
36.3465
 30
0.0
 10
-24.8473
 20
36.3465
 30
0.0
 10
-24.8473
 20
36.3465
 30
0.0
 10
-24.9018
 20
36.1554
 30
0.0
 10
-24.9018
 20
36.1554
 30
0.0
 10
-24.9018
 20
36.1554
 30
0.0
 10
-24.9018
 20
36.1554
 30
0.0
 10
-24.9291
 20
35.96440000000001
 30
0.0
 10
-24.9291
 20
35.96440000000001
 30
0.0
  0
SPLINE
  5
B3
330
1F
100
AcDbEntity
  8
LC-003-003-----0
370
    35
100
AcDbSpline
210
0.0
220
0.0
230
1.0
 70
    24
 71
     3
 72
     8
 73
     4
 74
     0
 42
0.0000000001
 43
0.0000000001
 40
0.0
 40
0.0
 40
0.0
 40
0.0
 40
1.0
 40
1.0
 40
1.0
 40
1.0
 10
-24.9291
 20
35.96440000000001
 30
0.0
 10
-24.9291
 20
35.96440000000001
 30
0.0
 10
-24.9291
 20
3.484
 30
0.0
 10
-24.9291
 20
3.484
 30
0.0
  0
SPLINE
  5
B4
330
1F
100
AcDbEntity
  8
LC-003-003-----0
370
    35
100
AcDbSpline
210
0.0
220
0.0
230
1.0
 70
     8
 71
     3
 72
    36
 73
    32
 74
     0
 42
0.0000000001
 43
0.0000000001
 40
0.0
 40
0.0
 40
0.0
 40
0.0
 40
0.125
 40
0.125
 40
0.125
 40
0.125
 40
0.25
 40
0.25
 40
0.25
 40
0.25
 40
0.375
 40
0.375
 40
0.375
 40
0.375
 40
0.5
 40
0.5
 40
0.5
 40
0.5
 40
0.625
 40
0.625
 40
0.625
 40
0.625
 40
0.75
 40
0.75
 40
0.75
 40
0.75
 40
0.875
 40
0.875
 40
0.875
 40
0.875
 40
1.0
 40
1.0
 40
1.0
 40
1.0
 10
-24.9291
 20
3.484
 30
0.0
 10
-24.9291
 20
3.484
 30
0.0
 10
-24.9291
 20
3.4294
 30
0.0
 10
-24.9291
 20
3.4294
 30
0.0
 10
-24.9291
 20
3.4294
 30
0.0
 10
-24.9291
 20
3.4294
 30
0.0
 10
-24.9018
 20
3.3748
 30
0.0
 10
-24.9018
 20
3.3748
 30
0.0
 10
-24.9018
 20
3.3748
 30
0.0
 10
-24.9018
 20
3.3748
 30
0.0
 10
-24.8745
 20
3.3475
 30
0.0
 10
-24.8745
 20
3.3475
 30
0.0
 10
-24.8745
 20
3.3475
 30
0.0
 10
-24.8745
 20
3.3475
 30
0.0
 10
-24.8473
 20
3.3203
 30
0.0
 10
-24.8473
 20
3.3203
 30
0.0
 10
-24.8473
 20
3.3203
 30
0.0
 10
-24.8473
 20
3.3203
 30
0.0
 10
-24.82
 20
3.293
 30
0.0
 10
-24.82
 20
3.293
 30
0.0
 10
-24.82
 20
3.293
 30
0.0
 10
-24.82
 20
3.293
 30
0.0
 10
-24.7926
 20
3.2656
 30
0.0
 10
-24.7926
 20
3.2656
 30
0.0
 10
-24.7926
 20
3.2656
 30
0.0
 10
-24.7926
 20
3.2656
 30
0.0
 10
-24.7381
 20
3.2383
 30
0.0
 10
-24.7381
 20
3.2383
 30
0.0
 10
-24.7381
 20
3.2383
 30
0.0
 10
-24.7381
 20
3.2383
 30
0.0
 10
-24.6835
 20
3.2383
 30
0.0
 10
-24.6835
 20
3.2383
 30
0.0
  0
SPLINE
  5
B5
330
1F
100
AcDbEntity
  8
LC-003-003-----0
370
    35
100
AcDbSpline
210
0.0
220
0.0
230
1.0
 70
    24
 71
     3
 72
     8
 73
     4
 74
     0
 42
0.0000000001
 43
0.0000000001
 40
0.0
 40
0.0
 40
0.0
 40
0.0
 40
1.0
 40
1.0
 40
1.0
 40
1.0
 10
-24.6835
 20
3.2383
 30
0.0
 10
-24.6835
 20
3.2383
 30
0.0
 10
-23.5371
 20
3.2383
 30
0.0
 10
-23.5371
 20
3.2383
 30
0.0
  0
SPLINE
  5
B6
330
1F
100
AcDbEntity
  8
LC-003-003-----0
370
    35
100
AcDbSpline
210
0.0
220
0.0
230
1.0
 70
     8
 71
     3
 72
    36
 73
    32
 74
     0
 42
0.0000000001
 43
0.0000000001
 40
0.0
 40
0.0
 40
0.0
 40
0.0
 40
0.125
 40
0.125
 40
0.125
 40
0.125
 40
0.25
 40
0.25
 40
0.25
 40
0.25
 40
0.375
 40
0.375
 40
0.375
 40
0.375
 40
0.5
 40
0.5
 40
0.5
 40
0.5
 40
0.625
 40
0.625
 40
0.625
 40
0.625
 40
0.75
 40
0.75
 40
0.75
 40
0.75
 40
0.875
 40
0.875
 40
0.875
 40
0.875
 40
1.0
 40
1.0
 40
1.0
 40
1.0
 10
-23.5371
 20
3.2383
 30
0.0
 10
-23.5371
 20
3.2383
 30
0.0
 10
-23.4825
 20
3.2383
 30
0.0
 10
-23.4825
 20
3.2383
 30
0.0
 10
-23.4825
 20
3.2383
 30
0.0
 10
-23.4825
 20
3.2383
 30
0.0
 10
-23.4552
 20
3.2656
 30
0.0
 10
-23.4552
 20
3.2656
 30
0.0
 10
-23.4552
 20
3.2656
 30
0.0
 10
-23.4552
 20
3.2656
 30
0.0
 10
-23.4279
 20
3.2656
 30
0.0
 10
-23.4279
 20
3.2656
 30
0.0
 10
-23.4279
 20
3.2656
 30
0.0
 10
-23.4279
 20
3.2656
 30
0.0
 10
-23.4006
 20
3.293
 30
0.0
 10
-23.4006
 20
3.293
 30
0.0
 10
-23.4006
 20
3.293
 30
0.0
 10
-23.4006
 20
3.293
 30
0.0
 10
-23.3734
 20
3.3203
 30
0.0
 10
-23.3734
 20
3.3203
 30
0.0
 10
-23.3734
 20
3.3203
 30
0.0
 10
-23.3734
 20
3.3203
 30
0.0
 10
-23.3461
 20
3.3475
 30
0.0
 10
-23.3461
 20
3.3475
 30
0.0
 10
-23.3461
 20
3.3475
 30
0.0
 10
-23.3461
 20
3.3475
 30
0.0
 10
-23.3187
 20
3.3748
 30
0.0
 10
-23.3187
 20
3.3748
 30
0.0
 10
-23.3187
 20
3.3748
 30
0.0
 10
-23.3187
 20
3.3748
 30
0.0
 10
-23.3187
 20
3.4021
 30
0.0
 10
-23.3187
 20
3.4021
 30
0.0
  0
SPLINE
  5
B7
330
1F
100
AcDbEntity
  8
LC-003-003-----0
370
    35
100
AcDbSpline
210
0.0
220
0.0
230
1.0
 70
    24
 71
     3
 72
     8
 73
     4
 74
     0
 42
0.0000000001
 43
0.0000000001
 40
0.0
 40
0.0
 40
0.0
 40
0.0
 40
1.0
 40
1.0
 40
1.0
 40
1.0
 10
-23.3187
 20
3.4021
 30
0.0
 10
-23.3187
 20
3.4021
 30
0.0
 10
-22.8548
 20
4.7942
 30
0.0
 10
-22.8548
 20
4.7942
 30
0.0
  0
SPLINE
  5
B8
330
1F
100
AcDbEntity
  8
LC-003-003-----0
370
    35
100
AcDbSpline
210
0.0
220
0.0
230
1.0
 70
    24
 71
     3
 72
     8
 73
     4
 74
     0
 42
0.0000000001
 43
0.0000000001
 40
0.0
 40
0.0
 40
0.0
 40
0.0
 40
1.0
 40
1.0
 40
1.0
 40
1.0
 10
-22.8548
 20
4.7942
 30
0.0
 10
-22.8548
 20
4.7942
 30
0.0
 10
-22.3361
 20
4.6304
 30
0.0
 10
-22.3361
 20
4.6304
 30
0.0
  0
SPLINE
  5
B9
330
1F
100
AcDbEntity
  8
LC-003-003-----0
370
    35
100
AcDbSpline
210
0.0
220
0.0
230
1.0
 70
    24
 71
     3
 72
     8
 73
     4
 74
     0
 42
0.0000000001
 43
0.0000000001
 40
0.0
 40
0.0
 40
0.0
 40
0.0
 40
1.0
 40
1.0
 40
1.0
 40
1.0
 10
-22.8001
 20
3.2383
 30
0.0
 10
-22.8001
 20
3.2383
 30
0.0
 10
-22.3361
 20
4.6304
 30
0.0
 10
-22.3361
 20
4.6304
 30
0.0
  0
SPLINE
  5
BA
330
1F
100
AcDbEntity
  8
LC-003-003-----0
370
    35
100
AcDbSpline
210
0.0
220
0.0
230
1.0
 70
    24
 71
     3
 72
     8
 73
     4
 74
     0
 42
0.0000000001
 43
0.0000000001
 40
0.0
 40
0.0
 40
0.0
 40
0.0
 40
1.0
 40
1.0
 40
1.0
 40
1.0
 10
53.02370000000001
 20
37.5201
 30
0.0
 10
53.02370000000001
 20
37.5201
 30
0.0
 10
37.5478
 20
37.5201
 30
0.0
 10
37.5478
 20
37.5201
 30
0.0
  0
SPLINE
  5
BB
330
1F
100
AcDbEntity
  8
LC-003-003-----0
370
    35
100
AcDbSpline
210
0.0
220
0.0
230
1.0
 70
    24
 71
     3
 72
    36
 73
    32
 74
     0
 42
0.0000000001
 43
0.0000000001
 40
0.0
 40
0.0
 40
0.0
 40
0.0
 40
0.125
 40
0.125
 40
0.125
 40
0.125
 40
0.25
 40
0.25
 40
0.25
 40
0.25
 40
0.375
 40
0.375
 40
0.375
 40
0.375
 40
0.5
 40
0.5
 40
0.5
 40
0.5
 40
0.625
 40
0.625
 40
0.625
 40
0.625
 40
0.75
 40
0.75
 40
0.75
 40
0.75
 40
0.875
 40
0.875
 40
0.875
 40
0.875
 40
1.0
 40
1.0
 40
1.0
 40
1.0
 10
37.5478
 20
37.5201
 30
0.0
 10
37.5478
 20
37.5201
 30
0.0
 10
37.5478
 20
37.4928
 30
0.0
 10
37.5478
 20
37.4928
 30
0.0
 10
37.5478
 20
37.4928
 30
0.0
 10
37.5478
 20
37.4928
 30
0.0
 10
37.5478
 20
37.41090000000001
 30
0.0
 10
37.5478
 20
37.41090000000001
 30
0.0
 10
37.5478
 20
37.41090000000001
 30
0.0
 10
37.5478
 20
37.41090000000001
 30
0.0
 10
37.5478
 20
37.2471
 30
0.0
 10
37.5478
 20
37.2471
 30
0.0
 10
37.5478
 20
37.2471
 30
0.0
 10
37.5478
 20
37.2471
 30
0.0
 10
37.5478
 20
37.0561
 30
0.0
 10
37.5478
 20
37.0561
 30
0.0
 10
37.5478
 20
37.0561
 30
0.0
 10
37.5478
 20
37.0561
 30
0.0
 10
37.5478
 20
36.8378
 30
0.0
 10
37.5478
 20
36.8378
 30
0.0
 10
37.5478
 20
36.8378
 30
0.0
 10
37.5478
 20
36.8378
 30
0.0
 10
37.5478
 20
36.56480000000001
 30
0.0
 10
37.5478
 20
36.56480000000001
 30
0.0
 10
37.5478
 20
36.56480000000001
 30
0.0
 10
37.5478
 20
36.56480000000001
 30
0.0
 10
37.5478
 20
36.26450000000001
 30
0.0
 10
37.5478
 20
36.26450000000001
 30
0.0
 10
37.5478
 20
36.26450000000001
 30
0.0
 10
37.5478
 20
36.26450000000001
 30
0.0
 10
37.5478
 20
35.96440000000001
 30
0.0
 10
37.5478
 20
35.96440000000001
 30
0.0
  0
SPLINE
  5
BC
330
1F
100
AcDbEntity
  8
LC-003-003-----0
370
    35
100
AcDbSpline
210
0.0
220
0.0
230
1.0
 70
    24
 71
     3
 72
    36
 73
    32
 74
     0
 42
0.0000000001
 43
0.0000000001
 40
0.0
 40
0.0
 40
0.0
 40
0.0
 40
0.125
 40
0.125
 40
0.125
 40
0.125
 40
0.25
 40
0.25
 40
0.25
 40
0.25
 40
0.375
 40
0.375
 40
0.375
 40
0.375
 40
0.5
 40
0.5
 40
0.5
 40
0.5
 40
0.625
 40
0.625
 40
0.625
 40
0.625
 40
0.75
 40
0.75
 40
0.75
 40
0.75
 40
0.875
 40
0.875
 40
0.875
 40
0.875
 40
1.0
 40
1.0
 40
1.0
 40
1.0
 10
53.02370000000001
 20
37.5201
 30
0.0
 10
53.02370000000001
 20
37.5201
 30
0.0
 10
53.02370000000001
 20
37.4928
 30
0.0
 10
53.02370000000001
 20
37.4928
 30
0.0
 10
53.02370000000001
 20
37.4928
 30
0.0
 10
53.02370000000001
 20
37.4928
 30
0.0
 10
53.02370000000001
 20
37.41090000000001
 30
0.0
 10
53.02370000000001
 20
37.41090000000001
 30
0.0
 10
53.02370000000001
 20
37.41090000000001
 30
0.0
 10
53.02370000000001
 20
37.41090000000001
 30
0.0
 10
53.02370000000001
 20
37.2471
 30
0.0
 10
53.02370000000001
 20
37.2471
 30
0.0
 10
53.02370000000001
 20
37.2471
 30
0.0
 10
53.02370000000001
 20
37.2471
 30
0.0
 10
53.02370000000001
 20
37.0561
 30
0.0
 10
53.02370000000001
 20
37.0561
 30
0.0
 10
53.02370000000001
 20
37.0561
 30
0.0
 10
53.02370000000001
 20
37.0561
 30
0.0
 10
53.02370000000001
 20
36.8378
 30
0.0
 10
53.02370000000001
 20
36.8378
 30
0.0
 10
53.02370000000001
 20
36.8378
 30
0.0
 10
53.02370000000001
 20
36.8378
 30
0.0
 10
53.02370000000001
 20
36.56480000000001
 30
0.0
 10
53.02370000000001
 20
36.56480000000001
 30
0.0
 10
53.02370000000001
 20
36.56480000000001
 30
0.0
 10
53.02370000000001
 20
36.56480000000001
 30
0.0
 10
53.02370000000001
 20
36.26450000000001
 30
0.0
 10
53.02370000000001
 20
36.26450000000001
 30
0.0
 10
53.02370000000001
 20
36.26450000000001
 30
0.0
 10
53.02370000000001
 20
36.26450000000001
 30
0.0
 10
53.02370000000001
 20
35.96440000000001
 30
0.0
 10
53.02370000000001
 20
35.96440000000001
 30
0.0
  0
SPLINE
  5
BD
330
1F
100
AcDbEntity
  8
LC-003-003-----0
370
    35
100
AcDbSpline
210
0.0
220
0.0
230
1.0
 70
    24
 71
     3
 72
     8
 73
     4
 74
     0
 42
0.0000000001
 43
0.0000000001
 40
0.0
 40
0.0
 40
0.0
 40
0.0
 40
1.0
 40
1.0
 40
1.0
 40
1.0
 10
37.5478
 20
35.96440000000001
 30
0.0
 10
37.5478
 20
35.96440000000001
 30
0.0
 10
37.5478
 20
3.484
 30
0.0
 10
37.5478
 20
3.484
 30
0.0
  0
SPLINE
  5
BE
330
1F
100
AcDbEntity
  8
LC-003-003-----0
370
    35
100
AcDbSpline
210
0.0
220
0.0
230
1.0
 70
    24
 71
     3
 72
     8
 73
     4
 74
     0
 42
0.0000000001
 43
0.0000000001
 40
0.0
 40
0.0
 40
0.0
 40
0.0
 40
1.0
 40
1.0
 40
1.0
 40
1.0
 10
53.02370000000001
 20
35.96440000000001
 30
0.0
 10
53.02370000000001
 20
35.96440000000001
 30
0.0
 10
53.02370000000001
 20
3.484
 30
0.0
 10
53.02370000000001
 20
3.484
 30
0.0
  0
SPLINE
  5
BF
330
1F
100
AcDbEntity
  8
LC-003-003-----0
370
    35
100
AcDbSpline
210
0.0
220
0.0
230
1.0
 70
    24
 71
     3
 72
     8
 73
     4
 74
     0
 42
0.0000000001
 43
0.0000000001
 40
0.0
 40
0.0
 40
0.0
 40
0.0
 40
1.0
 40
1.0
 40
1.0
 40
1.0
 10
53.02370000000001
 20
2.6925
 30
0.0
 10
53.02370000000001
 20
2.6925
 30
0.0
 10
37.5478
 20
2.6925
 30
0.0
 10
37.5478
 20
2.6925
 30
0.0
  0
SPLINE
  5
C0
330
1F
100
AcDbEntity
  8
LC-003-003-----0
370
    35
100
AcDbSpline
210
0.0
220
0.0
230
1.0
 70
    24
 71
     3
 72
    36
 73
    32
 74
     0
 42
0.0000000001
 43
0.0000000001
 40
0.0
 40
0.0
 40
0.0
 40
0.0
 40
0.125
 40
0.125
 40
0.125
 40
0.125
 40
0.25
 40
0.25
 40
0.25
 40
0.25
 40
0.375
 40
0.375
 40
0.375
 40
0.375
 40
0.5
 40
0.5
 40
0.5
 40
0.5
 40
0.625
 40
0.625
 40
0.625
 40
0.625
 40
0.75
 40
0.75
 40
0.75
 40
0.75
 40
0.875
 40
0.875
 40
0.875
 40
0.875
 40
1.0
 40
1.0
 40
1.0
 40
1.0
 10
37.5478
 20
3.484
 30
0.0
 10
37.5478
 20
3.484
 30
0.0
 10
37.5478
 20
3.3203
 30
0.0
 10
37.5478
 20
3.3203
 30
0.0
 10
37.5478
 20
3.3203
 30
0.0
 10
37.5478
 20
3.3203
 30
0.0
 10
37.5478
 20
3.1838
 30
0.0
 10
37.5478
 20
3.1838
 30
0.0
 10
37.5478
 20
3.1838
 30
0.0
 10
37.5478
 20
3.1838
 30
0.0
 10
37.5478
 20
3.0473
 30
0.0
 10
37.5478
 20
3.0473
 30
0.0
 10
37.5478
 20
3.0473
 30
0.0
 10
37.5478
 20
3.0473
 30
0.0
 10
37.5478
 20
2.9381
 30
0.0
 10
37.5478
 20
2.9381
 30
0.0
 10
37.5478
 20
2.9381
 30
0.0
 10
37.5478
 20
2.9381
 30
0.0
 10
37.5478
 20
2.829
 30
0.0
 10
37.5478
 20
2.829
 30
0.0
 10
37.5478
 20
2.829
 30
0.0
 10
37.5478
 20
2.829
 30
0.0
 10
37.5478
 20
2.747
 30
0.0
 10
37.5478
 20
2.747
 30
0.0
 10
37.5478
 20
2.747
 30
0.0
 10
37.5478
 20
2.747
 30
0.0
 10
37.5478
 20
2.7197
 30
0.0
 10
37.5478
 20
2.7197
 30
0.0
 10
37.5478
 20
2.7197
 30
0.0
 10
37.5478
 20
2.7197
 30
0.0
 10
37.5478
 20
2.6925
 30
0.0
 10
37.5478
 20
2.6925
 30
0.0
  0
SPLINE
  5
C1
330
1F
100
AcDbEntity
  8
LC-003-003-----0
370
    35
100
AcDbSpline
210
0.0
220
0.0
230
1.0
 70
    24
 71
     3
 72
    36
 73
    32
 74
     0
 42
0.0000000001
 43
0.0000000001
 40
0.0
 40
0.0
 40
0.0
 40
0.0
 40
0.125
 40
0.125
 40
0.125
 40
0.125
 40
0.25
 40
0.25
 40
0.25
 40
0.25
 40
0.375
 40
0.375
 40
0.375
 40
0.375
 40
0.5
 40
0.5
 40
0.5
 40
0.5
 40
0.625
 40
0.625
 40
0.625
 40
0.625
 40
0.75
 40
0.75
 40
0.75
 40
0.75
 40
0.875
 40
0.875
 40
0.875
 40
0.875
 40
1.0
 40
1.0
 40
1.0
 40
1.0
 10
53.02370000000001
 20
3.484
 30
0.0
 10
53.02370000000001
 20
3.484
 30
0.0
 10
53.02370000000001
 20
3.3203
 30
0.0
 10
53.02370000000001
 20
3.3203
 30
0.0
 10
53.02370000000001
 20
3.3203
 30
0.0
 10
53.02370000000001
 20
3.3203
 30
0.0
 10
53.02370000000001
 20
3.1838
 30
0.0
 10
53.02370000000001
 20
3.1838
 30
0.0
 10
53.02370000000001
 20
3.1838
 30
0.0
 10
53.02370000000001
 20
3.1838
 30
0.0
 10
53.02370000000001
 20
3.0473
 30
0.0
 10
53.02370000000001
 20
3.0473
 30
0.0
 10
53.02370000000001
 20
3.0473
 30
0.0
 10
53.02370000000001
 20
3.0473
 30
0.0
 10
53.02370000000001
 20
2.9381
 30
0.0
 10
53.02370000000001
 20
2.9381
 30
0.0
 10
53.02370000000001
 20
2.9381
 30
0.0
 10
53.02370000000001
 20
2.9381
 30
0.0
 10
53.02370000000001
 20
2.829
 30
0.0
 10
53.02370000000001
 20
2.829
 30
0.0
 10
53.02370000000001
 20
2.829
 30
0.0
 10
53.02370000000001
 20
2.829
 30
0.0
 10
53.02370000000001
 20
2.747
 30
0.0
 10
53.02370000000001
 20
2.747
 30
0.0
 10
53.02370000000001
 20
2.747
 30
0.0
 10
53.02370000000001
 20
2.747
 30
0.0
 10
53.02370000000001
 20
2.7197
 30
0.0
 10
53.02370000000001
 20
2.7197
 30
0.0
 10
53.02370000000001
 20
2.7197
 30
0.0
 10
53.02370000000001
 20
2.7197
 30
0.0
 10
53.02370000000001
 20
2.6925
 30
0.0
 10
53.02370000000001
 20
2.6925
 30
0.0
  0
SPLINE
  5
C2
330
1F
100
AcDbEntity
  8
LC-003-003-----0
370
    35
100
AcDbSpline
210
0.0
220
0.0
230
1.0
 70
    24
 71
     3
 72
    52
 73
    48
 74
     0
 42
0.0000000001
 43
0.0000000001
 40
0.0
 40
0.0
 40
0.0
 40
0.0
 40
0.0833333333333333
 40
0.0833333333333333
 40
0.0833333333333333
 40
0.0833333333333333
 40
0.1666666666666667
 40
0.1666666666666667
 40
0.1666666666666667
 40
0.1666666666666667
 40
0.25
 40
0.25
 40
0.25
 40
0.25
 40
0.3333333333333333
 40
0.3333333333333333
 40
0.3333333333333333
 40
0.3333333333333333
 40
0.4166666666666666
 40
0.4166666666666666
 40
0.4166666666666666
 40
0.4166666666666666
 40
0.4999999999999999
 40
0.4999999999999999
 40
0.4999999999999999
 40
0.4999999999999999
 40
0.5833333333333333
 40
0.5833333333333333
 40
0.5833333333333333
 40
0.5833333333333333
 40
0.6666666666666666
 40
0.6666666666666666
 40
0.6666666666666666
 40
0.6666666666666666
 40
0.75
 40
0.75
 40
0.75
 40
0.75
 40
0.8333333333333334
 40
0.8333333333333334
 40
0.8333333333333334
 40
0.8333333333333334
 40
0.9166666666666667
 40
0.9166666666666667
 40
0.9166666666666667
 40
0.9166666666666667
 40
1.0
 40
1.0
 40
1.0
 40
1.0
 10
37.5478
 20
41.396
 30
0.0
 10
37.5478
 20
41.396
 30
0.0
 10
37.5478
 20
40.87730000000001
 30
0.0
 10
37.5478
 20
40.87730000000001
 30
0.0
 10
37.5478
 20
40.87730000000001
 30
0.0
 10
37.5478
 20
40.87730000000001
 30
0.0
 10
37.5478
 20
40.386
 30
0.0
 10
37.5478
 20
40.386
 30
0.0
 10
37.5478
 20
40.386
 30
0.0
 10
37.5478
 20
40.386
 30
0.0
 10
37.5478
 20
39.8947
 30
0.0
 10
37.5478
 20
39.8947
 30
0.0
 10
37.5478
 20
39.8947
 30
0.0
 10
37.5478
 20
39.8947
 30
0.0
 10
37.5478
 20
39.458
 30
0.0
 10
37.5478
 20
39.458
 30
0.0
 10
37.5478
 20
39.458
 30
0.0
 10
37.5478
 20
39.458
 30
0.0
 10
37.5478
 20
39.0213
 30
0.0
 10
37.5478
 20
39.0213
 30
0.0
 10
37.5478
 20
39.0213
 30
0.0
 10
37.5478
 20
39.0213
 30
0.0
 10
37.5478
 20
38.6392
 30
0.0
 10
37.5478
 20
38.6392
 30
0.0
 10
37.5478
 20
38.6392
 30
0.0
 10
37.5478
 20
38.6392
 30
0.0
 10
37.5478
 20
38.3117
 30
0.0
 10
37.5478
 20
38.3117
 30
0.0
 10
37.5478
 20
38.3117
 30
0.0
 10
37.5478
 20
38.3117
 30
0.0
 10
37.5478
 20
38.0387
 30
0.0
 10
37.5478
 20
38.0387
 30
0.0
 10
37.5478
 20
38.0387
 30
0.0
 10
37.5478
 20
38.0387
 30
0.0
 10
37.5478
 20
37.8204
 30
0.0
 10
37.5478
 20
37.8204
 30
0.0
 10
37.5478
 20
37.8204
 30
0.0
 10
37.5478
 20
37.8204
 30
0.0
 10
37.5478
 20
37.65660000000001
 30
0.0
 10
37.5478
 20
37.65660000000001
 30
0.0
 10
37.5478
 20
37.65660000000001
 30
0.0
 10
37.5478
 20
37.65660000000001
 30
0.0
 10
37.5478
 20
37.5474
 30
0.0
 10
37.5478
 20
37.5474
 30
0.0
 10
37.5478
 20
37.5474
 30
0.0
 10
37.5478
 20
37.5474
 30
0.0
 10
37.5478
 20
37.5201
 30
0.0
 10
37.5478
 20
37.5201
 30
0.0
  0
SPLINE
  5
C3
330
1F
100
AcDbEntity
  8
LC-003-003-----0
370
    35
100
AcDbSpline
210
0.0
220
0.0
230
1.0
 70
    24
 71
     3
 72
    52
 73
    48
 74
     0
 42
0.0000000001
 43
0.0000000001
 40
0.0
 40
0.0
 40
0.0
 40
0.0
 40
0.0833333333333333
 40
0.0833333333333333
 40
0.0833333333333333
 40
0.0833333333333333
 40
0.1666666666666667
 40
0.1666666666666667
 40
0.1666666666666667
 40
0.1666666666666667
 40
0.25
 40
0.25
 40
0.25
 40
0.25
 40
0.3333333333333333
 40
0.3333333333333333
 40
0.3333333333333333
 40
0.3333333333333333
 40
0.4166666666666666
 40
0.4166666666666666
 40
0.4166666666666666
 40
0.4166666666666666
 40
0.4999999999999999
 40
0.4999999999999999
 40
0.4999999999999999
 40
0.4999999999999999
 40
0.5833333333333333
 40
0.5833333333333333
 40
0.5833333333333333
 40
0.5833333333333333
 40
0.6666666666666666
 40
0.6666666666666666
 40
0.6666666666666666
 40
0.6666666666666666
 40
0.75
 40
0.75
 40
0.75
 40
0.75
 40
0.8333333333333334
 40
0.8333333333333334
 40
0.8333333333333334
 40
0.8333333333333334
 40
0.9166666666666667
 40
0.9166666666666667
 40
0.9166666666666667
 40
0.9166666666666667
 40
1.0
 40
1.0
 40
1.0
 40
1.0
 10
53.02370000000001
 20
41.396
 30
0.0
 10
53.02370000000001
 20
41.396
 30
0.0
 10
53.02370000000001
 20
40.87730000000001
 30
0.0
 10
53.02370000000001
 20
40.87730000000001
 30
0.0
 10
53.02370000000001
 20
40.87730000000001
 30
0.0
 10
53.02370000000001
 20
40.87730000000001
 30
0.0
 10
53.02370000000001
 20
40.386
 30
0.0
 10
53.02370000000001
 20
40.386
 30
0.0
 10
53.02370000000001
 20
40.386
 30
0.0
 10
53.02370000000001
 20
40.386
 30
0.0
 10
53.02370000000001
 20
39.8947
 30
0.0
 10
53.02370000000001
 20
39.8947
 30
0.0
 10
53.02370000000001
 20
39.8947
 30
0.0
 10
53.02370000000001
 20
39.8947
 30
0.0
 10
53.02370000000001
 20
39.458
 30
0.0
 10
53.02370000000001
 20
39.458
 30
0.0
 10
53.02370000000001
 20
39.458
 30
0.0
 10
53.02370000000001
 20
39.458
 30
0.0
 10
53.02370000000001
 20
39.0213
 30
0.0
 10
53.02370000000001
 20
39.0213
 30
0.0
 10
53.02370000000001
 20
39.0213
 30
0.0
 10
53.02370000000001
 20
39.0213
 30
0.0
 10
53.02370000000001
 20
38.6392
 30
0.0
 10
53.02370000000001
 20
38.6392
 30
0.0
 10
53.02370000000001
 20
38.6392
 30
0.0
 10
53.02370000000001
 20
38.6392
 30
0.0
 10
53.02370000000001
 20
38.3117
 30
0.0
 10
53.02370000000001
 20
38.3117
 30
0.0
 10
53.02370000000001
 20
38.3117
 30
0.0
 10
53.02370000000001
 20
38.3117
 30
0.0
 10
53.02370000000001
 20
38.0387
 30
0.0
 10
53.02370000000001
 20
38.0387
 30
0.0
 10
53.02370000000001
 20
38.0387
 30
0.0
 10
53.02370000000001
 20
38.0387
 30
0.0
 10
53.02370000000001
 20
37.8204
 30
0.0
 10
53.02370000000001
 20
37.8204
 30
0.0
 10
53.02370000000001
 20
37.8204
 30
0.0
 10
53.02370000000001
 20
37.8204
 30
0.0
 10
53.02370000000001
 20
37.65660000000001
 30
0.0
 10
53.02370000000001
 20
37.65660000000001
 30
0.0
 10
53.02370000000001
 20
37.65660000000001
 30
0.0
 10
53.02370000000001
 20
37.65660000000001
 30
0.0
 10
53.02370000000001
 20
37.5474
 30
0.0
 10
53.02370000000001
 20
37.5474
 30
0.0
 10
53.02370000000001
 20
37.5474
 30
0.0
 10
53.02370000000001
 20
37.5474
 30
0.0
 10
53.02370000000001
 20
37.5201
 30
0.0
 10
53.02370000000001
 20
37.5201
 30
0.0
  0
SPLINE
  5
C4
330
1F
100
AcDbEntity
  8
LC-003-003-----0
370
    35
100
AcDbSpline
210
0.0
220
0.0
230
1.0
 70
    24
 71
     3
 72
     8
 73
     4
 74
     0
 42
0.0000000001
 43
0.0000000001
 40
0.0
 40
0.0
 40
0.0
 40
0.0
 40
1.0
 40
1.0
 40
1.0
 40
1.0
 10
53.02370000000001
 20
52.996
 30
0.0
 10
53.02370000000001
 20
52.996
 30
0.0
 10
37.5478
 20
52.996
 30
0.0
 10
37.5478
 20
52.996
 30
0.0
  0
SPLINE
  5
C5
330
1F
100
AcDbEntity
  8
LC-003-003-----0
370
    35
100
AcDbSpline
210
0.0
220
0.0
230
1.0
 70
    24
 71
     3
 72
    36
 73
    32
 74
     0
 42
0.0000000001
 43
0.0000000001
 40
0.0
 40
0.0
 40
0.0
 40
0.0
 40
0.125
 40
0.125
 40
0.125
 40
0.125
 40
0.25
 40
0.25
 40
0.25
 40
0.25
 40
0.375
 40
0.375
 40
0.375
 40
0.375
 40
0.5
 40
0.5
 40
0.5
 40
0.5
 40
0.625
 40
0.625
 40
0.625
 40
0.625
 40
0.75
 40
0.75
 40
0.75
 40
0.75
 40
0.875
 40
0.875
 40
0.875
 40
0.875
 40
1.0
 40
1.0
 40
1.0
 40
1.0
 10
37.5478
 20
52.996
 30
0.0
 10
37.5478
 20
52.996
 30
0.0
 10
37.5478
 20
52.96870000000001
 30
0.0
 10
37.5478
 20
52.96870000000001
 30
0.0
 10
37.5478
 20
52.96870000000001
 30
0.0
 10
37.5478
 20
52.96870000000001
 30
0.0
 10
37.5478
 20
52.8869
 30
0.0
 10
37.5478
 20
52.8869
 30
0.0
 10
37.5478
 20
52.8869
 30
0.0
 10
37.5478
 20
52.8869
 30
0.0
 10
37.5478
 20
52.7231
 30
0.0
 10
37.5478
 20
52.7231
 30
0.0
 10
37.5478
 20
52.7231
 30
0.0
 10
37.5478
 20
52.7231
 30
0.0
 10
37.5478
 20
52.532
 30
0.0
 10
37.5478
 20
52.532
 30
0.0
 10
37.5478
 20
52.532
 30
0.0
 10
37.5478
 20
52.532
 30
0.0
 10
37.5478
 20
52.3137
 30
0.0
 10
37.5478
 20
52.3137
 30
0.0
 10
37.5478
 20
52.3137
 30
0.0
 10
37.5478
 20
52.3137
 30
0.0
 10
37.5478
 20
52.0407
 30
0.0
 10
37.5478
 20
52.0407
 30
0.0
 10
37.5478
 20
52.0407
 30
0.0
 10
37.5478
 20
52.0407
 30
0.0
 10
37.5478
 20
51.7405
 30
0.0
 10
37.5478
 20
51.7405
 30
0.0
 10
37.5478
 20
51.7405
 30
0.0
 10
37.5478
 20
51.7405
 30
0.0
 10
37.5478
 20
51.4403
 30
0.0
 10
37.5478
 20
51.4403
 30
0.0
  0
SPLINE
  5
C6
330
1F
100
AcDbEntity
  8
LC-003-003-----0
370
    35
100
AcDbSpline
210
0.0
220
0.0
230
1.0
 70
    24
 71
     3
 72
    36
 73
    32
 74
     0
 42
0.0000000001
 43
0.0000000001
 40
0.0
 40
0.0
 40
0.0
 40
0.0
 40
0.125
 40
0.125
 40
0.125
 40
0.125
 40
0.25
 40
0.25
 40
0.25
 40
0.25
 40
0.375
 40
0.375
 40
0.375
 40
0.375
 40
0.5
 40
0.5
 40
0.5
 40
0.5
 40
0.625
 40
0.625
 40
0.625
 40
0.625
 40
0.75
 40
0.75
 40
0.75
 40
0.75
 40
0.875
 40
0.875
 40
0.875
 40
0.875
 40
1.0
 40
1.0
 40
1.0
 40
1.0
 10
53.02370000000001
 20
52.996
 30
0.0
 10
53.02370000000001
 20
52.996
 30
0.0
 10
53.02370000000001
 20
52.96870000000001
 30
0.0
 10
53.02370000000001
 20
52.96870000000001
 30
0.0
 10
53.02370000000001
 20
52.96870000000001
 30
0.0
 10
53.02370000000001
 20
52.96870000000001
 30
0.0
 10
53.02370000000001
 20
52.8869
 30
0.0
 10
53.02370000000001
 20
52.8869
 30
0.0
 10
53.02370000000001
 20
52.8869
 30
0.0
 10
53.02370000000001
 20
52.8869
 30
0.0
 10
53.02370000000001
 20
52.7231
 30
0.0
 10
53.02370000000001
 20
52.7231
 30
0.0
 10
53.02370000000001
 20
52.7231
 30
0.0
 10
53.02370000000001
 20
52.7231
 30
0.0
 10
53.02370000000001
 20
52.532
 30
0.0
 10
53.02370000000001
 20
52.532
 30
0.0
 10
53.02370000000001
 20
52.532
 30
0.0
 10
53.02370000000001
 20
52.532
 30
0.0
 10
53.02370000000001
 20
52.3137
 30
0.0
 10
53.02370000000001
 20
52.3137
 30
0.0
 10
53.02370000000001
 20
52.3137
 30
0.0
 10
53.02370000000001
 20
52.3137
 30
0.0
 10
53.02370000000001
 20
52.0407
 30
0.0
 10
53.02370000000001
 20
52.0407
 30
0.0
 10
53.02370000000001
 20
52.0407
 30
0.0
 10
53.02370000000001
 20
52.0407
 30
0.0
 10
53.02370000000001
 20
51.7405
 30
0.0
 10
53.02370000000001
 20
51.7405
 30
0.0
 10
53.02370000000001
 20
51.7405
 30
0.0
 10
53.02370000000001
 20
51.7405
 30
0.0
 10
53.02370000000001
 20
51.4403
 30
0.0
 10
53.02370000000001
 20
51.4403
 30
0.0
  0
SPLINE
  5
C7
330
1F
100
AcDbEntity
  8
LC-003-003-----0
370
    35
100
AcDbSpline
210
0.0
220
0.0
230
1.0
 70
    24
 71
     3
 72
     8
 73
     4
 74
     0
 42
0.0000000001
 43
0.0000000001
 40
0.0
 40
0.0
 40
0.0
 40
0.0
 40
1.0
 40
1.0
 40
1.0
 40
1.0
 10
37.5478
 20
51.4403
 30
0.0
 10
37.5478
 20
51.4403
 30
0.0
 10
37.5478
 20
41.396
 30
0.0
 10
37.5478
 20
41.396
 30
0.0
  0
SPLINE
  5
C8
330
1F
100
AcDbEntity
  8
LC-003-003-----0
370
    35
100
AcDbSpline
210
0.0
220
0.0
230
1.0
 70
    24
 71
     3
 72
     8
 73
     4
 74
     0
 42
0.0000000001
 43
0.0000000001
 40
0.0
 40
0.0
 40
0.0
 40
0.0
 40
1.0
 40
1.0
 40
1.0
 40
1.0
 10
53.02370000000001
 20
51.4403
 30
0.0
 10
53.02370000000001
 20
51.4403
 30
0.0
 10
53.02370000000001
 20
41.396
 30
0.0
 10
53.02370000000001
 20
41.396
 30
0.0
  0
ENDSEC
  0
SECTION
  2
OBJECTS
  0
DICTIONARY
  5
C
330
0
100
AcDbDictionary
281
     1
  3
ACAD_GROUP
350
D
  3
ACAD_LAYOUT
350
1A
  3
ACAD_MLINESTYLE
350
17
  3
ACAD_PLOTSETTINGS
350
19
  3
ACAD_PLOTSTYLENAME
350
E
  0
DICTIONARY
  5
D
102
{ACAD_REACTORS
330
C
102
}
330
C
100
AcDbDictionary
281
     1
  0
DICTIONARY
  5
1A
102
{ACAD_REACTORS
330
C
102
}
330
C
100
AcDbDictionary
281
     1
  3
Layout1
350
1E
  3
Layout2
350
26
  3
Model
350
22
  0
DICTIONARY
  5
17
102
{ACAD_REACTORS
330
C
102
}
330
C
100
AcDbDictionary
281
     1
  3
Standard
350
18
  0
DICTIONARY
  5
19
102
{ACAD_REACTORS
330
C
102
}
330
C
100
AcDbDictionary
281
     1
  0
ACDBDICTIONARYWDFLT
  5
E
102
{ACAD_REACTORS
330
C
102
}
330
C
100
AcDbDictionary
281
     1
  3
Normal
350
F
100
AcDbDictionaryWithDefault
340
F
  0
LAYOUT
  5
1E
102
{ACAD_REACTORS
330
1A
102
}
330
1A
100
AcDbPlotSettings
  1

  2

  4

  6

 40
0.0
 41
0.0
 42
0.0
 43
0.0
 44
0.0
 45
0.0
 46
0.0
 47
0.0
 48
0.0
 49
0.0
140
0.0
141
0.0
142
1.0
143
1.0
 70
   688
 72
     0
 73
     0
 74
     5
  7

 75
    16
 76
     0
 77
     2
 78
   300
147
1.0
148
0.0
149
0.0
100
AcDbLayout
  1
Layout1
 70
     1
 71
     1
 10
0.0
 20
0.0
 11
12.0
 21
9.0
 12
0.0
 22
0.0
 32
0.0
 14
1.000000000000000E+20
 24
1.000000000000000E+20
 34
1.000000000000000E+20
 15
-1.000000000000000E+20
 25
-1.000000000000000E+20
 35
-1.000000000000000E+20
146
0.0
 13
0.0
 23
0.0
 33
0.0
 16
1.0
 26
0.0
 36
0.0
 17
0.0
 27
1.0
 37
0.0
 76
     0
330
1B
  0
LAYOUT
  5
26
102
{ACAD_REACTORS
330
1A
102
}
330
1A
100
AcDbPlotSettings
  1

  2

  4

  6

 40
0.0
 41
0.0
 42
0.0
 43
0.0
 44
0.0
 45
0.0
 46
0.0
 47
0.0
 48
0.0
 49
0.0
140
0.0
141
0.0
142
1.0
143
1.0
 70
   688
 72
     0
 73
     0
 74
     5
  7

 75
    16
 76
     0
 77
     2
 78
   300
147
1.0
148
0.0
149
0.0
100
AcDbLayout
  1
Layout2
 70
     1
 71
     2
 10
0.0
 20
0.0
 11
0.0
 21
0.0
 12
0.0
 22
0.0
 32
0.0
 14
0.0
 24
0.0
 34
0.0
 15
0.0
 25
0.0
 35
0.0
146
0.0
 13
0.0
 23
0.0
 33
0.0
 16
1.0
 26
0.0
 36
0.0
 17
0.0
 27
1.0
 37
0.0
 76
     0
330
23
  0
LAYOUT
  5
22
102
{ACAD_REACTORS
330
1A
102
}
330
1A
100
AcDbPlotSettings
  1

  2

  4

  6

 40
0.0
 41
0.0
 42
0.0
 43
0.0
 44
0.0
 45
0.0
 46
0.0
 47
0.0
 48
0.0
 49
0.0
140
0.0
141
0.0
142
1.0
143
1.0
 70
  1712
 72
     0
 73
     0
 74
     0
  7

 75
     0
 76
     0
 77
     2
 78
   300
147
1.0
148
0.0
149
0.0
100
AcDbLayout
  1
Model
 70
     1
 71
     0
 10
0.0
 20
0.0
 11
0.0
 21
0.0
 12
0.0
 22
0.0
 32
0.0
 14
-52.1981
 24
2.5674
 34
0.0
 15
71.2702
 25
76.2805
 35
0.0
146
0.0
 13
0.0
 23
0.0
 33
0.0
 16
1.0
 26
0.0
 36
0.0
 17
0.0
 27
1.0
 37
0.0
 76
     0
330
1F
  0
MLINESTYLE
  5
18
102
{ACAD_REACTORS
330
17
102
}
330
17
100
AcDbMlineStyle
  2
Standard
 70
     0
  3

 62
   256
 51
90.0
 52
90.0
 71
     2
 49
0.5
 62
   256
  6
BYLAYER
 49
-0.5
 62
   256
  6
BYLAYER
  0
ACDBPLACEHOLDER
  5
F
102
{ACAD_REACTORS
330
E
102
}
330
E
  0
ENDSEC
  0
EOF
