  0
SECTION
  2
HEADER
  9
$ACADVER
  1
AC1018
  9
$ACADMAINTVER
 70
     0
  9
$DWGCODEPAGE
  3
ANSI_1252
  9
$INSBASE
 10
0.0
 20
0.0
 30
0.0
  9
$EXTMIN
 10
-39.8943
 20
-49.7131
 30
0.0
  9
$EXTMAX
 10
39.8043
 20
49.588
 30
0.0
  9
$LIMMIN
 10
0.0
 20
0.0
  9
$LIMMAX
 10
12.0
 20
9.0
  9
$ORTHOMODE
 70
     0
  9
$REGENMODE
 70
     1
  9
$FILLMODE
 70
     1
  9
$QTEXTMODE
 70
     0
  9
$MIRRTEXT
 70
     1
  9
$LTSCALE
 40
1.0
  9
$ATTMODE
 70
     1
  9
$TEXTSIZE
 40
0.2
  9
$TRACEWID
 40
0.05
  9
$TEXTSTYLE
  7
Standard
  9
$CLAYER
  8
0
  9
$CELTYPE
  6
ByLayer
  9
$CECOLOR
 62
   256
  9
$CELTSCALE
 40
1.0
  9
$DISPSILH
 70
     0
  9
$DIMSCALE
 40
1.0
  9
$DIMASZ
 40
0.18
  9
$DIMEXO
 40
0.0625
  9
$DIMDLI
 40
0.38
  9
$DIMRND
 40
0.0
  9
$DIMDLE
 40
0.0
  9
$DIMEXE
 40
0.18
  9
$DIMTP
 40
0.0
  9
$DIMTM
 40
0.0
  9
$DIMTXT
 40
0.18
  9
$DIMCEN
 40
0.09
  9
$DIMTSZ
 40
0.0
  9
$DIMTOL
 70
     0
  9
$DIMLIM
 70
     0
  9
$DIMTIH
 70
     1
  9
$DIMTOH
 70
     1
  9
$DIMSE1
 70
     0
  9
$DIMSE2
 70
     0
  9
$DIMTAD
 70
     0
  9
$DIMZIN
 70
     0
  9
$DIMBLK
  1

  9
$DIMASO
 70
     1
  9
$DIMSHO
 70
     1
  9
$DIMPOST
  1

  9
$DIMAPOST
  1

  9
$DIMALT
 70
     0
  9
$DIMALTD
 70
     2
  9
$DIMALTF
 40
25.4
  9
$DIMLFAC
 40
1.0
  9
$DIMTOFL
 70
     0
  9
$DIMTVP
 40
0.0
  9
$DIMTIX
 70
     0
  9
$DIMSOXD
 70
     0
  9
$DIMSAH
 70
     0
  9
$DIMBLK1
  1

  9
$DIMBLK2
  1

  9
$DIMSTYLE
  2
Standard
  9
$DIMCLRD
 70
     0
  9
$DIMCLRE
 70
     0
  9
$DIMCLRT
 70
     0
  9
$DIMTFAC
 40
1.0
  9
$DIMGAP
 40
0.09
  9
$DIMJUST
 70
     0
  9
$DIMSD1
 70
     0
  9
$DIMSD2
 70
     0
  9
$DIMTOLJ
 70
     1
  9
$DIMTZIN
 70
     0
  9
$DIMALTZ
 70
     0
  9
$DIMALTTZ
 70
     0
  9
$DIMUPT
 70
     0
  9
$DIMDEC
 70
     4
  9
$DIMTDEC
 70
     4
  9
$DIMALTU
 70
     2
  9
$DIMALTTD
 70
     2
  9
$DIMTXSTY
  7
Standard
  9
$DIMAUNIT
 70
     0
  9
$DIMADEC
 70
     0
  9
$DIMALTRND
 40
0.0
  9
$DIMAZIN
 70
     0
  9
$DIMDSEP
 70
    46
  9
$DIMATFIT
 70
     3
  9
$DIMFRAC
 70
     0
  9
$DIMLDRBLK
  1

  9
$DIMLUNIT
 70
     2
  9
$DIMLWD
 70
    -2
  9
$DIMLWE
 70
    -2
  9
$DIMTMOVE
 70
     0
  9
$LUNITS
 70
     2
  9
$LUPREC
 70
     4
  9
$SKETCHINC
 40
0.1
  9
$FILLETRAD
 40
0.5
  9
$AUNITS
 70
     0
  9
$AUPREC
 70
     0
  9
$MENU
  1
.
  9
$ELEVATION
 40
0.0
  9
$PELEVATION
 40
0.0
  9
$THICKNESS
 40
0.0
  9
$LIMCHECK
 70
     0
  9
$CHAMFERA
 40
0.5
  9
$CHAMFERB
 40
0.5
  9
$CHAMFERC
 40
1.0
  9
$CHAMFERD
 40
0.0
  9
$SKPOLY
 70
     0
  9
$TDCREATE
 40
2454985.30162515
  9
$TDUCREATE
 40
2454985.259958484
  9
$TDUPDATE
 40
2454985.343291829
  9
$TDUUPDATE
 40
2454985.259958495
  9
$TDINDWG
 40
0.0000000116
  9
$TDUSRTIMER
 40
0.0000000116
  9
$USRTIMER
 70
     1
  9
$ANGBASE
 50
0.0
  9
$ANGDIR
 70
     0
  9
$PDMODE
 70
     0
  9
$PDSIZE
 40
0.0
  9
$PLINEWID
 40
0.0
  9
$SPLFRAME
 70
     0
  9
$SPLINETYPE
 70
     6
  9
$SPLINESEGS
 70
     8
  9
$HANDSEED
  5
ED
  9
$SURFTAB1
 70
     6
  9
$SURFTAB2
 70
     6
  9
$SURFTYPE
 70
     6
  9
$SURFU
 70
     6
  9
$SURFV
 70
     6
  9
$UCSBASE
  2

  9
$UCSNAME
  2

  9
$UCSORG
 10
0.0
 20
0.0
 30
0.0
  9
$UCSXDIR
 10
1.0
 20
0.0
 30
0.0
  9
$UCSYDIR
 10
0.0
 20
1.0
 30
0.0
  9
$UCSORTHOREF
  2

  9
$UCSORTHOVIEW
 70
     0
  9
$UCSORGTOP
 10
0.0
 20
0.0
 30
0.0
  9
$UCSORGBOTTOM
 10
0.0
 20
0.0
 30
0.0
  9
$UCSORGLEFT
 10
0.0
 20
0.0
 30
0.0
  9
$UCSORGRIGHT
 10
0.0
 20
0.0
 30
0.0
  9
$UCSORGFRONT
 10
0.0
 20
0.0
 30
0.0
  9
$UCSORGBACK
 10
0.0
 20
0.0
 30
0.0
  9
$PUCSBASE
  2

  9
$PUCSNAME
  2

  9
$PUCSORG
 10
0.0
 20
0.0
 30
0.0
  9
$PUCSXDIR
 10
1.0
 20
0.0
 30
0.0
  9
$PUCSYDIR
 10
0.0
 20
1.0
 30
0.0
  9
$PUCSORTHOREF
  2

  9
$PUCSORTHOVIEW
 70
     0
  9
$PUCSORGTOP
 10
0.0
 20
0.0
 30
0.0
  9
$PUCSORGBOTTOM
 10
0.0
 20
0.0
 30
0.0
  9
$PUCSORGLEFT
 10
0.0
 20
0.0
 30
0.0
  9
$PUCSORGRIGHT
 10
0.0
 20
0.0
 30
0.0
  9
$PUCSORGFRONT
 10
0.0
 20
0.0
 30
0.0
  9
$PUCSORGBACK
 10
0.0
 20
0.0
 30
0.0
  9
$USERI1
 70
     0
  9
$USERI2
 70
     0
  9
$USERI3
 70
     0
  9
$USERI4
 70
     0
  9
$USERI5
 70
     0
  9
$USERR1
 40
0.0
  9
$USERR2
 40
0.0
  9
$USERR3
 40
0.0
  9
$USERR4
 40
0.0
  9
$USERR5
 40
0.0
  9
$WORLDVIEW
 70
     1
  9
$SHADEDGE
 70
     3
  9
$SHADEDIF
 70
    70
  9
$TILEMODE
 70
     1
  9
$MAXACTVP
 70
    64
  9
$PINSBASE
 10
0.0
 20
0.0
 30
0.0
  9
$PLIMCHECK
 70
     0
  9
$PEXTMIN
 10
1.000000000000000E+20
 20
1.000000000000000E+20
 30
1.000000000000000E+20
  9
$PEXTMAX
 10
-1.000000000000000E+20
 20
-1.000000000000000E+20
 30
-1.000000000000000E+20
  9
$PLIMMIN
 10
0.0
 20
0.0
  9
$PLIMMAX
 10
12.0
 20
9.0
  9
$UNITMODE
 70
     0
  9
$VISRETAIN
 70
     1
  9
$PLINEGEN
 70
     0
  9
$PSLTSCALE
 70
     1
  9
$TREEDEPTH
 70
  3020
  9
$CMLSTYLE
  2
Standard
  9
$CMLJUST
 70
     0
  9
$CMLSCALE
 40
1.0
  9
$PROXYGRAPHICS
 70
     1
  9
$MEASUREMENT
 70
     0
  9
$CELWEIGHT
370
    -1
  9
$ENDCAPS
280
     0
  9
$JOINSTYLE
280
     0
  9
$LWDISPLAY
290
     0
  9
$INSUNITS
 70
     4
  9
$HYPERLINKBASE
  1

  9
$STYLESHEET
  1

  9
$XEDIT
290
     1
  9
$CEPSNTYPE
380
     0
  9
$PSTYLEMODE
290
     0
  9
$FINGERPRINTGUID
  2
{FAEB1C30-E019-11D5-929B-00C0DF256EC4}
  9
$VERSIONGUID
  2
{FAEB1C32-E019-11D5-929B-00C0DF256EC4}
  9
$EXTNAMES
290
     1
  9
$PSVPSCALE
 40
0.0
  9
$OLESTARTUP
290
     0
  9
$SORTENTS
280
   127
  9
$INDEXCTL
280
     0
  9
$HIDETEXT
280
     1
  9
$XCLIPFRAME
290
     0
  9
$HALOGAP
280
     0
  9
$OBSCOLOR
 70
   257
  9
$OBSLTYPE
280
     0
  9
$INTERSECTIONDISPLAY
280
     0
  9
$INTERSECTIONCOLOR
 70
   257
  9
$DIMASSOC
280
     2
  9
$PROJECTNAME
  1

  0
ENDSEC
  0
SECTION
  2
CLASSES
  0
CLASS
  1
ACDBDICTIONARYWDFLT
  2
AcDbDictionaryWithDefault
  3
ObjectDBX Classes
 90
        0
 91
        1
280
     0
281
     0
  0
ENDSEC
  0
SECTION
  2
TABLES
  0
TABLE
  2
VPORT
  5
8
330
0
100
AcDbSymbolTable
 70
     2
  0
VPORT
  5
29
330
8
100
AcDbSymbolTableRecord
100
AcDbViewportTableRecord
  2
*Active
 70
     0
 10
0.0
 20
0.0
 11
1.0
 21
1.0
 12
10.42990654205607
 22
4.5
 13
0.0
 23
0.0
 14
0.5
 24
0.5
 15
0.5
 25
0.5
 16
0.0
 26
0.0
 36
1.0
 17
0.0
 27
0.0
 37
0.0
 40
9.0
 41
1.972972972850329
 42
50.0
 43
0.0
 44
0.0
 50
0.0
 51
0.0
 71
     0
 72
   100
 73
     1
 74
     3
 75
     0
 76
     0
 77
     0
 78
     0
281
     0
 65
     1
110
0.0
120
0.0
130
0.0
111
1.0
121
0.0
131
0.0
112
0.0
122
1.0
132
0.0
 79
     0
146
0.0
  0
ENDTAB
  0
TABLE
  2
LTYPE
  5
5
330
0
100
AcDbSymbolTable
 70
     3
  0
LTYPE
  5
14
330
5
100
AcDbSymbolTableRecord
100
AcDbLinetypeTableRecord
  2
ByBlock
 70
     0
  3

 72
    65
 73
     0
 40
0.0
  0
LTYPE
  5
15
330
5
100
AcDbSymbolTableRecord
100
AcDbLinetypeTableRecord
  2
ByLayer
 70
     0
  3

 72
    65
 73
     0
 40
0.0
  0
LTYPE
  5
16
330
5
100
AcDbSymbolTableRecord
100
AcDbLinetypeTableRecord
  2
Continuous
 70
     0
  3
Solid line
 72
    65
 73
     0
 40
0.0
  0
LTYPE
  5
46
330
5
100
AcDbSymbolTableRecord
100
AcDbLinetypeTableRecord
  2
New Line1
 70
     0
  3

 72
    65
 73
     4
 40
2.4
 49
1.8
 74
     4
 75
     0
340
0
 46
1.0
 50
0.0
 44
0.0
 45
0.0
 49
-0.2
 74
     4
 75
     0
340
0
 46
1.0
 50
0.0
 44
0.0
 45
0.0
 49
0.2
 74
     4
 75
     0
340
0
 46
1.0
 50
0.0
 44
0.0
 45
0.0
 49
-0.2
 74
     4
 75
     0
340
0
 46
1.0
 50
0.0
 44
0.0
 45
0.0
  0
LTYPE
  5
48
330
5
100
AcDbSymbolTableRecord
100
AcDbLinetypeTableRecord
  2
New Line2
 70
     0
  3

 72
    65
 73
     4
 40
1.4
 49
0.8
 74
     4
 75
     0
340
0
 46
1.0
 50
0.0
 44
0.0
 45
0.0
 49
-0.2
 74
     4
 75
     0
340
0
 46
1.0
 50
0.0
 44
0.0
 45
0.0
 49
0.2
 74
     4
 75
     0
340
0
 46
1.0
 50
0.0
 44
0.0
 45
0.0
 49
-0.2
 74
     4
 75
     0
340
0
 46
1.0
 50
0.0
 44
0.0
 45
0.0
  0
ENDTAB
  0
TABLE
  2
LAYER
  5
2
330
0
100
AcDbSymbolTable
 70
     2
  0
LAYER
  5
10
330
2
100
AcDbSymbolTableRecord
100
AcDbLayerTableRecord
  2
0
 70
     0
 62
     7
  6
Continuous
370
    -3
390
F
  0
LAYER
  5
2B
330
2
100
AcDbSymbolTableRecord
100
AcDbLayerTableRecord
  2
Ebene 1
 70
     0
 62
     7
  6
Continuous
370
    -3
390
F
  0
ENDTAB
  0
TABLE
  2
STYLE
  5
3
330
0
100
AcDbSymbolTable
 70
     1
  0
STYLE
  5
11
330
3
100
AcDbSymbolTableRecord
100
AcDbTextStyleTableRecord
  2
Standard
 70
     0
 40
0.0
 41
1.0
 50
0.0
 71
     0
 42
0.2
  3
txt
  4

  0
ENDTAB
  0
TABLE
  2
VIEW
  5
6
330
0
100
AcDbSymbolTable
 70
     0
  0
ENDTAB
  0
TABLE
  2
UCS
  5
7
330
0
100
AcDbSymbolTable
 70
     0
  0
ENDTAB
  0
TABLE
  2
APPID
  5
9
330
0
100
AcDbSymbolTable
 70
     2
  0
APPID
  5
12
330
9
100
AcDbSymbolTableRecord
100
AcDbRegAppTableRecord
  2
ACAD
 70
     0
  0
APPID
  5
2A
330
9
100
AcDbSymbolTableRecord
100
AcDbRegAppTableRecord
  2
ODA
 70
     0
  0
ENDTAB
  0
TABLE
  2
DIMSTYLE
  5
A
330
0
100
AcDbSymbolTable
 70
     1
100
AcDbDimStyleTable
  0
DIMSTYLE
105
27
330
A
100
AcDbSymbolTableRecord
100
AcDbDimStyleTableRecord
  2
Standard
 70
     0
340
11
  0
ENDTAB
  0
TABLE
  2
BLOCK_RECORD
  5
1
330
0
100
AcDbSymbolTable
 70
     1
  0
BLOCK_RECORD
  5
1F
330
1
100
AcDbSymbolTableRecord
100
AcDbBlockTableRecord
  2
*Model_Space
340
22
  0
BLOCK_RECORD
  5
1B
330
1
100
AcDbSymbolTableRecord
100
AcDbBlockTableRecord
  2
*Paper_Space
340
1E
  0
BLOCK_RECORD
  5
23
330
1
100
AcDbSymbolTableRecord
100
AcDbBlockTableRecord
  2
*Paper_Space0
340
26
  0
ENDTAB
  0
ENDSEC
  0
SECTION
  2
BLOCKS
  0
BLOCK
  5
20
330
1F
100
AcDbEntity
  8
0
100
AcDbBlockBegin
  2
*Model_Space
 70
     0
 71
     0
 10
0.0
 20
0.0
 30
0.0
  3
*Model_Space
  1

  0
ENDBLK
  5
21
330
1F
100
AcDbEntity
  8
0
100
AcDbBlockEnd
  0
BLOCK
  5
1C
330
1B
100
AcDbEntity
 67
     1
  8
0
100
AcDbBlockBegin
  2
*Paper_Space
 70
     0
 71
     0
 10
0.0
 20
0.0
 30
0.0
  3
*Paper_Space
  1

  0
ENDBLK
  5
1D
330
1B
100
AcDbEntity
 67
     1
  8
0
100
AcDbBlockEnd
  0
BLOCK
  5
24
330
23
100
AcDbEntity
  8
0
100
AcDbBlockBegin
  2
*Paper_Space0
 70
     0
 71
     0
 10
0.0
 20
0.0
 30
0.0
  3
*Paper_Space0
  1

  0
ENDBLK
  5
25
330
23
100
AcDbEntity
  8
0
100
AcDbBlockEnd
  0
ENDSEC
  0
SECTION
  2
ENTITIES
  0
SPLINE
  5
2C
330
1F
100
AcDbEntity
  8
Ebene 1
 62
   250
370
    15
100
AcDbSpline
210
0.0
220
0.0
230
1.0
 70
    11
 71
     3
 72
    16
 73
    12
 74
     0
 42
0.0000000001
 43
0.0000000001
 40
0.0
 40
0.0
 40
0.0
 40
0.0
 40
0.3333333333333333
 40
0.3333333333333333
 40
0.3333333333333333
 40
0.3333333333333333
 40
0.6666666666666666
 40
0.6666666666666666
 40
0.6666666666666666
 40
0.6666666666666666
 40
1.0
 40
1.0
 40
1.0
 40
1.0
 10
18.5975
 20
-49.4793
 30
0.0
 10
18.5975
 20
-49.4793
 30
0.0
 10
17.9012
 20
-44.837
 30
0.0
 10
17.9012
 20
-44.837
 30
0.0
 10
17.9012
 20
-44.837
 30
0.0
 10
17.9012
 20
-44.837
 30
0.0
 10
19.2938
 20
-44.837
 30
0.0
 10
19.2938
 20
-44.837
 30
0.0
 10
19.2938
 20
-44.837
 30
0.0
 10
19.2938
 20
-44.837
 30
0.0
 10
18.5975
 20
-49.4793
 30
0.0
 10
18.5975
 20
-49.4793
 30
0.0
  0
SPLINE
  5
2D
330
1F
100
AcDbEntity
  8
Ebene 1
 62
   250
370
    15
100
AcDbSpline
210
0.0
220
0.0
230
1.0
 70
    11
 71
     3
 72
    16
 73
    12
 74
     0
 42
0.0000000001
 43
0.0000000001
 40
0.0
 40
0.0
 40
0.0
 40
0.0
 40
0.3333333333333333
 40
0.3333333333333333
 40
0.3333333333333333
 40
0.3333333333333333
 40
0.6666666666666666
 40
0.6666666666666666
 40
0.6666666666666666
 40
0.6666666666666666
 40
1.0
 40
1.0
 40
1.0
 40
1.0
 10
18.5975
 20
-29.7498
 30
0.0
 10
18.5975
 20
-29.7498
 30
0.0
 10
19.2938
 20
-34.392
 30
0.0
 10
19.2938
 20
-34.392
 30
0.0
 10
19.2938
 20
-34.392
 30
0.0
 10
19.2938
 20
-34.392
 30
0.0
 10
17.9012
 20
-34.392
 30
0.0
 10
17.9012
 20
-34.392
 30
0.0
 10
17.9012
 20
-34.392
 30
0.0
 10
17.9012
 20
-34.392
 30
0.0
 10
18.5975
 20
-29.7498
 30
0.0
 10
18.5975
 20
-29.7498
 30
0.0
  0
SPLINE
  5
2E
330
1F
100
AcDbEntity
  8
Ebene 1
 62
   250
370
    15
100
AcDbSpline
210
0.0
220
0.0
230
1.0
 70
    24
 71
     3
 72
     8
 73
     4
 74
     0
 42
0.0000000001
 43
0.0000000001
 40
0.0
 40
0.0
 40
0.0
 40
0.0
 40
1.0
 40
1.0
 40
1.0
 40
1.0
 10
18.5975
 20
-29.7498
 30
0.0
 10
18.5975
 20
-29.7498
 30
0.0
 10
18.5975
 20
-49.4793
 30
0.0
 10
18.5975
 20
-49.4793
 30
0.0
  0
SPLINE
  5
2F
330
1F
100
AcDbEntity
  8
Ebene 1
 62
   250
370
    15
100
AcDbSpline
210
0.0
220
0.0
230
1.0
 70
    24
 71
     3
 72
     8
 73
     4
 74
     0
 42
0.0000000001
 43
0.0000000001
 40
0.0
 40
0.0
 40
0.0
 40
0.0
 40
1.0
 40
1.0
 40
1.0
 40
1.0
 10
-6.251300000000001
 20
-49.4793
 30
0.0
 10
-6.251300000000001
 20
-49.4793
 30
0.0
 10
19.3714
 20
-49.4793
 30
0.0
 10
19.3714
 20
-49.4793
 30
0.0
  0
SPLINE
  5
30
330
1F
100
AcDbEntity
  8
Ebene 1
 62
   250
370
    15
100
AcDbSpline
210
0.0
220
0.0
230
1.0
 70
    24
 71
     3
 72
     8
 73
     4
 74
     0
 42
0.0000000001
 43
0.0000000001
 40
0.0
 40
0.0
 40
0.0
 40
0.0
 40
1.0
 40
1.0
 40
1.0
 40
1.0
 10
-6.251300000000001
 20
-29.7498
 30
0.0
 10
-6.251300000000001
 20
-29.7498
 30
0.0
 10
19.3714
 20
-29.7498
 30
0.0
 10
19.3714
 20
-29.7498
 30
0.0
  0
SPLINE
  5
31
330
1F
100
AcDbEntity
  8
Ebene 1
 62
   250
100
AcDbSpline
210
0.0
220
0.0
230
1.0
 70
    11
 71
     3
 72
    68
 73
    64
 74
     0
 42
0.0000000001
 43
0.0000000001
 40
0.0
 40
0.0
 40
0.0
 40
0.0
 40
0.0625
 40
0.0625
 40
0.0625
 40
0.0625
 40
0.125
 40
0.125
 40
0.125
 40
0.125
 40
0.1875
 40
0.1875
 40
0.1875
 40
0.1875
 40
0.25
 40
0.25
 40
0.25
 40
0.25
 40
0.3125
 40
0.3125
 40
0.3125
 40
0.3125
 40
0.375
 40
0.375
 40
0.375
 40
0.375
 40
0.4375
 40
0.4375
 40
0.4375
 40
0.4375
 40
0.5
 40
0.5
 40
0.5
 40
0.5
 40
0.5625
 40
0.5625
 40
0.5625
 40
0.5625
 40
0.625
 40
0.625
 40
0.625
 40
0.625
 40
0.6875
 40
0.6875
 40
0.6875
 40
0.6875
 40
0.75
 40
0.75
 40
0.75
 40
0.75
 40
0.8125
 40
0.8125
 40
0.8125
 40
0.8125
 40
0.875
 40
0.875
 40
0.875
 40
0.875
 40
0.9375
 40
0.9375
 40
0.9375
 40
0.9375
 40
1.0
 40
1.0
 40
1.0
 40
1.0
 10
-22.1211
 20
0.29
 30
0.0
 10
-22.414
 20
0.4502
 30
0.0
 10
-22.6325
 20
0.6557000000000001
 30
0.0
 10
-22.778
 20
0.9069
 30
0.0
 10
-22.778
 20
0.9069
 30
0.0
 10
-22.9236
 20
1.1562
 30
0.0
 10
-22.9963
 20
1.4255
 30
0.0
 10
-22.9963
 20
1.7148
 30
0.0
 10
-22.9963
 20
1.7148
 30
0.0
 10
-22.9963
 20
2.186
 30
0.0
 10
-22.8253
 20
2.6246
 30
0.0
 10
-22.4851
 20
3.0249
 30
0.0
 10
-22.4851
 20
3.0249
 30
0.0
 10
-22.0301
 20
3.569
 30
0.0
 10
-21.4133
 20
3.8419
 30
0.0
 10
-20.6345
 20
3.8419
 30
0.0
 10
-20.6345
 20
3.8419
 30
0.0
 10
-19.9485
 20
3.8419
 30
0.0
 10
-19.4081
 20
3.6563
 30
0.0
 10
-19.0132
 20
3.2888
 30
0.0
 10
-19.0132
 20
3.2888
 30
0.0
 10
-18.6201
 20
2.9212
 30
0.0
 10
-18.4218
 20
2.4718
 30
0.0
 10
-18.4218
 20
1.9386
 30
0.0
 10
-18.4218
 20
1.9386
 30
0.0
 10
-18.4218
 20
1.5583
 30
0.0
 10
-18.5291
 20
1.2144
 30
0.0
 10
-18.7421
 20
0.9087000000000001
 30
0.0
 10
-18.7421
 20
0.9087000000000001
 30
0.0
 10
-18.955
 20
0.603
 30
0.0
 10
-19.2898
 20
0.3592
 30
0.0
 10
-19.7447
 20
0.1791
 30
0.0
 10
-19.7447
 20
0.1791
 30
0.0
 10
-19.4317
 20
-0.0174
 30
0.0
 10
-19.2079
 20
-0.225
 30
0.0
 10
-19.0732
 20
-0.4451
 30
0.0
 10
-19.0732
 20
-0.4451
 30
0.0
 10
-18.8986
 20
-0.7326
 30
0.0
 10
-18.8112
 20
-1.0692
 30
0.0
 10
-18.8112
 20
-1.4532
 30
0.0
 10
-18.8112
 20
-1.4532
 30
0.0
 10
-18.8112
 20
-2.1519
 30
0.0
 10
-19.0587
 20
-2.776
 30
0.0
 10
-19.5555
 20
-3.3238
 30
0.0
 10
-19.5555
 20
-3.3238
 30
0.0
 10
-20.0504
 20
-3.8715
 30
0.0
 10
-20.7109
 20
-4.1444
 30
0.0
 10
-21.5352
 20
-4.1444
 30
0.0
 10
-21.5352
 20
-4.1444
 30
0.0
 10
-22.1939
 20
-4.1444
 30
0.0
 10
-22.7289
 20
-3.9424
 30
0.0
 10
-23.1456
 20
-3.5366
 30
0.0
 10
-23.1456
 20
-3.5366
 30
0.0
 10
-23.5604
 20
-3.1327
 30
0.0
 10
-23.7697
 20
-2.625
 30
0.0
 10
-23.7697
 20
-2.0172
 30
0.0
 10
-23.7697
 20
-2.0172
 30
0.0
 10
-23.7697
 20
-1.4459
 30
0.0
 10
-23.6223
 20
-0.9546
 30
0.0
 10
-23.3276
 20
-0.5433
 30
0.0
 10
-23.3276
 20
-0.5433
 30
0.0
 10
-23.0309
 20
-0.134
 30
0.0
 10
-22.6306
 20
0.1445
 30
0.0
 10
-22.1211
 20
0.29
 30
0.0
  0
SPLINE
  5
32
330
1F
100
AcDbEntity
  8
Ebene 1
 62
   250
100
AcDbSpline
210
0.0
220
0.0
230
1.0
 70
    11
 71
     3
 72
    40
 73
    36
 74
     0
 42
0.0000000001
 43
0.0000000001
 40
0.0
 40
0.0
 40
0.0
 40
0.0
 40
0.1111111111111111
 40
0.1111111111111111
 40
0.1111111111111111
 40
0.1111111111111111
 40
0.2222222222222222
 40
0.2222222222222222
 40
0.2222222222222222
 40
0.2222222222222222
 40
0.3333333333333333
 40
0.3333333333333333
 40
0.3333333333333333
 40
0.3333333333333333
 40
0.4444444444444444
 40
0.4444444444444444
 40
0.4444444444444444
 40
0.4444444444444444
 40
0.5555555555555556
 40
0.5555555555555556
 40
0.5555555555555556
 40
0.5555555555555556
 40
0.6666666666666667
 40
0.6666666666666667
 40
0.6666666666666667
 40
0.6666666666666667
 40
0.7777777777777779
 40
0.7777777777777779
 40
0.7777777777777779
 40
0.7777777777777779
 40
0.8888888888888891
 40
0.8888888888888891
 40
0.8888888888888891
 40
0.8888888888888891
 40
1.0
 40
1.0
 40
1.0
 40
1.0
 10
-22.0465
 20
1.6712
 30
0.0
 10
-22.0465
 20
1.3382
 30
0.0
 10
-21.9392
 20
1.0688
 30
0.0
 10
-21.7245
 20
0.8633000000000001
 30
0.0
 10
-21.7245
 20
0.8633000000000001
 30
0.0
 10
-21.5097
 20
0.6594
 30
0.0
 10
-21.2131
 20
0.5575
 30
0.0
 10
-20.8365
 20
0.5575
 30
0.0
 10
-20.8365
 20
0.5575
 30
0.0
 10
-20.3961
 20
0.5575
 30
0.0
 10
-20.0376
 20
0.6922
 30
0.0
 10
-19.7629
 20
0.9597
 30
0.0
 10
-19.7629
 20
0.9597
 30
0.0
 10
-19.4881
 20
1.2271
 30
0.0
 10
-19.3498
 20
1.5583
 30
0.0
 10
-19.3498
 20
1.9477
 30
0.0
 10
-19.3498
 20
1.9477
 30
0.0
 10
-19.3498
 20
2.2789
 30
0.0
 10
-19.4572
 20
2.5482
 30
0.0
 10
-19.6719
 20
2.7556
 30
0.0
 10
-19.6719
 20
2.7556
 30
0.0
 10
-19.8866
 20
2.9649
 30
0.0
 10
-20.1832
 20
3.0686
 30
0.0
 10
-20.5599
 20
3.0686
 30
0.0
 10
-20.5599
 20
3.0686
 30
0.0
 10
-20.8437
 20
3.0686
 30
0.0
 10
-21.1058
 20
3.0031
 30
0.0
 10
-21.3442
 20
2.8702
 30
0.0
 10
-21.3442
 20
2.8702
 30
0.0
 10
-21.5825
 20
2.7392
 30
0.0
 10
-21.759
 20
2.5609
 30
0.0
 10
-21.8736
 20
2.3353
 30
0.0
 10
-21.8736
 20
2.3353
 30
0.0
 10
-21.9901
 20
2.1097
 30
0.0
 10
-22.0465
 20
1.8876
 30
0.0
 10
-22.0465
 20
1.6712
 30
0.0
  0
SPLINE
  5
33
330
1F
100
AcDbEntity
  8
Ebene 1
 62
   250
100
AcDbSpline
210
0.0
220
0.0
230
1.0
 70
    11
 71
     3
 72
    40
 73
    36
 74
     0
 42
0.0000000001
 43
0.0000000001
 40
0.0
 40
0.0
 40
0.0
 40
0.0
 40
0.1111111111111111
 40
0.1111111111111111
 40
0.1111111111111111
 40
0.1111111111111111
 40
0.2222222222222222
 40
0.2222222222222222
 40
0.2222222222222222
 40
0.2222222222222222
 40
0.3333333333333333
 40
0.3333333333333333
 40
0.3333333333333333
 40
0.3333333333333333
 40
0.4444444444444444
 40
0.4444444444444444
 40
0.4444444444444444
 40
0.4444444444444444
 40
0.5555555555555556
 40
0.5555555555555556
 40
0.5555555555555556
 40
0.5555555555555556
 40
0.6666666666666667
 40
0.6666666666666667
 40
0.6666666666666667
 40
0.6666666666666667
 40
0.7777777777777779
 40
0.7777777777777779
 40
0.7777777777777779
 40
0.7777777777777779
 40
0.8888888888888891
 40
0.8888888888888891
 40
0.8888888888888891
 40
0.8888888888888891
 40
1.0
 40
1.0
 40
1.0
 40
1.0
 10
-22.7998
 20
-2.0973
 30
0.0
 10
-22.7998
 20
-2.3139
 30
0.0
 10
-22.747
 20
-2.5231
 30
0.0
 10
-22.6415
 20
-2.7215
 30
0.0
 10
-22.6415
 20
-2.7215
 30
0.0
 10
-22.5378
 20
-2.9198
 30
0.0
 10
-22.3777
 20
-3.0781
 30
0.0
 10
-22.1648
 20
-3.1963
 30
0.0
 10
-22.1648
 20
-3.1963
 30
0.0
 10
-21.9519
 20
-3.3128
 30
0.0
 10
-21.708
 20
-3.3711
 30
0.0
 10
-21.4351
 20
-3.3711
 30
0.0
 10
-21.4351
 20
-3.3711
 30
0.0
 10
-20.9111
 20
-3.3711
 30
0.0
 10
-20.4889
 20
-3.1273
 30
0.0
 10
-20.1651
 20
-2.636
 30
0.0
 10
-20.1651
 20
-2.636
 30
0.0
 10
-19.9103
 20
-2.252
 30
0.0
 10
-19.7811
 20
-1.8389
 30
0.0
 10
-19.7811
 20
-1.3931
 30
0.0
 10
-19.7811
 20
-1.3931
 30
0.0
 10
-19.7811
 20
-1.031
 30
0.0
 10
-19.8994
 20
-0.7344000000000001
 30
0.0
 10
-20.1359
 20
-0.5033
 30
0.0
 10
-20.1359
 20
-0.5033
 30
0.0
 10
-20.3725
 20
-0.2722
 30
0.0
 10
-20.6818
 20
-0.1576
 30
0.0
 10
-21.0657
 20
-0.1576
 30
0.0
 10
-21.0657
 20
-0.1576
 30
0.0
 10
-21.5497
 20
-0.1576
 30
0.0
 10
-21.9592
 20
-0.3359
 30
0.0
 10
-22.2958
 20
-0.6962
 30
0.0
 10
-22.2958
 20
-0.6962
 30
0.0
 10
-22.6306
 20
-1.0547
 30
0.0
 10
-22.7998
 20
-1.5223
 30
0.0
 10
-22.7998
 20
-2.0973
 30
0.0
  0
SPLINE
  5
34
330
1F
100
AcDbEntity
  8
Ebene 1
 62
   250
100
AcDbSpline
210
0.0
220
0.0
230
1.0
 70
    11
 71
     3
 72
    96
 73
    92
 74
     0
 42
0.0000000001
 43
0.0000000001
 40
0.0
 40
0.0
 40
0.0
 40
0.0
 40
0.0434782608695652
 40
0.0434782608695652
 40
0.0434782608695652
 40
0.0434782608695652
 40
0.0869565217391304
 40
0.0869565217391304
 40
0.0869565217391304
 40
0.0869565217391304
 40
0.1304347826086957
 40
0.1304347826086957
 40
0.1304347826086957
 40
0.1304347826086957
 40
0.1739130434782609
 40
0.1739130434782609
 40
0.1739130434782609
 40
0.1739130434782609
 40
0.2173913043478261
 40
0.2173913043478261
 40
0.2173913043478261
 40
0.2173913043478261
 40
0.2608695652173913
 40
0.2608695652173913
 40
0.2608695652173913
 40
0.2608695652173913
 40
0.3043478260869565
 40
0.3043478260869565
 40
0.3043478260869565
 40
0.3043478260869565
 40
0.3478260869565217
 40
0.3478260869565217
 40
0.3478260869565217
 40
0.3478260869565217
 40
0.3913043478260869
 40
0.3913043478260869
 40
0.3913043478260869
 40
0.3913043478260869
 40
0.4347826086956521
 40
0.4347826086956521
 40
0.4347826086956521
 40
0.4347826086956521
 40
0.4782608695652173
 40
0.4782608695652173
 40
0.4782608695652173
 40
0.4782608695652173
 40
0.5217391304347825
 40
0.5217391304347825
 40
0.5217391304347825
 40
0.5217391304347825
 40
0.5652173913043477
 40
0.5652173913043477
 40
0.5652173913043477
 40
0.5652173913043477
 40
0.6086956521739129
 40
0.6086956521739129
 40
0.6086956521739129
 40
0.6086956521739129
 40
0.6521739130434781
 40
0.6521739130434781
 40
0.6521739130434781
 40
0.6521739130434781
 40
0.6956521739130432
 40
0.6956521739130432
 40
0.6956521739130432
 40
0.6956521739130432
 40
0.7391304347826084
 40
0.7391304347826084
 40
0.7391304347826084
 40
0.7391304347826084
 40
0.7826086956521736
 40
0.7826086956521736
 40
0.7826086956521736
 40
0.7826086956521736
 40
0.8260869565217388
 40
0.8260869565217388
 40
0.8260869565217388
 40
0.8260869565217388
 40
0.869565217391304
 40
0.869565217391304
 40
0.869565217391304
 40
0.869565217391304
 40
0.9130434782608692
 40
0.9130434782608692
 40
0.9130434782608692
 40
0.9130434782608692
 40
0.9565217391304344
 40
0.9565217391304344
 40
0.9565217391304344
 40
0.9565217391304344
 40
1.0
 40
1.0
 40
1.0
 40
1.0
 10
-17.8722
 20
-4.0061
 30
0.0
 10
-17.774
 20
-3.5403
 30
0.0
 10
-17.6357
 20
-3.1509
 30
0.0
 10
-17.4592
 20
-2.8361
 30
0.0
 10
-17.4592
 20
-2.8361
 30
0.0
 10
-17.2845
 20
-2.5213
 30
0.0
 10
-17.0498
 20
-2.2229
 30
0.0
 10
-16.7587
 20
-1.9409
 30
0.0
 10
-16.7587
 20
-1.9409
 30
0.0
 10
-16.4675
 20
-1.657
 30
0.0
 10
-15.9053
 20
-1.1839
 30
0.0
 10
-15.0737
 20
-0.5197000000000001
 30
0.0
 10
-15.0737
 20
-0.5197000000000001
 30
0.0
 10
-14.5696
 20
-0.1176
 30
0.0
 10
-14.2257
 20
0.1791
 30
0.0
 10
-14.0402
 20
0.3701
 30
0.0
 10
-14.0402
 20
0.3701
 30
0.0
 10
-13.7745
 20
0.6485000000000001
 30
0.0
 10
-13.5798
 20
0.9197000000000001
 30
0.0
 10
-13.4597
 20
1.1871
 30
0.0
 10
-13.4597
 20
1.1871
 30
0.0
 10
-13.3778
 20
1.3672
 30
0.0
 10
-13.336
 20
1.5656
 30
0.0
 10
-13.336
 20
1.7785
 30
0.0
 10
-13.336
 20
1.7785
 30
0.0
 10
-13.336
 20
2.1369
 30
0.0
 10
-13.4633
 20
2.4408
 30
0.0
 10
-13.7181
 20
2.692
 30
0.0
 10
-13.7181
 20
2.692
 30
0.0
 10
-13.971
 20
2.943
 30
0.0
 10
-14.284
 20
3.0686
 30
0.0
 10
-14.6533
 20
3.0686
 30
0.0
 10
-14.6533
 20
3.0686
 30
0.0
 10
-15.0191
 20
3.0686
 30
0.0
 10
-15.3394
 20
2.9413
 30
0.0
 10
-15.6123
 20
2.6865
 30
0.0
 10
-15.6123
 20
2.6865
 30
0.0
 10
-15.8871
 20
2.4336
 30
0.0
 10
-16.0818
 20
2.0241
 30
0.0
 10
-16.2001
 20
1.4637
 30
0.0
 10
-16.2001
 20
1.4637
 30
0.0
 10
-16.2001
 20
1.4637
 30
0.0
 10
-17.1427
 20
1.602
 30
0.0
 10
-17.1427
 20
1.602
 30
0.0
 10
-17.1427
 20
1.602
 30
0.0
 10
-17.0498
 20
2.2953
 30
0.0
 10
-16.7805
 20
2.8411
 30
0.0
 10
-16.3347
 20
3.2415
 30
0.0
 10
-16.3347
 20
3.2415
 30
0.0
 10
-15.8889
 20
3.6418
 30
0.0
 10
-15.3339
 20
3.8419
 30
0.0
 10
-14.6698
 20
3.8419
 30
0.0
 10
-14.6698
 20
3.8419
 30
0.0
 10
-14.2257
 20
3.8419
 30
0.0
 10
-13.8218
 20
3.7492
 30
0.0
 10
-13.4615
 20
3.5635
 30
0.0
 10
-13.4615
 20
3.5635
 30
0.0
 10
-13.1012
 20
3.3798
 30
0.0
 10
-12.8301
 20
3.1195
 30
0.0
 10
-12.6482
 20
2.7847
 30
0.0
 10
-12.6482
 20
2.7847
 30
0.0
 10
-12.468
 20
2.4517
 30
0.0
 10
-12.377
 20
2.106
 30
0.0
 10
-12.377
 20
1.7512
 30
0.0
 10
-12.377
 20
1.7512
 30
0.0
 10
-12.377
 20
1.2326
 30
0.0
 10
-12.5608
 20
0.7322000000000001
 30
0.0
 10
-12.932
 20
0.2537
 30
0.0
 10
-12.932
 20
0.2537
 30
0.0
 10
-13.1595
 20
-0.0448
 30
0.0
 10
-13.8273
 20
-0.6325000000000001
 30
0.0
 10
-14.9354
 20
-1.5114
 30
0.0
 10
-14.9354
 20
-1.5114
 30
0.0
 10
-15.4121
 20
-1.888
 30
0.0
 10
-15.767
 20
-2.1974
 30
0.0
 10
-15.9999
 20
-2.4394
 30
0.0
 10
-15.9999
 20
-2.4394
 30
0.0
 10
-16.2328
 20
-2.6796
 30
0.0
 10
-16.4075
 20
-2.9071
 30
0.0
 10
-16.5239
 20
-3.1218
 30
0.0
 10
-16.5239
 20
-3.1218
 30
0.0
 10
-16.5239
 20
-3.1218
 30
0.0
 10
-13.0266
 20
-3.1218
 30
0.0
 10
-13.0266
 20
-3.1218
 30
0.0
 10
-13.0266
 20
-3.1218
 30
0.0
 10
-13.0266
 20
-3.1218
 30
0.0
 10
-13.214
 20
-4.0061
 30
0.0
 10
-13.214
 20
-4.0061
 30
0.0
 10
-13.214
 20
-4.0061
 30
0.0
 10
-13.214
 20
-4.0061
 30
0.0
 10
-17.8722
 20
-4.0061
 30
0.0
 10
-17.8722
 20
-4.0061
 30
0.0
  0
SPLINE
  5
35
330
1F
100
AcDbEntity
  8
Ebene 1
 62
   250
100
AcDbSpline
210
0.0
220
0.0
230
1.0
 70
    11
 71
     3
 72
    40
 73
    36
 74
     0
 42
0.0000000001
 43
0.0000000001
 40
0.0
 40
0.0
 40
0.0
 40
0.0
 40
0.1111111111111111
 40
0.1111111111111111
 40
0.1111111111111111
 40
0.1111111111111111
 40
0.2222222222222222
 40
0.2222222222222222
 40
0.2222222222222222
 40
0.2222222222222222
 40
0.3333333333333333
 40
0.3333333333333333
 40
0.3333333333333333
 40
0.3333333333333333
 40
0.4444444444444444
 40
0.4444444444444444
 40
0.4444444444444444
 40
0.4444444444444444
 40
0.5555555555555556
 40
0.5555555555555556
 40
0.5555555555555556
 40
0.5555555555555556
 40
0.6666666666666667
 40
0.6666666666666667
 40
0.6666666666666667
 40
0.6666666666666667
 40
0.7777777777777779
 40
0.7777777777777779
 40
0.7777777777777779
 40
0.7777777777777779
 40
0.8888888888888891
 40
0.8888888888888891
 40
0.8888888888888891
 40
0.8888888888888891
 40
1.0
 40
1.0
 40
1.0
 40
1.0
 10
-30.8179
 20
38.4271
 30
0.0
 10
-30.8179
 20
38.4271
 30
0.0
 10
-29.5806
 20
44.3281
 30
0.0
 10
-29.5806
 20
44.3281
 30
0.0
 10
-29.5806
 20
44.3281
 30
0.0
 10
-30.1138
 20
43.90960000000001
 30
0.0
 10
-30.8634
 20
43.573
 30
0.0
 10
-31.8297
 20
43.3201
 30
0.0
 10
-31.8297
 20
43.3201
 30
0.0
 10
-31.8297
 20
43.3201
 30
0.0
 10
-31.6495
 20
44.1953
 30
0.0
 10
-31.6495
 20
44.1953
 30
0.0
 10
-31.6495
 20
44.1953
 30
0.0
 10
-31.1691
 20
44.3864
 30
0.0
 10
-30.6961
 20
44.6375
 30
0.0
 10
-30.2284
 20
44.9468
 30
0.0
 10
-30.2284
 20
44.9468
 30
0.0
 10
-29.7608
 20
45.2562
 30
0.0
 10
-29.4096
 20
45.5255
 30
0.0
 10
-29.1748
 20
45.7566
 30
0.0
 10
-29.1748
 20
45.7566
 30
0.0
 10
-29.0329
 20
45.89850000000001
 30
0.0
 10
-28.8982
 20
46.0713
 30
0.0
 10
-28.7709
 20
46.2751
 30
0.0
 10
-28.7709
 20
46.2751
 30
0.0
 10
-28.7709
 20
46.2751
 30
0.0
 10
-28.2104
 20
46.2751
 30
0.0
 10
-28.2104
 20
46.2751
 30
0.0
 10
-28.2104
 20
46.2751
 30
0.0
 10
-28.2104
 20
46.2751
 30
0.0
 10
-29.8462
 20
38.4271
 30
0.0
 10
-29.8462
 20
38.4271
 30
0.0
 10
-29.8462
 20
38.4271
 30
0.0
 10
-29.8462
 20
38.4271
 30
0.0
 10
-30.8179
 20
38.4271
 30
0.0
 10
-30.8179
 20
38.4271
 30
0.0
  0
SPLINE
  5
36
330
1F
100
AcDbEntity
  8
Ebene 1
 62
   250
100
AcDbSpline
210
0.0
220
0.0
230
1.0
 70
    11
 71
     3
 72
    40
 73
    36
 74
     0
 42
0.0000000001
 43
0.0000000001
 40
0.0
 40
0.0
 40
0.0
 40
0.0
 40
0.1111111111111111
 40
0.1111111111111111
 40
0.1111111111111111
 40
0.1111111111111111
 40
0.2222222222222222
 40
0.2222222222222222
 40
0.2222222222222222
 40
0.2222222222222222
 40
0.3333333333333333
 40
0.3333333333333333
 40
0.3333333333333333
 40
0.3333333333333333
 40
0.4444444444444444
 40
0.4444444444444444
 40
0.4444444444444444
 40
0.4444444444444444
 40
0.5555555555555556
 40
0.5555555555555556
 40
0.5555555555555556
 40
0.5555555555555556
 40
0.6666666666666667
 40
0.6666666666666667
 40
0.6666666666666667
 40
0.6666666666666667
 40
0.7777777777777779
 40
0.7777777777777779
 40
0.7777777777777779
 40
0.7777777777777779
 40
0.8888888888888891
 40
0.8888888888888891
 40
0.8888888888888891
 40
0.8888888888888891
 40
1.0
 40
1.0
 40
1.0
 40
1.0
 10
-25.5556
 20
38.4271
 30
0.0
 10
-25.5556
 20
38.4271
 30
0.0
 10
-24.3183
 20
44.3281
 30
0.0
 10
-24.3183
 20
44.3281
 30
0.0
 10
-24.3183
 20
44.3281
 30
0.0
 10
-24.8515
 20
43.90960000000001
 30
0.0
 10
-25.6011
 20
43.573
 30
0.0
 10
-26.5674
 20
43.3201
 30
0.0
 10
-26.5674
 20
43.3201
 30
0.0
 10
-26.5674
 20
43.3201
 30
0.0
 10
-26.3872
 20
44.1953
 30
0.0
 10
-26.3872
 20
44.1953
 30
0.0
 10
-26.3872
 20
44.1953
 30
0.0
 10
-25.9068
 20
44.3864
 30
0.0
 10
-25.4338
 20
44.6375
 30
0.0
 10
-24.9661
 20
44.9468
 30
0.0
 10
-24.9661
 20
44.9468
 30
0.0
 10
-24.4985
 20
45.2562
 30
0.0
 10
-24.1473
 20
45.5255
 30
0.0
 10
-23.9125
 20
45.7566
 30
0.0
 10
-23.9125
 20
45.7566
 30
0.0
 10
-23.7706
 20
45.89850000000001
 30
0.0
 10
-23.6359
 20
46.0713
 30
0.0
 10
-23.5086
 20
46.2751
 30
0.0
 10
-23.5086
 20
46.2751
 30
0.0
 10
-23.5086
 20
46.2751
 30
0.0
 10
-22.9481
 20
46.2751
 30
0.0
 10
-22.9481
 20
46.2751
 30
0.0
 10
-22.9481
 20
46.2751
 30
0.0
 10
-22.9481
 20
46.2751
 30
0.0
 10
-24.5839
 20
38.4271
 30
0.0
 10
-24.5839
 20
38.4271
 30
0.0
 10
-24.5839
 20
38.4271
 30
0.0
 10
-24.5839
 20
38.4271
 30
0.0
 10
-25.5556
 20
38.4271
 30
0.0
 10
-25.5556
 20
38.4271
 30
0.0
  0
SPLINE
  5
37
330
1F
100
AcDbEntity
  8
Ebene 1
 62
   250
100
AcDbSpline
210
0.0
220
0.0
230
1.0
 70
    11
 71
     3
 72
    52
 73
    48
 74
     0
 42
0.0000000001
 43
0.0000000001
 40
0.0
 40
0.0
 40
0.0
 40
0.0
 40
0.0833333333333333
 40
0.0833333333333333
 40
0.0833333333333333
 40
0.0833333333333333
 40
0.1666666666666667
 40
0.1666666666666667
 40
0.1666666666666667
 40
0.1666666666666667
 40
0.25
 40
0.25
 40
0.25
 40
0.25
 40
0.3333333333333333
 40
0.3333333333333333
 40
0.3333333333333333
 40
0.3333333333333333
 40
0.4166666666666666
 40
0.4166666666666666
 40
0.4166666666666666
 40
0.4166666666666666
 40
0.4999999999999999
 40
0.4999999999999999
 40
0.4999999999999999
 40
0.4999999999999999
 40
0.5833333333333333
 40
0.5833333333333333
 40
0.5833333333333333
 40
0.5833333333333333
 40
0.6666666666666666
 40
0.6666666666666666
 40
0.6666666666666666
 40
0.6666666666666666
 40
0.75
 40
0.75
 40
0.75
 40
0.75
 40
0.8333333333333334
 40
0.8333333333333334
 40
0.8333333333333334
 40
0.8333333333333334
 40
0.9166666666666667
 40
0.9166666666666667
 40
0.9166666666666667
 40
0.9166666666666667
 40
1.0
 40
1.0
 40
1.0
 40
1.0
 10
-21.3378
 20
40.991
 30
0.0
 10
-21.3378
 20
41.6515
 30
0.0
 10
-21.2395
 20
42.3248
 30
0.0
 10
-21.043
 20
43.0071
 30
0.0
 10
-21.043
 20
43.0071
 30
0.0
 10
-20.8446
 20
43.6895
 30
0.0
 10
-20.6263
 20
44.2336
 30
0.0
 10
-20.3843
 20
44.6429
 30
0.0
 10
-20.3843
 20
44.6429
 30
0.0
 10
-20.1423
 20
45.0524
 30
0.0
 10
-19.8911
 20
45.3708
 30
0.0
 10
-19.6328
 20
45.6018
 30
0.0
 10
-19.6328
 20
45.6018
 30
0.0
 10
-19.3726
 20
45.83300000000001
 30
0.0
 10
-19.1178
 20
46.00400000000001
 30
0.0
 10
-18.8667
 20
46.1114
 30
0.0
 10
-18.8667
 20
46.1114
 30
0.0
 10
-18.6174
 20
46.22060000000001
 30
0.0
 10
-18.339
 20
46.2751
 30
0.0
 10
-18.0333
 20
46.2751
 30
0.0
 10
-18.0333
 20
46.2751
 30
0.0
 10
-17.4365
 20
46.2751
 30
0.0
 10
-16.9379
 20
46.0514
 30
0.0
 10
-16.5376
 20
45.6073
 30
0.0
 10
-16.5376
 20
45.6073
 30
0.0
 10
-16.1373
 20
45.1633
 30
0.0
 10
-15.9371
 20
44.5228
 30
0.0
 10
-15.9371
 20
43.68400000000001
 30
0.0
 10
-15.9371
 20
43.68400000000001
 30
0.0
 10
-15.9371
 20
42.81970000000001
 30
0.0
 10
-16.0772
 20
41.9645
 30
0.0
 10
-16.3538
 20
41.1201
 30
0.0
 10
-16.3538
 20
41.1201
 30
0.0
 10
-16.6813
 20
40.1176
 30
0.0
 10
-17.1362
 20
39.3661
 30
0.0
 10
-17.7185
 20
38.86380000000001
 30
0.0
 10
-17.7185
 20
38.86380000000001
 30
0.0
 10
-18.1662
 20
38.4835
 30
0.0
 10
-18.6756
 20
38.2943
 30
0.0
 10
-19.2488
 20
38.2943
 30
0.0
 10
-19.2488
 20
38.2943
 30
0.0
 10
-19.8347
 20
38.2943
 30
0.0
 10
-20.3297
 20
38.5235
 30
0.0
 10
-20.7336
 20
38.9839
 30
0.0
 10
-20.7336
 20
38.9839
 30
0.0
 10
-21.1358
 20
39.4443
 30
0.0
 10
-21.3378
 20
40.1139
 30
0.0
 10
-21.3378
 20
40.991
 30
0.0
  0
SPLINE
  5
38
330
1F
100
AcDbEntity
  8
Ebene 1
 62
   250
100
AcDbSpline
210
0.0
220
0.0
230
1.0
 70
    11
 71
     3
 72
    48
 73
    44
 74
     0
 42
0.0000000001
 43
0.0000000001
 40
0.0
 40
0.0
 40
0.0
 40
0.0
 40
0.0909090909090909
 40
0.0909090909090909
 40
0.0909090909090909
 40
0.0909090909090909
 40
0.1818181818181818
 40
0.1818181818181818
 40
0.1818181818181818
 40
0.1818181818181818
 40
0.2727272727272727
 40
0.2727272727272727
 40
0.2727272727272727
 40
0.2727272727272727
 40
0.3636363636363637
 40
0.3636363636363637
 40
0.3636363636363637
 40
0.3636363636363637
 40
0.4545454545454546
 40
0.4545454545454546
 40
0.4545454545454546
 40
0.4545454545454546
 40
0.5454545454545455
 40
0.5454545454545455
 40
0.5454545454545455
 40
0.5454545454545455
 40
0.6363636363636365
 40
0.6363636363636365
 40
0.6363636363636365
 40
0.6363636363636365
 40
0.7272727272727274
 40
0.7272727272727274
 40
0.7272727272727274
 40
0.7272727272727274
 40
0.8181818181818183
 40
0.8181818181818183
 40
0.8181818181818183
 40
0.8181818181818183
 40
0.9090909090909093
 40
0.9090909090909093
 40
0.9090909090909093
 40
0.9090909090909093
 40
1.0
 40
1.0
 40
1.0
 40
1.0
 10
-20.4043
 20
40.7453
 30
0.0
 10
-20.4043
 20
40.2667
 30
0.0
 10
-20.326
 20
39.8919
 30
0.0
 10
-20.1659
 20
39.6208
 30
0.0
 10
-20.1659
 20
39.6208
 30
0.0
 10
-19.9494
 20
39.24780000000001
 30
0.0
 10
-19.6273
 20
39.0621
 30
0.0
 10
-19.1997
 20
39.0621
 30
0.0
 10
-19.1997
 20
39.0621
 30
0.0
 10
-18.8267
 20
39.0621
 30
0.0
 10
-18.4882
 20
39.22960000000001
 30
0.0
 10
-18.1826
 20
39.56800000000001
 30
0.0
 10
-18.1826
 20
39.56800000000001
 30
0.0
 10
-17.7422
 20
40.0447
 30
0.0
 10
-17.4092
 20
40.7417
 30
0.0
 10
-17.1872
 20
41.6605
 30
0.0
 10
-17.1872
 20
41.6605
 30
0.0
 10
-16.9652
 20
42.5795
 30
0.0
 10
-16.8542
 20
43.3292
 30
0.0
 10
-16.8542
 20
43.9132
 30
0.0
 10
-16.8542
 20
43.9132
 30
0.0
 10
-16.8542
 20
44.4737
 30
0.0
 10
-16.9616
 20
44.8795
 30
0.0
 10
-17.1781
 20
45.12880000000001
 30
0.0
 10
-17.1781
 20
45.12880000000001
 30
0.0
 10
-17.3928
 20
45.3762
 30
0.0
 10
-17.6749
 20
45.5018
 30
0.0
 10
-18.0278
 20
45.5018
 30
0.0
 10
-18.0278
 20
45.5018
 30
0.0
 10
-18.2826
 20
45.5018
 30
0.0
 10
-18.5228
 20
45.4363
 30
0.0
 10
-18.7448
 20
45.3034
 30
0.0
 10
-18.7448
 20
45.3034
 30
0.0
 10
-18.9668
 20
45.1724
 30
0.0
 10
-19.1797
 20
44.9468
 30
0.0
 10
-19.3816
 20
44.6266
 30
0.0
 10
-19.3816
 20
44.6266
 30
0.0
 10
-19.6691
 20
44.1753
 30
0.0
 10
-19.9203
 20
43.5002
 30
0.0
 10
-20.1331
 20
42.6013
 30
0.0
 10
-20.1331
 20
42.6013
 30
0.0
 10
-20.3151
 20
41.8335
 30
0.0
 10
-20.4043
 20
41.2147
 30
0.0
 10
-20.4043
 20
40.7453
 30
0.0
  0
SPLINE
  5
39
330
1F
100
AcDbEntity
  8
Ebene 1
 62
   250
100
AcDbSpline
210
0.0
220
0.0
230
1.0
 70
    11
 71
     3
 72
    36
 73
    32
 74
     0
 42
0.0000000001
 43
0.0000000001
 40
0.0
 40
0.0
 40
0.0
 40
0.0
 40
0.125
 40
0.125
 40
0.125
 40
0.125
 40
0.25
 40
0.25
 40
0.25
 40
0.25
 40
0.375
 40
0.375
 40
0.375
 40
0.375
 40
0.5
 40
0.5
 40
0.5
 40
0.5
 40
0.625
 40
0.625
 40
0.625
 40
0.625
 40
0.75
 40
0.75
 40
0.75
 40
0.75
 40
0.875
 40
0.875
 40
0.875
 40
0.875
 40
1.0
 40
1.0
 40
1.0
 40
1.0
 10
-15.4476
 20
38.4271
 30
0.0
 10
-15.4476
 20
38.4271
 30
0.0
 10
-15.2183
 20
39.52070000000001
 30
0.0
 10
-15.2183
 20
39.52070000000001
 30
0.0
 10
-15.2183
 20
39.52070000000001
 30
0.0
 10
-15.2183
 20
39.52070000000001
 30
0.0
 10
-14.1193
 20
39.52070000000001
 30
0.0
 10
-14.1193
 20
39.52070000000001
 30
0.0
 10
-14.1193
 20
39.52070000000001
 30
0.0
 10
-14.1193
 20
39.52070000000001
 30
0.0
 10
-14.3176
 20
38.5654
 30
0.0
 10
-14.3176
 20
38.5654
 30
0.0
 10
-14.3176
 20
38.5654
 30
0.0
 10
-14.4377
 20
37.9941
 30
0.0
 10
-14.6251
 20
37.5737
 30
0.0
 10
-14.8799
 20
37.308
 30
0.0
 10
-14.8799
 20
37.308
 30
0.0
 10
-15.1328
 20
37.0405
 30
0.0
 10
-15.433
 20
36.8877
 30
0.0
 10
-15.7769
 20
36.8494
 30
0.0
 10
-15.7769
 20
36.8494
 30
0.0
 10
-15.7769
 20
36.8494
 30
0.0
 10
-15.6878
 20
37.2698
 30
0.0
 10
-15.6878
 20
37.2698
 30
0.0
 10
-15.6878
 20
37.2698
 30
0.0
 10
-15.2638
 20
37.3881
 30
0.0
 10
-14.9854
 20
37.77390000000001
 30
0.0
 10
-14.8507
 20
38.4271
 30
0.0
 10
-14.8507
 20
38.4271
 30
0.0
 10
-14.8507
 20
38.4271
 30
0.0
 10
-15.4476
 20
38.4271
 30
0.0
 10
-15.4476
 20
38.4271
 30
0.0
  0
SPLINE
  5
3A
330
1F
100
AcDbEntity
  8
Ebene 1
 62
   250
100
AcDbSpline
210
0.0
220
0.0
230
1.0
 70
    11
 71
     3
 72
   120
 73
   116
 74
     0
 42
0.0000000001
 43
0.0000000001
 40
0.0
 40
0.0
 40
0.0
 40
0.0
 40
0.0344827586206897
 40
0.0344827586206897
 40
0.0344827586206897
 40
0.0344827586206897
 40
0.0689655172413793
 40
0.0689655172413793
 40
0.0689655172413793
 40
0.0689655172413793
 40
0.103448275862069
 40
0.103448275862069
 40
0.103448275862069
 40
0.103448275862069
 40
0.1379310344827586
 40
0.1379310344827586
 40
0.1379310344827586
 40
0.1379310344827586
 40
0.1724137931034483
 40
0.1724137931034483
 40
0.1724137931034483
 40
0.1724137931034483
 40
0.206896551724138
 40
0.206896551724138
 40
0.206896551724138
 40
0.206896551724138
 40
0.2413793103448276
 40
0.2413793103448276
 40
0.2413793103448276
 40
0.2413793103448276
 40
0.2758620689655173
 40
0.2758620689655173
 40
0.2758620689655173
 40
0.2758620689655173
 40
0.310344827586207
 40
0.310344827586207
 40
0.310344827586207
 40
0.310344827586207
 40
0.3448275862068966
 40
0.3448275862068966
 40
0.3448275862068966
 40
0.3448275862068966
 40
0.3793103448275863
 40
0.3793103448275863
 40
0.3793103448275863
 40
0.3793103448275863
 40
0.413793103448276
 40
0.413793103448276
 40
0.413793103448276
 40
0.413793103448276
 40
0.4482758620689656
 40
0.4482758620689656
 40
0.4482758620689656
 40
0.4482758620689656
 40
0.4827586206896553
 40
0.4827586206896553
 40
0.4827586206896553
 40
0.4827586206896553
 40
0.517241379310345
 40
0.517241379310345
 40
0.517241379310345
 40
0.517241379310345
 40
0.5517241379310346
 40
0.5517241379310346
 40
0.5517241379310346
 40
0.5517241379310346
 40
0.5862068965517242
 40
0.5862068965517242
 40
0.5862068965517242
 40
0.5862068965517242
 40
0.6206896551724138
 40
0.6206896551724138
 40
0.6206896551724138
 40
0.6206896551724138
 40
0.6551724137931034
 40
0.6551724137931034
 40
0.6551724137931034
 40
0.6551724137931034
 40
0.689655172413793
 40
0.689655172413793
 40
0.689655172413793
 40
0.689655172413793
 40
0.7241379310344827
 40
0.7241379310344827
 40
0.7241379310344827
 40
0.7241379310344827
 40
0.7586206896551723
 40
0.7586206896551723
 40
0.7586206896551723
 40
0.7586206896551723
 40
0.7931034482758619
 40
0.7931034482758619
 40
0.7931034482758619
 40
0.7931034482758619
 40
0.8275862068965515
 40
0.8275862068965515
 40
0.8275862068965515
 40
0.8275862068965515
 40
0.8620689655172411
 40
0.8620689655172411
 40
0.8620689655172411
 40
0.8620689655172411
 40
0.8965517241379307
 40
0.8965517241379307
 40
0.8965517241379307
 40
0.8965517241379307
 40
0.9310344827586203
 40
0.9310344827586203
 40
0.9310344827586203
 40
0.9310344827586203
 40
0.9655172413793099
 40
0.9655172413793099
 40
0.9655172413793099
 40
0.9655172413793099
 40
1.0
 40
1.0
 40
1.0
 40
1.0
 10
-12.2433
 20
40.6616
 30
0.0
 10
-12.2433
 20
40.6616
 30
0.0
 10
-11.2625
 20
40.7562
 30
0.0
 10
-11.2625
 20
40.7562
 30
0.0
 10
-11.2625
 20
40.7562
 30
0.0
 10
-11.2697
 20
40.6179
 30
0.0
 10
-11.2734
 20
40.5342
 30
0.0
 10
-11.2734
 20
40.50700000000001
 30
0.0
 10
-11.2734
 20
40.50700000000001
 30
0.0
 10
-11.2734
 20
40.27220000000001
 30
0.0
 10
-11.2133
 20
40.0356
 30
0.0
 10
-11.0951
 20
39.7972
 30
0.0
 10
-11.0951
 20
39.7972
 30
0.0
 10
-10.975
 20
39.5589
 30
0.0
 10
-10.813
 20
39.377
 30
0.0
 10
-10.6092
 20
39.2514
 30
0.0
 10
-10.6092
 20
39.2514
 30
0.0
 10
-10.4054
 20
39.124
 30
0.0
 10
-10.1889
 20
39.0621
 30
0.0
 10
-9.961500000000001
 20
39.0621
 30
0.0
 10
-9.961500000000001
 20
39.0621
 30
0.0
 10
-9.6631
 20
39.0621
 30
0.0
 10
-9.359200000000001
 20
39.164
 30
0.0
 10
-9.049800000000001
 20
39.37150000000001
 30
0.0
 10
-9.049800000000001
 20
39.37150000000001
 30
0.0
 10
-8.740500000000001
 20
39.5771
 30
0.0
 10
-8.491200000000001
 20
39.87730000000001
 30
0.0
 10
-8.298400000000001
 20
40.27220000000001
 30
0.0
 10
-8.298400000000001
 20
40.27220000000001
 30
0.0
 10
-8.107200000000001
 20
40.6653
 30
0.0
 10
-8.0108
 20
41.0564
 30
0.0
 10
-8.0108
 20
41.4441
 30
0.0
 10
-8.0108
 20
41.4441
 30
0.0
 10
-8.0108
 20
41.8807
 30
0.0
 10
-8.1401
 20
42.2319
 30
0.0
 10
-8.396600000000001
 20
42.494
 30
0.0
 10
-8.396600000000001
 20
42.494
 30
0.0
 10
-8.6549
 20
42.7578
 30
0.0
 10
-8.993400000000001
 20
42.8888
 30
0.0
 10
-9.411900000000001
 20
42.8888
 30
0.0
 10
-9.411900000000001
 20
42.8888
 30
0.0
 10
-9.694000000000001
 20
42.8888
 30
0.0
 10
-9.9596
 20
42.8215
 30
0.0
 10
-10.2089
 20
42.6869
 30
0.0
 10
-10.2089
 20
42.6869
 30
0.0
 10
-10.4601
 20
42.5522
 30
0.0
 10
-10.693
 20
42.34840000000001
 30
0.0
 10
-10.9113
 20
42.0791
 30
0.0
 10
-10.9113
 20
42.0791
 30
0.0
 10
-10.9113
 20
42.0791
 30
0.0
 10
-11.7538
 20
42.1373
 30
0.0
 10
-11.7538
 20
42.1373
 30
0.0
 10
-11.7538
 20
42.1373
 30
0.0
 10
-11.7538
 20
42.1373
 30
0.0
 10
-10.5747
 20
46.13500000000001
 30
0.0
 10
-10.5747
 20
46.13500000000001
 30
0.0
 10
-10.5747
 20
46.13500000000001
 30
0.0
 10
-10.5747
 20
46.13500000000001
 30
0.0
 10
-6.7571
 20
46.13500000000001
 30
0.0
 10
-6.7571
 20
46.13500000000001
 30
0.0
 10
-6.7571
 20
46.13500000000001
 30
0.0
 10
-6.7571
 20
46.13500000000001
 30
0.0
 10
-6.944500000000001
 20
45.2507
 30
0.0
 10
-6.944500000000001
 20
45.2507
 30
0.0
 10
-6.944500000000001
 20
45.2507
 30
0.0
 10
-6.944500000000001
 20
45.2507
 30
0.0
 10
-9.914100000000001
 20
45.2507
 30
0.0
 10
-9.914100000000001
 20
45.2507
 30
0.0
 10
-9.914100000000001
 20
45.2507
 30
0.0
 10
-9.914100000000001
 20
45.2507
 30
0.0
 10
-10.5001
 20
43.2619
 30
0.0
 10
-10.5001
 20
43.2619
 30
0.0
 10
-10.5001
 20
43.2619
 30
0.0
 10
-10.2799
 20
43.4219
 30
0.0
 10
-10.0524
 20
43.54210000000001
 30
0.0
 10
-9.821400000000001
 20
43.6221
 30
0.0
 10
-9.821400000000001
 20
43.6221
 30
0.0
 10
-9.5884
 20
43.70220000000001
 30
0.0
 10
-9.3483
 20
43.7423
 30
0.0
 10
-9.102600000000001
 20
43.7423
 30
0.0
 10
-9.102600000000001
 20
43.7423
 30
0.0
 10
-8.505800000000001
 20
43.7423
 30
0.0
 10
-8.016300000000001
 20
43.5457
 30
0.0
 10
-7.632400000000001
 20
43.1508
 30
0.0
 10
-7.632400000000001
 20
43.1508
 30
0.0
 10
-7.2484
 20
42.756
 30
0.0
 10
-7.0556
 20
42.2156
 30
0.0
 10
-7.0556
 20
41.5296
 30
0.0
 10
-7.0556
 20
41.5296
 30
0.0
 10
-7.0556
 20
40.92910000000001
 30
0.0
 10
-7.1883
 20
40.3759
 30
0.0
 10
-7.4504
 20
39.86830000000001
 30
0.0
 10
-7.4504
 20
39.86830000000001
 30
0.0
 10
-7.7142
 20
39.3624
 30
0.0
 10
-8.0763
 20
38.973
 30
0.0
 10
-8.5349
 20
38.7018
 30
0.0
 10
-8.5349
 20
38.7018
 30
0.0
 10
-8.995200000000001
 20
38.429
 30
0.0
 10
-9.492000000000001
 20
38.2943
 30
0.0
 10
-10.0252
 20
38.2943
 30
0.0
 10
-10.0252
 20
38.2943
 30
0.0
 10
-10.4728
 20
38.2943
 30
0.0
 10
-10.8694
 20
38.39440000000001
 30
0.0
 10
-11.2152
 20
38.5982
 30
0.0
 10
-11.2152
 20
38.5982
 30
0.0
 10
-11.5591
 20
38.8001
 30
0.0
 10
-11.8174
 20
39.0786
 30
0.0
 10
-11.9904
 20
39.4352
 30
0.0
 10
-11.9904
 20
39.4352
 30
0.0
 10
-12.1632
 20
39.79
 30
0.0
 10
-12.2487
 20
40.1448
 30
0.0
 10
-12.2487
 20
40.5015
 30
0.0
 10
-12.2487
 20
40.5015
 30
0.0
 10
-12.2487
 20
40.536
 30
0.0
 10
-12.2469
 20
40.5888
 30
0.0
 10
-12.2433
 20
40.6616
 30
0.0
  0
SPLINE
  5
3B
330
1F
100
AcDbEntity
  8
Ebene 1
 62
   250
100
AcDbSpline
210
0.0
220
0.0
230
1.0
 70
    11
 71
     3
 72
   120
 73
   116
 74
     0
 42
0.0000000001
 43
0.0000000001
 40
0.0
 40
0.0
 40
0.0
 40
0.0
 40
0.0344827586206897
 40
0.0344827586206897
 40
0.0344827586206897
 40
0.0344827586206897
 40
0.0689655172413793
 40
0.0689655172413793
 40
0.0689655172413793
 40
0.0689655172413793
 40
0.103448275862069
 40
0.103448275862069
 40
0.103448275862069
 40
0.103448275862069
 40
0.1379310344827586
 40
0.1379310344827586
 40
0.1379310344827586
 40
0.1379310344827586
 40
0.1724137931034483
 40
0.1724137931034483
 40
0.1724137931034483
 40
0.1724137931034483
 40
0.206896551724138
 40
0.206896551724138
 40
0.206896551724138
 40
0.206896551724138
 40
0.2413793103448276
 40
0.2413793103448276
 40
0.2413793103448276
 40
0.2413793103448276
 40
0.2758620689655173
 40
0.2758620689655173
 40
0.2758620689655173
 40
0.2758620689655173
 40
0.310344827586207
 40
0.310344827586207
 40
0.310344827586207
 40
0.310344827586207
 40
0.3448275862068966
 40
0.3448275862068966
 40
0.3448275862068966
 40
0.3448275862068966
 40
0.3793103448275863
 40
0.3793103448275863
 40
0.3793103448275863
 40
0.3793103448275863
 40
0.413793103448276
 40
0.413793103448276
 40
0.413793103448276
 40
0.413793103448276
 40
0.4482758620689656
 40
0.4482758620689656
 40
0.4482758620689656
 40
0.4482758620689656
 40
0.4827586206896553
 40
0.4827586206896553
 40
0.4827586206896553
 40
0.4827586206896553
 40
0.517241379310345
 40
0.517241379310345
 40
0.517241379310345
 40
0.517241379310345
 40
0.5517241379310346
 40
0.5517241379310346
 40
0.5517241379310346
 40
0.5517241379310346
 40
0.5862068965517242
 40
0.5862068965517242
 40
0.5862068965517242
 40
0.5862068965517242
 40
0.6206896551724138
 40
0.6206896551724138
 40
0.6206896551724138
 40
0.6206896551724138
 40
0.6551724137931034
 40
0.6551724137931034
 40
0.6551724137931034
 40
0.6551724137931034
 40
0.689655172413793
 40
0.689655172413793
 40
0.689655172413793
 40
0.689655172413793
 40
0.7241379310344827
 40
0.7241379310344827
 40
0.7241379310344827
 40
0.7241379310344827
 40
0.7586206896551723
 40
0.7586206896551723
 40
0.7586206896551723
 40
0.7586206896551723
 40
0.7931034482758619
 40
0.7931034482758619
 40
0.7931034482758619
 40
0.7931034482758619
 40
0.8275862068965515
 40
0.8275862068965515
 40
0.8275862068965515
 40
0.8275862068965515
 40
0.8620689655172411
 40
0.8620689655172411
 40
0.8620689655172411
 40
0.8620689655172411
 40
0.8965517241379307
 40
0.8965517241379307
 40
0.8965517241379307
 40
0.8965517241379307
 40
0.9310344827586203
 40
0.9310344827586203
 40
0.9310344827586203
 40
0.9310344827586203
 40
0.9655172413793099
 40
0.9655172413793099
 40
0.9655172413793099
 40
0.9655172413793099
 40
1.0
 40
1.0
 40
1.0
 40
1.0
 10
12.7124
 20
12.6434
 30
0.0
 10
12.7124
 20
12.6434
 30
0.0
 10
12.5959
 20
13.5824
 30
0.0
 10
12.5959
 20
13.5824
 30
0.0
 10
12.5959
 20
13.5824
 30
0.0
 10
13.1418
 20
13.6533
 30
0.0
 10
13.5348
 20
13.8097
 30
0.0
 10
13.7713
 20
14.0536
 30
0.0
 10
13.7713
 20
14.0536
 30
0.0
 10
14.0061
 20
14.2974
 30
0.0
 10
14.1244
 20
14.6159
 30
0.0
 10
14.1244
 20
15.0108
 30
0.0
 10
14.1244
 20
15.0108
 30
0.0
 10
14.1244
 20
15.4874
 30
0.0
 10
13.9552
 20
15.8987
 30
0.0
 10
13.613
 20
16.2444
 30
0.0
 10
13.613
 20
16.2444
 30
0.0
 10
13.2728
 20
16.592
 30
0.0
 10
12.8816
 20
16.7648
 30
0.0
 10
12.4412
 20
16.7648
 30
0.0
 10
12.4412
 20
16.7648
 30
0.0
 10
12.0573
 20
16.7648
 30
0.0
 10
11.7388
 20
16.6338
 30
0.0
 10
11.4895
 20
16.3755
 30
0.0
 10
11.4895
 20
16.3755
 30
0.0
 10
11.2385
 20
16.1152
 30
0.0
 10
11.1129
 20
15.7677
 30
0.0
 10
11.1129
 20
15.331
 30
0.0
 10
11.1129
 20
15.331
 30
0.0
 10
11.1129
 20
15.28
 30
0.0
 10
11.1202
 20
15.1781
 30
0.0
 10
11.1347
 20
15.0217
 30
0.0
 10
11.1347
 20
15.0217
 30
0.0
 10
11.1347
 20
15.0217
 30
0.0
 10
10.3286
 20
15.1872
 30
0.0
 10
10.3286
 20
15.1872
 30
0.0
 10
10.3286
 20
15.1872
 30
0.0
 10
10.3432
 20
15.2782
 30
0.0
 10
10.3505
 20
15.3674
 30
0.0
 10
10.3505
 20
15.4529
 30
0.0
 10
10.3505
 20
15.4529
 30
0.0
 10
10.3505
 20
16.0043
 30
0.0
 10
10.2158
 20
16.4283
 30
0.0
 10
9.9483
 20
16.7248
 30
0.0
 10
9.9483
 20
16.7248
 30
0.0
 10
9.679
 20
17.0215
 30
0.0
 10
9.349600000000001
 20
17.1688
 30
0.0
 10
8.958500000000001
 20
17.1688
 30
0.0
 10
8.958500000000001
 20
17.1688
 30
0.0
 10
8.6
 20
17.1688
 30
0.0
 10
8.298
 20
17.0487
 30
0.0
 10
8.052300000000001
 20
16.8049
 30
0.0
 10
8.052300000000001
 20
16.8049
 30
0.0
 10
7.808400000000001
 20
16.561
 30
0.0
 10
7.6847
 20
16.2626
 30
0.0
 10
7.6847
 20
15.9114
 30
0.0
 10
7.6847
 20
15.9114
 30
0.0
 10
7.6847
 20
15.5675
 30
0.0
 10
7.810300000000001
 20
15.2564
 30
0.0
 10
8.061400000000001
 20
14.9816
 30
0.0
 10
8.061400000000001
 20
14.9816
 30
0.0
 10
8.3125
 20
14.7051
 30
0.0
 10
8.6655
 20
14.5285
 30
0.0
 10
9.124000000000001
 20
14.4503
 30
0.0
 10
9.124000000000001
 20
14.4503
 30
0.0
 10
9.124000000000001
 20
14.4503
 30
0.0
 10
8.933
 20
13.5023
 30
0.0
 10
8.933
 20
13.5023
 30
0.0
 10
8.933
 20
13.5023
 30
0.0
 10
8.2888
 20
13.6587
 30
0.0
 10
7.792100000000001
 20
13.959
 30
0.0
 10
7.4409
 20
14.4029
 30
0.0
 10
7.4409
 20
14.4029
 30
0.0
 10
7.0879
 20
14.847
 30
0.0
 10
6.9114
 20
15.3729
 30
0.0
 10
6.9114
 20
15.9806
 30
0.0
 10
6.9114
 20
15.9806
 30
0.0
 10
6.9114
 20
16.6211
 30
0.0
 10
7.106100000000001
 20
17.1379
 30
0.0
 10
7.493700000000001
 20
17.5346
 30
0.0
 10
7.493700000000001
 20
17.5346
 30
0.0
 10
7.881200000000001
 20
17.9312
 30
0.0
 10
8.3561
 20
18.1295
 30
0.0
 10
8.9221
 20
18.1295
 30
0.0
 10
8.9221
 20
18.1295
 30
0.0
 10
9.335100000000001
 20
18.1295
 30
0.0
 10
9.6936
 20
18.0222
 30
0.0
 10
10.0011
 20
17.8075
 30
0.0
 10
10.0011
 20
17.8075
 30
0.0
 10
10.3086
 20
17.591
 30
0.0
 10
10.5634
 20
17.2689
 30
0.0
 10
10.7671
 20
16.8395
 30
0.0
 10
10.7671
 20
16.8395
 30
0.0
 10
10.9473
 20
17.1452
 30
0.0
 10
11.1657
 20
17.3726
 30
0.0
 10
11.4222
 20
17.5237
 30
0.0
 10
11.4222
 20
17.5237
 30
0.0
 10
11.6788
 20
17.6747
 30
0.0
 10
11.9718
 20
17.7511
 30
0.0
 10
12.3012
 20
17.7511
 30
0.0
 10
12.3012
 20
17.7511
 30
0.0
 10
13.0017
 20
17.7511
 30
0.0
 10
13.6094
 20
17.4891
 30
0.0
 10
14.1226
 20
16.965
 30
0.0
 10
14.1226
 20
16.965
 30
0.0
 10
14.6357
 20
16.4409
 30
0.0
 10
14.8923
 20
15.8132
 30
0.0
 10
14.8923
 20
15.0853
 30
0.0
 10
14.8923
 20
15.0853
 30
0.0
 10
14.8923
 20
14.3775
 30
0.0
 10
14.6939
 20
13.8061
 30
0.0
 10
14.2991
 20
13.3712
 30
0.0
 10
14.2991
 20
13.3712
 30
0.0
 10
13.9024
 20
12.9364
 30
0.0
 10
13.3729
 20
12.6925
 30
0.0
 10
12.7124
 20
12.6434
 30
0.0
  0
SPLINE
  5
3C
330
1F
100
AcDbEntity
  8
Ebene 1
 62
   250
100
AcDbSpline
210
0.0
220
0.0
230
1.0
 70
    11
 71
     3
 72
    52
 73
    48
 74
     0
 42
0.0000000001
 43
0.0000000001
 40
0.0
 40
0.0
 40
0.0
 40
0.0
 40
0.0833333333333333
 40
0.0833333333333333
 40
0.0833333333333333
 40
0.0833333333333333
 40
0.1666666666666667
 40
0.1666666666666667
 40
0.1666666666666667
 40
0.1666666666666667
 40
0.25
 40
0.25
 40
0.25
 40
0.25
 40
0.3333333333333333
 40
0.3333333333333333
 40
0.3333333333333333
 40
0.3333333333333333
 40
0.4166666666666666
 40
0.4166666666666666
 40
0.4166666666666666
 40
0.4166666666666666
 40
0.4999999999999999
 40
0.4999999999999999
 40
0.4999999999999999
 40
0.4999999999999999
 40
0.5833333333333333
 40
0.5833333333333333
 40
0.5833333333333333
 40
0.5833333333333333
 40
0.6666666666666666
 40
0.6666666666666666
 40
0.6666666666666666
 40
0.6666666666666666
 40
0.75
 40
0.75
 40
0.75
 40
0.75
 40
0.8333333333333334
 40
0.8333333333333334
 40
0.8333333333333334
 40
0.8333333333333334
 40
0.9166666666666667
 40
0.9166666666666667
 40
0.9166666666666667
 40
0.9166666666666667
 40
1.0
 40
1.0
 40
1.0
 40
1.0
 10
12.1955
 20
18.892
 30
0.0
 10
11.535
 20
18.892
 30
0.0
 10
10.8618
 20
18.9902
 30
0.0
 10
10.1794
 20
19.1868
 30
0.0
 10
10.1794
 20
19.1868
 30
0.0
 10
9.497
 20
19.3851
 30
0.0
 10
8.953000000000001
 20
19.6035
 30
0.0
 10
8.5436
 20
19.8455
 30
0.0
 10
8.5436
 20
19.8455
 30
0.0
 10
8.1342
 20
20.0875
 30
0.0
 10
7.815700000000001
 20
20.3386
 30
0.0
 10
7.584700000000001
 20
20.597
 30
0.0
 10
7.584700000000001
 20
20.597
 30
0.0
 10
7.3536
 20
20.8572
 30
0.0
 10
7.1825
 20
21.112
 30
0.0
 10
7.0751
 20
21.363
 30
0.0
 10
7.0751
 20
21.363
 30
0.0
 10
6.966
 20
21.6124
 30
0.0
 10
6.9114
 20
21.8908
 30
0.0
 10
6.9114
 20
22.1964
 30
0.0
 10
6.9114
 20
22.1964
 30
0.0
 10
6.9114
 20
22.7933
 30
0.0
 10
7.1352
 20
23.2919
 30
0.0
 10
7.5792
 20
23.6922
 30
0.0
 10
7.5792
 20
23.6922
 30
0.0
 10
8.023200000000001
 20
24.0925
 30
0.0
 10
8.6637
 20
24.2926
 30
0.0
 10
9.502500000000001
 20
24.2926
 30
0.0
 10
9.502500000000001
 20
24.2926
 30
0.0
 10
10.3668
 20
24.2926
 30
0.0
 10
11.2221
 20
24.1525
 30
0.0
 10
12.0664
 20
23.876
 30
0.0
 10
12.0664
 20
23.876
 30
0.0
 10
13.069
 20
23.5484
 30
0.0
 10
13.8205
 20
23.0936
 30
0.0
 10
14.3228
 20
22.5113
 30
0.0
 10
14.3228
 20
22.5113
 30
0.0
 10
14.703
 20
22.0636
 30
0.0
 10
14.8923
 20
21.5541
 30
0.0
 10
14.8923
 20
20.981
 30
0.0
 10
14.8923
 20
20.981
 30
0.0
 10
14.8923
 20
20.395
 30
0.0
 10
14.663
 20
19.9001
 30
0.0
 10
14.2026
 20
19.4962
 30
0.0
 10
14.2026
 20
19.4962
 30
0.0
 10
13.7423
 20
19.094
 30
0.0
 10
13.0726
 20
18.892
 30
0.0
 10
12.1955
 20
18.892
 30
0.0
  0
SPLINE
  5
3D
330
1F
100
AcDbEntity
  8
Ebene 1
 62
   250
100
AcDbSpline
210
0.0
220
0.0
230
1.0
 70
    11
 71
     3
 72
    48
 73
    44
 74
     0
 42
0.0000000001
 43
0.0000000001
 40
0.0
 40
0.0
 40
0.0
 40
0.0
 40
0.0909090909090909
 40
0.0909090909090909
 40
0.0909090909090909
 40
0.0909090909090909
 40
0.1818181818181818
 40
0.1818181818181818
 40
0.1818181818181818
 40
0.1818181818181818
 40
0.2727272727272727
 40
0.2727272727272727
 40
0.2727272727272727
 40
0.2727272727272727
 40
0.3636363636363637
 40
0.3636363636363637
 40
0.3636363636363637
 40
0.3636363636363637
 40
0.4545454545454546
 40
0.4545454545454546
 40
0.4545454545454546
 40
0.4545454545454546
 40
0.5454545454545455
 40
0.5454545454545455
 40
0.5454545454545455
 40
0.5454545454545455
 40
0.6363636363636365
 40
0.6363636363636365
 40
0.6363636363636365
 40
0.6363636363636365
 40
0.7272727272727274
 40
0.7272727272727274
 40
0.7272727272727274
 40
0.7272727272727274
 40
0.8181818181818183
 40
0.8181818181818183
 40
0.8181818181818183
 40
0.8181818181818183
 40
0.9090909090909093
 40
0.9090909090909093
 40
0.9090909090909093
 40
0.9090909090909093
 40
1.0
 40
1.0
 40
1.0
 40
1.0
 10
12.4412
 20
19.8254
 30
0.0
 10
12.9198
 20
19.8254
 30
0.0
 10
13.2947
 20
19.9037
 30
0.0
 10
13.5658
 20
20.0638
 30
0.0
 10
13.5658
 20
20.0638
 30
0.0
 10
13.9388
 20
20.2804
 30
0.0
 10
14.1244
 20
20.6025
 30
0.0
 10
14.1244
 20
21.0301
 30
0.0
 10
14.1244
 20
21.0301
 30
0.0
 10
14.1244
 20
21.4031
 30
0.0
 10
13.957
 20
21.7415
 30
0.0
 10
13.6185
 20
22.0472
 30
0.0
 10
13.6185
 20
22.0472
 30
0.0
 10
13.1418
 20
22.4876
 30
0.0
 10
12.4448
 20
22.8206
 30
0.0
 10
11.526
 20
23.0426
 30
0.0
 10
11.526
 20
23.0426
 30
0.0
 10
10.6071
 20
23.2645
 30
0.0
 10
9.8574
 20
23.3756
 30
0.0
 10
9.273300000000001
 20
23.3756
 30
0.0
 10
9.273300000000001
 20
23.3756
 30
0.0
 10
8.7128
 20
23.3756
 30
0.0
 10
8.307
 20
23.2682
 30
0.0
 10
8.057700000000001
 20
23.0517
 30
0.0
 10
8.057700000000001
 20
23.0517
 30
0.0
 10
7.810300000000001
 20
22.8369
 30
0.0
 10
7.6847
 20
22.5549
 30
0.0
 10
7.6847
 20
22.2019
 30
0.0
 10
7.6847
 20
22.2019
 30
0.0
 10
7.6847
 20
21.9472
 30
0.0
 10
7.7503
 20
21.7069
 30
0.0
 10
7.883100000000001
 20
21.485
 30
0.0
 10
7.883100000000001
 20
21.485
 30
0.0
 10
8.014100000000001
 20
21.263
 30
0.0
 10
8.239700000000001
 20
21.0501
 30
0.0
 10
8.559900000000001
 20
20.8481
 30
0.0
 10
8.559900000000001
 20
20.8481
 30
0.0
 10
9.011200000000001
 20
20.5606
 30
0.0
 10
9.686300000000001
 20
20.3095
 30
0.0
 10
10.5852
 20
20.0966
 30
0.0
 10
10.5852
 20
20.0966
 30
0.0
 10
11.3531
 20
19.9147
 30
0.0
 10
11.9718
 20
19.8254
 30
0.0
 10
12.4412
 20
19.8254
 30
0.0
  0
SPLINE
  5
3E
330
1F
100
AcDbEntity
  8
Ebene 1
 62
   250
100
AcDbSpline
210
0.0
220
0.0
230
1.0
 70
    11
 71
     3
 72
    84
 73
    80
 74
     0
 42
0.0000000001
 43
0.0000000001
 40
0.0
 40
0.0
 40
0.0
 40
0.0
 40
0.05
 40
0.05
 40
0.05
 40
0.05
 40
0.1
 40
0.1
 40
0.1
 40
0.1
 40
0.15
 40
0.15
 40
0.15
 40
0.15
 40
0.2
 40
0.2
 40
0.2
 40
0.2
 40
0.25
 40
0.25
 40
0.25
 40
0.25
 40
0.3
 40
0.3
 40
0.3
 40
0.3
 40
0.35
 40
0.35
 40
0.35
 40
0.35
 40
0.4
 40
0.4
 40
0.4
 40
0.4
 40
0.45
 40
0.45
 40
0.45
 40
0.45
 40
0.4999999999999999
 40
0.4999999999999999
 40
0.4999999999999999
 40
0.4999999999999999
 40
0.5499999999999999
 40
0.5499999999999999
 40
0.5499999999999999
 40
0.5499999999999999
 40
0.6
 40
0.6
 40
0.6
 40
0.6
 40
0.65
 40
0.65
 40
0.65
 40
0.65
 40
0.7000000000000001
 40
0.7000000000000001
 40
0.7000000000000001
 40
0.7000000000000001
 40
0.7500000000000001
 40
0.7500000000000001
 40
0.7500000000000001
 40
0.7500000000000001
 40
0.8000000000000002
 40
0.8000000000000002
 40
0.8000000000000002
 40
0.8000000000000002
 40
0.8500000000000002
 40
0.8500000000000002
 40
0.8500000000000002
 40
0.8500000000000002
 40
0.9000000000000002
 40
0.9000000000000002
 40
0.9000000000000002
 40
0.9000000000000002
 40
0.9500000000000003
 40
0.9500000000000003
 40
0.9500000000000003
 40
0.9500000000000003
 40
1.0
 40
1.0
 40
1.0
 40
1.0
 10
23.1216
 20
8.983700000000001
 30
0.0
 10
22.8977
 20
9.253
 30
0.0
 10
22.7285
 20
9.5222
 30
0.0
 10
22.6175
 20
9.791600000000001
 30
0.0
 10
22.6175
 20
9.791600000000001
 30
0.0
 10
22.5047
 20
10.059
 30
0.0
 10
22.4502
 20
10.3247
 30
0.0
 10
22.4502
 20
10.5885
 30
0.0
 10
22.4502
 20
10.5885
 30
0.0
 10
22.4502
 20
11.1817
 30
0.0
 10
22.6521
 20
11.673
 30
0.0
 10
23.0579
 20
12.0588
 30
0.0
 10
23.0579
 20
12.0588
 30
0.0
 10
23.4618
 20
12.4464
 30
0.0
 10
24.0077
 20
12.6411
 30
0.0
 10
24.6937
 20
12.6411
 30
0.0
 10
24.6937
 20
12.6411
 30
0.0
 10
25.5781
 20
12.6411
 30
0.0
 10
26.3368
 20
12.3536
 30
0.0
 10
26.9701
 20
11.7768
 30
0.0
 10
26.9701
 20
11.7768
 30
0.0
 10
27.5142
 20
11.28
 30
0.0
 10
27.7853
 20
10.6759
 30
0.0
 10
27.7853
 20
9.964400000000001
 30
0.0
 10
27.7853
 20
9.964400000000001
 30
0.0
 10
27.7853
 20
9.318400000000001
 30
0.0
 10
27.5487
 20
8.778000000000001
 30
0.0
 10
27.0738
 20
8.3468
 30
0.0
 10
27.0738
 20
8.3468
 30
0.0
 10
26.5989
 20
7.915500000000001
 30
0.0
 10
25.9238
 20
7.699000000000001
 30
0.0
 10
25.0449
 20
7.699000000000001
 30
0.0
 10
25.0449
 20
7.699000000000001
 30
0.0
 10
24.2607
 20
7.699000000000001
 30
0.0
 10
23.4473
 20
7.8373
 30
0.0
 10
22.6102
 20
8.1157
 30
0.0
 10
22.6102
 20
8.1157
 30
0.0
 10
21.9661
 20
8.3286
 30
0.0
 10
21.4348
 20
8.5924
 30
0.0
 10
21.0181
 20
8.9072
 30
0.0
 10
21.0181
 20
8.9072
 30
0.0
 10
20.6014
 20
9.2202
 30
0.0
 10
20.2939
 20
9.555
 30
0.0
 10
20.0992
 20
9.908000000000001
 30
0.0
 10
20.0992
 20
9.908000000000001
 30
0.0
 10
19.9027
 20
10.2628
 30
0.0
 10
19.8044
 20
10.6614
 30
0.0
 10
19.8044
 20
11.1053
 30
0.0
 10
19.8044
 20
11.1053
 30
0.0
 10
19.8044
 20
11.6385
 30
0.0
 10
19.9718
 20
12.0734
 30
0.0
 10
20.303
 20
12.4118
 30
0.0
 10
20.303
 20
12.4118
 30
0.0
 10
20.636
 20
12.7485
 30
0.0
 10
21.1109
 20
12.9414
 30
0.0
 10
21.7295
 20
12.9869
 30
0.0
 10
21.7295
 20
12.9869
 30
0.0
 10
21.7295
 20
12.9869
 30
0.0
 10
21.8151
 20
12.0915
 30
0.0
 10
21.8151
 20
12.0915
 30
0.0
 10
21.8151
 20
12.0915
 30
0.0
 10
21.3929
 20
12.0424
 30
0.0
 10
21.0872
 20
11.9223
 30
0.0
 10
20.898
 20
11.7313
 30
0.0
 10
20.898
 20
11.7313
 30
0.0
 10
20.7106
 20
11.5421
 30
0.0
 10
20.6159
 20
11.3091
 30
0.0
 10
20.6159
 20
11.0362
 30
0.0
 10
20.6159
 20
11.0362
 30
0.0
 10
20.6159
 20
10.7487
 30
0.0
 10
20.727
 20
10.4593
 30
0.0
 10
20.9507
 20
10.1664
 30
0.0
 10
20.9507
 20
10.1664
 30
0.0
 10
21.1746
 20
9.875300000000001
 30
0.0
 10
21.5076
 20
9.626000000000001
 30
0.0
 10
21.9461
 20
9.414900000000001
 30
0.0
 10
21.9461
 20
9.414900000000001
 30
0.0
 10
22.3846
 20
9.2056
 30
0.0
 10
22.7758
 20
9.0619
 30
0.0
 10
23.1216
 20
8.983700000000001
 30
0.0
  0
SPLINE
  5
3F
330
1F
100
AcDbEntity
  8
Ebene 1
 62
   250
100
AcDbSpline
210
0.0
220
0.0
230
1.0
 70
    11
 71
     3
 72
    40
 73
    36
 74
     0
 42
0.0000000001
 43
0.0000000001
 40
0.0
 40
0.0
 40
0.0
 40
0.0
 40
0.1111111111111111
 40
0.1111111111111111
 40
0.1111111111111111
 40
0.1111111111111111
 40
0.2222222222222222
 40
0.2222222222222222
 40
0.2222222222222222
 40
0.2222222222222222
 40
0.3333333333333333
 40
0.3333333333333333
 40
0.3333333333333333
 40
0.3333333333333333
 40
0.4444444444444444
 40
0.4444444444444444
 40
0.4444444444444444
 40
0.4444444444444444
 40
0.5555555555555556
 40
0.5555555555555556
 40
0.5555555555555556
 40
0.5555555555555556
 40
0.6666666666666667
 40
0.6666666666666667
 40
0.6666666666666667
 40
0.6666666666666667
 40
0.7777777777777779
 40
0.7777777777777779
 40
0.7777777777777779
 40
0.7777777777777779
 40
0.8888888888888891
 40
0.8888888888888891
 40
0.8888888888888891
 40
0.8888888888888891
 40
1.0
 40
1.0
 40
1.0
 40
1.0
 10
25.4561
 20
8.647
 30
0.0
 10
25.8965
 20
8.647
 30
0.0
 10
26.2677
 20
8.785300000000001
 30
0.0
 10
26.5679
 20
9.058200000000001
 30
0.0
 10
26.5679
 20
9.058200000000001
 30
0.0
 10
26.8682
 20
9.331200000000001
 30
0.0
 10
27.0174
 20
9.640500000000001
 30
0.0
 10
27.0174
 20
9.9863
 30
0.0
 10
27.0174
 20
9.9863
 30
0.0
 10
27.0174
 20
10.2282
 30
0.0
 10
26.9264
 20
10.483
 30
0.0
 10
26.7426
 20
10.7541
 30
0.0
 10
26.7426
 20
10.7541
 30
0.0
 10
26.5607
 20
11.0234
 30
0.0
 10
26.2823
 20
11.2527
 30
0.0
 10
25.9092
 20
11.4419
 30
0.0
 10
25.9092
 20
11.4419
 30
0.0
 10
25.5362
 20
11.6294
 30
0.0
 10
25.165
 20
11.724
 30
0.0
 10
24.7956
 20
11.724
 30
0.0
 10
24.7956
 20
11.724
 30
0.0
 10
24.3189
 20
11.724
 30
0.0
 10
23.9367
 20
11.593
 30
0.0
 10
23.6511
 20
11.3328
 30
0.0
 10
23.6511
 20
11.3328
 30
0.0
 10
23.3654
 20
11.0708
 30
0.0
 10
23.2216
 20
10.756
 30
0.0
 10
23.2216
 20
10.3866
 30
0.0
 10
23.2216
 20
10.3866
 30
0.0
 10
23.2216
 20
9.959
 30
0.0
 10
23.4309
 20
9.562300000000001
 30
0.0
 10
23.8494
 20
9.1965
 30
0.0
 10
23.8494
 20
9.1965
 30
0.0
 10
24.2661
 20
8.8308
 30
0.0
 10
24.8029
 20
8.647
 30
0.0
 10
25.4561
 20
8.647
 30
0.0
  0
SPLINE
  5
40
330
1F
100
AcDbEntity
  8
Ebene 1
 62
   250
100
AcDbSpline
210
0.0
220
0.0
230
1.0
 70
    11
 71
     3
 72
    40
 73
    36
 74
     0
 42
0.0000000001
 43
0.0000000001
 40
0.0
 40
0.0
 40
0.0
 40
0.0
 40
0.1111111111111111
 40
0.1111111111111111
 40
0.1111111111111111
 40
0.1111111111111111
 40
0.2222222222222222
 40
0.2222222222222222
 40
0.2222222222222222
 40
0.2222222222222222
 40
0.3333333333333333
 40
0.3333333333333333
 40
0.3333333333333333
 40
0.3333333333333333
 40
0.4444444444444444
 40
0.4444444444444444
 40
0.4444444444444444
 40
0.4444444444444444
 40
0.5555555555555556
 40
0.5555555555555556
 40
0.5555555555555556
 40
0.5555555555555556
 40
0.6666666666666667
 40
0.6666666666666667
 40
0.6666666666666667
 40
0.6666666666666667
 40
0.7777777777777779
 40
0.7777777777777779
 40
0.7777777777777779
 40
0.7777777777777779
 40
0.8888888888888891
 40
0.8888888888888891
 40
0.8888888888888891
 40
0.8888888888888891
 40
1.0
 40
1.0
 40
1.0
 40
1.0
 10
27.6524
 20
15.487
 30
0.0
 10
27.6524
 20
15.487
 30
0.0
 10
21.7514
 20
16.7243
 30
0.0
 10
21.7514
 20
16.7243
 30
0.0
 10
21.7514
 20
16.7243
 30
0.0
 10
22.1699
 20
16.1912
 30
0.0
 10
22.5066
 20
15.4415
 30
0.0
 10
22.7595
 20
14.4753
 30
0.0
 10
22.7595
 20
14.4753
 30
0.0
 10
22.7595
 20
14.4753
 30
0.0
 10
21.8842
 20
14.6555
 30
0.0
 10
21.8842
 20
14.6555
 30
0.0
 10
21.8842
 20
14.6555
 30
0.0
 10
21.6932
 20
15.1358
 30
0.0
 10
21.442
 20
15.6089
 30
0.0
 10
21.1327
 20
16.0766
 30
0.0
 10
21.1327
 20
16.0766
 30
0.0
 10
20.8234
 20
16.5442
 30
0.0
 10
20.554
 20
16.8954
 30
0.0
 10
20.3229
 20
17.1301
 30
0.0
 10
20.3229
 20
17.1301
 30
0.0
 10
20.181
 20
17.272
 30
0.0
 10
20.0082
 20
17.4067
 30
0.0
 10
19.8044
 20
17.5341
 30
0.0
 10
19.8044
 20
17.5341
 30
0.0
 10
19.8044
 20
17.5341
 30
0.0
 10
19.8044
 20
18.0945
 30
0.0
 10
19.8044
 20
18.0945
 30
0.0
 10
19.8044
 20
18.0945
 30
0.0
 10
19.8044
 20
18.0945
 30
0.0
 10
27.6524
 20
16.4587
 30
0.0
 10
27.6524
 20
16.4587
 30
0.0
 10
27.6524
 20
16.4587
 30
0.0
 10
27.6524
 20
16.4587
 30
0.0
 10
27.6524
 20
15.487
 30
0.0
 10
27.6524
 20
15.487
 30
0.0
  0
SPLINE
  5
41
330
1F
100
AcDbEntity
  8
Ebene 1
 62
   250
100
AcDbSpline
210
0.0
220
0.0
230
1.0
 70
    11
 71
     3
 72
    36
 73
    32
 74
     0
 42
0.0000000001
 43
0.0000000001
 40
0.0
 40
0.0
 40
0.0
 40
0.0
 40
0.125
 40
0.125
 40
0.125
 40
0.125
 40
0.25
 40
0.25
 40
0.25
 40
0.25
 40
0.375
 40
0.375
 40
0.375
 40
0.375
 40
0.5
 40
0.5
 40
0.5
 40
0.5
 40
0.625
 40
0.625
 40
0.625
 40
0.625
 40
0.75
 40
0.75
 40
0.75
 40
0.75
 40
0.875
 40
0.875
 40
0.875
 40
0.875
 40
1.0
 40
1.0
 40
1.0
 40
1.0
 10
27.6524
 20
19.5229
 30
0.0
 10
27.6524
 20
19.5229
 30
0.0
 10
26.5588
 20
19.7521
 30
0.0
 10
26.5588
 20
19.7521
 30
0.0
 10
26.5588
 20
19.7521
 30
0.0
 10
26.5588
 20
19.7521
 30
0.0
 10
26.5588
 20
20.8512
 30
0.0
 10
26.5588
 20
20.8512
 30
0.0
 10
26.5588
 20
20.8512
 30
0.0
 10
26.5588
 20
20.8512
 30
0.0
 10
27.5142
 20
20.6529
 30
0.0
 10
27.5142
 20
20.6529
 30
0.0
 10
27.5142
 20
20.6529
 30
0.0
 10
28.0855
 20
20.5327
 30
0.0
 10
28.5058
 20
20.3453
 30
0.0
 10
28.7715
 20
20.0905
 30
0.0
 10
28.7715
 20
20.0905
 30
0.0
 10
29.039
 20
19.8376
 30
0.0
 10
29.1919
 20
19.5374
 30
0.0
 10
29.2301
 20
19.1935
 30
0.0
 10
29.2301
 20
19.1935
 30
0.0
 10
29.2301
 20
19.1935
 30
0.0
 10
28.8097
 20
19.2826
 30
0.0
 10
28.8097
 20
19.2826
 30
0.0
 10
28.8097
 20
19.2826
 30
0.0
 10
28.6914
 20
19.7066
 30
0.0
 10
28.3057
 20
19.985
 30
0.0
 10
27.6524
 20
20.1197
 30
0.0
 10
27.6524
 20
20.1197
 30
0.0
 10
27.6524
 20
20.1197
 30
0.0
 10
27.6524
 20
19.5229
 30
0.0
 10
27.6524
 20
19.5229
 30
0.0
  0
SPLINE
  5
42
330
1F
100
AcDbEntity
  8
Ebene 1
 62
   250
100
AcDbSpline
210
0.0
220
0.0
230
1.0
 70
    11
 71
     3
 72
   120
 73
   116
 74
     0
 42
0.0000000001
 43
0.0000000001
 40
0.0
 40
0.0
 40
0.0
 40
0.0
 40
0.0344827586206897
 40
0.0344827586206897
 40
0.0344827586206897
 40
0.0344827586206897
 40
0.0689655172413793
 40
0.0689655172413793
 40
0.0689655172413793
 40
0.0689655172413793
 40
0.103448275862069
 40
0.103448275862069
 40
0.103448275862069
 40
0.103448275862069
 40
0.1379310344827586
 40
0.1379310344827586
 40
0.1379310344827586
 40
0.1379310344827586
 40
0.1724137931034483
 40
0.1724137931034483
 40
0.1724137931034483
 40
0.1724137931034483
 40
0.206896551724138
 40
0.206896551724138
 40
0.206896551724138
 40
0.206896551724138
 40
0.2413793103448276
 40
0.2413793103448276
 40
0.2413793103448276
 40
0.2413793103448276
 40
0.2758620689655173
 40
0.2758620689655173
 40
0.2758620689655173
 40
0.2758620689655173
 40
0.310344827586207
 40
0.310344827586207
 40
0.310344827586207
 40
0.310344827586207
 40
0.3448275862068966
 40
0.3448275862068966
 40
0.3448275862068966
 40
0.3448275862068966
 40
0.3793103448275863
 40
0.3793103448275863
 40
0.3793103448275863
 40
0.3793103448275863
 40
0.413793103448276
 40
0.413793103448276
 40
0.413793103448276
 40
0.413793103448276
 40
0.4482758620689656
 40
0.4482758620689656
 40
0.4482758620689656
 40
0.4482758620689656
 40
0.4827586206896553
 40
0.4827586206896553
 40
0.4827586206896553
 40
0.4827586206896553
 40
0.517241379310345
 40
0.517241379310345
 40
0.517241379310345
 40
0.517241379310345
 40
0.5517241379310346
 40
0.5517241379310346
 40
0.5517241379310346
 40
0.5517241379310346
 40
0.5862068965517242
 40
0.5862068965517242
 40
0.5862068965517242
 40
0.5862068965517242
 40
0.6206896551724138
 40
0.6206896551724138
 40
0.6206896551724138
 40
0.6206896551724138
 40
0.6551724137931034
 40
0.6551724137931034
 40
0.6551724137931034
 40
0.6551724137931034
 40
0.689655172413793
 40
0.689655172413793
 40
0.689655172413793
 40
0.689655172413793
 40
0.7241379310344827
 40
0.7241379310344827
 40
0.7241379310344827
 40
0.7241379310344827
 40
0.7586206896551723
 40
0.7586206896551723
 40
0.7586206896551723
 40
0.7586206896551723
 40
0.7931034482758619
 40
0.7931034482758619
 40
0.7931034482758619
 40
0.7931034482758619
 40
0.8275862068965515
 40
0.8275862068965515
 40
0.8275862068965515
 40
0.8275862068965515
 40
0.8620689655172411
 40
0.8620689655172411
 40
0.8620689655172411
 40
0.8620689655172411
 40
0.8965517241379307
 40
0.8965517241379307
 40
0.8965517241379307
 40
0.8965517241379307
 40
0.9310344827586203
 40
0.9310344827586203
 40
0.9310344827586203
 40
0.9310344827586203
 40
0.9655172413793099
 40
0.9655172413793099
 40
0.9655172413793099
 40
0.9655172413793099
 40
1.0
 40
1.0
 40
1.0
 40
1.0
 10
25.4179
 20
22.7272
 30
0.0
 10
25.4179
 20
22.7272
 30
0.0
 10
25.3233
 20
23.708
 30
0.0
 10
25.3233
 20
23.708
 30
0.0
 10
25.3233
 20
23.708
 30
0.0
 10
25.4616
 20
23.7007
 30
0.0
 10
25.5453
 20
23.6971
 30
0.0
 10
25.5726
 20
23.6971
 30
0.0
 10
25.5726
 20
23.6971
 30
0.0
 10
25.8073
 20
23.6971
 30
0.0
 10
26.0439
 20
23.7571
 30
0.0
 10
26.2823
 20
23.8753
 30
0.0
 10
26.2823
 20
23.8753
 30
0.0
 10
26.5206
 20
23.9955
 30
0.0
 10
26.7026
 20
24.1574
 30
0.0
 10
26.8281
 20
24.3612
 30
0.0
 10
26.8281
 20
24.3612
 30
0.0
 10
26.9555
 20
24.565
 30
0.0
 10
27.0174
 20
24.7816
 30
0.0
 10
27.0174
 20
25.009
 30
0.0
 10
27.0174
 20
25.009
 30
0.0
 10
27.0174
 20
25.3074
 30
0.0
 10
26.9155
 20
25.6113
 30
0.0
 10
26.7081
 20
25.9206
 30
0.0
 10
26.7081
 20
25.9206
 30
0.0
 10
26.5024
 20
26.2299
 30
0.0
 10
26.2022
 20
26.4792
 30
0.0
 10
25.8073
 20
26.6721
 30
0.0
 10
25.8073
 20
26.6721
 30
0.0
 10
25.4143
 20
26.8632
 30
0.0
 10
25.0231
 20
26.9596
 30
0.0
 10
24.6355
 20
26.9596
 30
0.0
 10
24.6355
 20
26.9596
 30
0.0
 10
24.1988
 20
26.9596
 30
0.0
 10
23.8476
 20
26.8304
 30
0.0
 10
23.5856
 20
26.5738
 30
0.0
 10
23.5856
 20
26.5738
 30
0.0
 10
23.3217
 20
26.3155
 30
0.0
 10
23.1907
 20
25.977
 30
0.0
 10
23.1907
 20
25.5585
 30
0.0
 10
23.1907
 20
25.5585
 30
0.0
 10
23.1907
 20
25.2765
 30
0.0
 10
23.2581
 20
25.0108
 30
0.0
 10
23.3927
 20
24.7615
 30
0.0
 10
23.3927
 20
24.7615
 30
0.0
 10
23.5274
 20
24.5104
 30
0.0
 10
23.7312
 20
24.2775
 30
0.0
 10
24.0004
 20
24.0592
 30
0.0
 10
24.0004
 20
24.0592
 30
0.0
 10
24.0004
 20
24.0592
 30
0.0
 10
23.9422
 20
23.2167
 30
0.0
 10
23.9422
 20
23.2167
 30
0.0
 10
23.9422
 20
23.2167
 30
0.0
 10
23.9422
 20
23.2167
 30
0.0
 10
19.9445
 20
24.3958
 30
0.0
 10
19.9445
 20
24.3958
 30
0.0
 10
19.9445
 20
24.3958
 30
0.0
 10
19.9445
 20
24.3958
 30
0.0
 10
19.9445
 20
28.2134
 30
0.0
 10
19.9445
 20
28.2134
 30
0.0
 10
19.9445
 20
28.2134
 30
0.0
 10
19.9445
 20
28.2134
 30
0.0
 10
20.8289
 20
28.0259
 30
0.0
 10
20.8289
 20
28.0259
 30
0.0
 10
20.8289
 20
28.0259
 30
0.0
 10
20.8289
 20
28.0259
 30
0.0
 10
20.8289
 20
25.0563
 30
0.0
 10
20.8289
 20
25.0563
 30
0.0
 10
20.8289
 20
25.0563
 30
0.0
 10
20.8289
 20
25.0563
 30
0.0
 10
22.8177
 20
24.4704
 30
0.0
 10
22.8177
 20
24.4704
 30
0.0
 10
22.8177
 20
24.4704
 30
0.0
 10
22.6576
 20
24.6906
 30
0.0
 10
22.5374
 20
24.9181
 30
0.0
 10
22.4574
 20
25.1491
 30
0.0
 10
22.4574
 20
25.1491
 30
0.0
 10
22.3773
 20
25.382
 30
0.0
 10
22.3373
 20
25.6222
 30
0.0
 10
22.3373
 20
25.8678
 30
0.0
 10
22.3373
 20
25.8678
 30
0.0
 10
22.3373
 20
26.4647
 30
0.0
 10
22.5338
 20
26.9542
 30
0.0
 10
22.9287
 20
27.3381
 30
0.0
 10
22.9287
 20
27.3381
 30
0.0
 10
23.3235
 20
27.7221
 30
0.0
 10
23.8639
 20
27.9149
 30
0.0
 10
24.55
 20
27.9149
 30
0.0
 10
24.55
 20
27.9149
 30
0.0
 10
25.1504
 20
27.9149
 30
0.0
 10
25.7036
 20
27.7821
 30
0.0
 10
26.2113
 20
27.5201
 30
0.0
 10
26.2113
 20
27.5201
 30
0.0
 10
26.7171
 20
27.2562
 30
0.0
 10
27.1065
 20
26.8942
 30
0.0
 10
27.3777
 20
26.4356
 30
0.0
 10
27.3777
 20
26.4356
 30
0.0
 10
27.6506
 20
25.9752
 30
0.0
 10
27.7853
 20
25.4784
 30
0.0
 10
27.7853
 20
24.9453
 30
0.0
 10
27.7853
 20
24.9453
 30
0.0
 10
27.7853
 20
24.4977
 30
0.0
 10
27.6852
 20
24.101
 30
0.0
 10
27.4814
 20
23.7553
 30
0.0
 10
27.4814
 20
23.7553
 30
0.0
 10
27.2794
 20
23.4113
 30
0.0
 10
27.001
 20
23.153
 30
0.0
 10
26.6444
 20
22.9801
 30
0.0
 10
26.6444
 20
22.9801
 30
0.0
 10
26.2896
 20
22.8072
 30
0.0
 10
25.9347
 20
22.7218
 30
0.0
 10
25.5781
 20
22.7218
 30
0.0
 10
25.5781
 20
22.7218
 30
0.0
 10
25.5435
 20
22.7218
 30
0.0
 10
25.4907
 20
22.7235
 30
0.0
 10
25.4179
 20
22.7272
 30
0.0
  0
SPLINE
  5
43
330
1F
100
AcDbEntity
  8
Ebene 1
 62
   250
100
AcDbSpline
210
0.0
220
0.0
230
1.0
 70
    11
 71
     3
 72
   120
 73
   116
 74
     0
 42
0.0000000001
 43
0.0000000001
 40
0.0
 40
0.0
 40
0.0
 40
0.0
 40
0.0344827586206897
 40
0.0344827586206897
 40
0.0344827586206897
 40
0.0344827586206897
 40
0.0689655172413793
 40
0.0689655172413793
 40
0.0689655172413793
 40
0.0689655172413793
 40
0.103448275862069
 40
0.103448275862069
 40
0.103448275862069
 40
0.103448275862069
 40
0.1379310344827586
 40
0.1379310344827586
 40
0.1379310344827586
 40
0.1379310344827586
 40
0.1724137931034483
 40
0.1724137931034483
 40
0.1724137931034483
 40
0.1724137931034483
 40
0.206896551724138
 40
0.206896551724138
 40
0.206896551724138
 40
0.206896551724138
 40
0.2413793103448276
 40
0.2413793103448276
 40
0.2413793103448276
 40
0.2413793103448276
 40
0.2758620689655173
 40
0.2758620689655173
 40
0.2758620689655173
 40
0.2758620689655173
 40
0.310344827586207
 40
0.310344827586207
 40
0.310344827586207
 40
0.310344827586207
 40
0.3448275862068966
 40
0.3448275862068966
 40
0.3448275862068966
 40
0.3448275862068966
 40
0.3793103448275863
 40
0.3793103448275863
 40
0.3793103448275863
 40
0.3793103448275863
 40
0.413793103448276
 40
0.413793103448276
 40
0.413793103448276
 40
0.413793103448276
 40
0.4482758620689656
 40
0.4482758620689656
 40
0.4482758620689656
 40
0.4482758620689656
 40
0.4827586206896553
 40
0.4827586206896553
 40
0.4827586206896553
 40
0.4827586206896553
 40
0.517241379310345
 40
0.517241379310345
 40
0.517241379310345
 40
0.517241379310345
 40
0.5517241379310346
 40
0.5517241379310346
 40
0.5517241379310346
 40
0.5517241379310346
 40
0.5862068965517242
 40
0.5862068965517242
 40
0.5862068965517242
 40
0.5862068965517242
 40
0.6206896551724138
 40
0.6206896551724138
 40
0.6206896551724138
 40
0.6206896551724138
 40
0.6551724137931034
 40
0.6551724137931034
 40
0.6551724137931034
 40
0.6551724137931034
 40
0.689655172413793
 40
0.689655172413793
 40
0.689655172413793
 40
0.689655172413793
 40
0.7241379310344827
 40
0.7241379310344827
 40
0.7241379310344827
 40
0.7241379310344827
 40
0.7586206896551723
 40
0.7586206896551723
 40
0.7586206896551723
 40
0.7586206896551723
 40
0.7931034482758619
 40
0.7931034482758619
 40
0.7931034482758619
 40
0.7931034482758619
 40
0.8275862068965515
 40
0.8275862068965515
 40
0.8275862068965515
 40
0.8275862068965515
 40
0.8620689655172411
 40
0.8620689655172411
 40
0.8620689655172411
 40
0.8620689655172411
 40
0.8965517241379307
 40
0.8965517241379307
 40
0.8965517241379307
 40
0.8965517241379307
 40
0.9310344827586203
 40
0.9310344827586203
 40
0.9310344827586203
 40
0.9310344827586203
 40
0.9655172413793099
 40
0.9655172413793099
 40
0.9655172413793099
 40
0.9655172413793099
 40
1.0
 40
1.0
 40
1.0
 40
1.0
 10
12.643
 20
-44.717
 30
0.0
 10
12.643
 20
-44.717
 30
0.0
 10
12.5484
 20
-43.7362
 30
0.0
 10
12.5484
 20
-43.7362
 30
0.0
 10
12.5484
 20
-43.7362
 30
0.0
 10
12.6867
 20
-43.7435
 30
0.0
 10
12.7704
 20
-43.7471
 30
0.0
 10
12.7977
 20
-43.7471
 30
0.0
 10
12.7977
 20
-43.7471
 30
0.0
 10
13.0324
 20
-43.7471
 30
0.0
 10
13.269
 20
-43.6871
 30
0.0
 10
13.5074
 20
-43.5689
 30
0.0
 10
13.5074
 20
-43.5689
 30
0.0
 10
13.7457
 20
-43.4487
 30
0.0
 10
13.9277
 20
-43.2868
 30
0.0
 10
14.0532
 20
-43.08300000000001
 30
0.0
 10
14.0532
 20
-43.08300000000001
 30
0.0
 10
14.1806
 20
-42.8792
 30
0.0
 10
14.2425
 20
-42.66260000000001
 30
0.0
 10
14.2425
 20
-42.4352
 30
0.0
 10
14.2425
 20
-42.4352
 30
0.0
 10
14.2425
 20
-42.1368
 30
0.0
 10
14.1406
 20
-41.8329
 30
0.0
 10
13.9332
 20
-41.5236
 30
0.0
 10
13.9332
 20
-41.5236
 30
0.0
 10
13.7275
 20
-41.2143
 30
0.0
 10
13.4273
 20
-40.965
 30
0.0
 10
13.0324
 20
-40.7721
 30
0.0
 10
13.0324
 20
-40.7721
 30
0.0
 10
12.6394
 20
-40.581
 30
0.0
 10
12.2482
 20
-40.4846
 30
0.0
 10
11.8606
 20
-40.4846
 30
0.0
 10
11.8606
 20
-40.4846
 30
0.0
 10
11.4239
 20
-40.4846
 30
0.0
 10
11.0727
 20
-40.61380000000001
 30
0.0
 10
10.8107
 20
-40.8704
 30
0.0
 10
10.8107
 20
-40.8704
 30
0.0
 10
10.5468
 20
-41.1287
 30
0.0
 10
10.4158
 20
-41.46720000000001
 30
0.0
 10
10.4158
 20
-41.8857
 30
0.0
 10
10.4158
 20
-41.8857
 30
0.0
 10
10.4158
 20
-42.1677
 30
0.0
 10
10.4832
 20
-42.4334
 30
0.0
 10
10.6178
 20
-42.6827
 30
0.0
 10
10.6178
 20
-42.6827
 30
0.0
 10
10.7525
 20
-42.93380000000001
 30
0.0
 10
10.9563
 20
-43.1667
 30
0.0
 10
11.2255
 20
-43.38500000000001
 30
0.0
 10
11.2255
 20
-43.38500000000001
 30
0.0
 10
11.2255
 20
-43.38500000000001
 30
0.0
 10
11.1673
 20
-44.2275
 30
0.0
 10
11.1673
 20
-44.2275
 30
0.0
 10
11.1673
 20
-44.2275
 30
0.0
 10
11.1673
 20
-44.2275
 30
0.0
 10
7.1696
 20
-43.0484
 30
0.0
 10
7.1696
 20
-43.0484
 30
0.0
 10
7.1696
 20
-43.0484
 30
0.0
 10
7.1696
 20
-43.0484
 30
0.0
 10
7.1696
 20
-39.2308
 30
0.0
 10
7.1696
 20
-39.2308
 30
0.0
 10
7.1696
 20
-39.2308
 30
0.0
 10
7.1696
 20
-39.2308
 30
0.0
 10
8.054
 20
-39.4183
 30
0.0
 10
8.054
 20
-39.4183
 30
0.0
 10
8.054
 20
-39.4183
 30
0.0
 10
8.054
 20
-39.4183
 30
0.0
 10
8.054
 20
-42.3879
 30
0.0
 10
8.054
 20
-42.3879
 30
0.0
 10
8.054
 20
-42.3879
 30
0.0
 10
8.054
 20
-42.3879
 30
0.0
 10
10.0428
 20
-42.9738
 30
0.0
 10
10.0428
 20
-42.9738
 30
0.0
 10
10.0428
 20
-42.9738
 30
0.0
 10
9.8827
 20
-42.7536
 30
0.0
 10
9.762500000000001
 20
-42.5261
 30
0.0
 10
9.682500000000001
 20
-42.29510000000001
 30
0.0
 10
9.682500000000001
 20
-42.29510000000001
 30
0.0
 10
9.602400000000001
 20
-42.0622
 30
0.0
 10
9.5624
 20
-41.822
 30
0.0
 10
9.5624
 20
-41.5764
 30
0.0
 10
9.5624
 20
-41.5764
 30
0.0
 10
9.5624
 20
-40.9795
 30
0.0
 10
9.758900000000001
 20
-40.49
 30
0.0
 10
10.1538
 20
-40.10610000000001
 30
0.0
 10
10.1538
 20
-40.10610000000001
 30
0.0
 10
10.5486
 20
-39.72210000000001
 30
0.0
 10
11.089
 20
-39.5293
 30
0.0
 10
11.7751
 20
-39.5293
 30
0.0
 10
11.7751
 20
-39.5293
 30
0.0
 10
12.3755
 20
-39.5293
 30
0.0
 10
12.9287
 20
-39.6621
 30
0.0
 10
13.4364
 20
-39.9241
 30
0.0
 10
13.4364
 20
-39.9241
 30
0.0
 10
13.9422
 20
-40.188
 30
0.0
 10
14.3316
 20
-40.55
 30
0.0
 10
14.6028
 20
-41.0086
 30
0.0
 10
14.6028
 20
-41.0086
 30
0.0
 10
14.8757
 20
-41.469
 30
0.0
 10
15.0104
 20
-41.9658
 30
0.0
 10
15.0104
 20
-42.4989
 30
0.0
 10
15.0104
 20
-42.4989
 30
0.0
 10
15.0104
 20
-42.9465
 30
0.0
 10
14.9103
 20
-43.3432
 30
0.0
 10
14.7065
 20
-43.6889
 30
0.0
 10
14.7065
 20
-43.6889
 30
0.0
 10
14.5045
 20
-44.03290000000001
 30
0.0
 10
14.2261
 20
-44.2912
 30
0.0
 10
13.8695
 20
-44.4641
 30
0.0
 10
13.8695
 20
-44.4641
 30
0.0
 10
13.5147
 20
-44.637
 30
0.0
 10
13.1598
 20
-44.7224
 30
0.0
 10
12.8032
 20
-44.7224
 30
0.0
 10
12.8032
 20
-44.7224
 30
0.0
 10
12.7686
 20
-44.7224
 30
0.0
 10
12.7158
 20
-44.7207
 30
0.0
 10
12.643
 20
-44.717
 30
0.0
  0
SPLINE
  5
44
330
1F
100
AcDbEntity
  8
Ebene 1
 62
   250
100
AcDbSpline
210
0.0
220
0.0
230
1.0
 70
    11
 71
     3
 72
    40
 73
    36
 74
     0
 42
0.0000000001
 43
0.0000000001
 40
0.0
 40
0.0
 40
0.0
 40
0.0
 40
0.1111111111111111
 40
0.1111111111111111
 40
0.1111111111111111
 40
0.1111111111111111
 40
0.2222222222222222
 40
0.2222222222222222
 40
0.2222222222222222
 40
0.2222222222222222
 40
0.3333333333333333
 40
0.3333333333333333
 40
0.3333333333333333
 40
0.3333333333333333
 40
0.4444444444444444
 40
0.4444444444444444
 40
0.4444444444444444
 40
0.4444444444444444
 40
0.5555555555555556
 40
0.5555555555555556
 40
0.5555555555555556
 40
0.5555555555555556
 40
0.6666666666666667
 40
0.6666666666666667
 40
0.6666666666666667
 40
0.6666666666666667
 40
0.7777777777777779
 40
0.7777777777777779
 40
0.7777777777777779
 40
0.7777777777777779
 40
0.8888888888888891
 40
0.8888888888888891
 40
0.8888888888888891
 40
0.8888888888888891
 40
1.0
 40
1.0
 40
1.0
 40
1.0
 10
14.8775
 20
-36.7798
 30
0.0
 10
14.8775
 20
-36.7798
 30
0.0
 10
8.9765
 20
-35.5425
 30
0.0
 10
8.9765
 20
-35.5425
 30
0.0
 10
8.9765
 20
-35.5425
 30
0.0
 10
9.395
 20
-36.0756
 30
0.0
 10
9.7317
 20
-36.8253
 30
0.0
 10
9.9846
 20
-37.7915
 30
0.0
 10
9.9846
 20
-37.7915
 30
0.0
 10
9.9846
 20
-37.7915
 30
0.0
 10
9.109300000000001
 20
-37.6113
 30
0.0
 10
9.109300000000001
 20
-37.6113
 30
0.0
 10
9.109300000000001
 20
-37.6113
 30
0.0
 10
8.9183
 20
-37.131
 30
0.0
 10
8.6671
 20
-36.65790000000001
 30
0.0
 10
8.357800000000001
 20
-36.1902
 30
0.0
 10
8.357800000000001
 20
-36.1902
 30
0.0
 10
8.048500000000001
 20
-35.7226
 30
0.0
 10
7.779100000000001
 20
-35.3714
 30
0.0
 10
7.548
 20
-35.13670000000001
 30
0.0
 10
7.548
 20
-35.13670000000001
 30
0.0
 10
7.4061
 20
-34.99480000000001
 30
0.0
 10
7.233300000000001
 20
-34.8601
 30
0.0
 10
7.029500000000001
 20
-34.7327
 30
0.0
 10
7.029500000000001
 20
-34.7327
 30
0.0
 10
7.029500000000001
 20
-34.7327
 30
0.0
 10
7.029500000000001
 20
-34.1723
 30
0.0
 10
7.029500000000001
 20
-34.1723
 30
0.0
 10
7.029500000000001
 20
-34.1723
 30
0.0
 10
7.029500000000001
 20
-34.1723
 30
0.0
 10
14.8775
 20
-35.8081
 30
0.0
 10
14.8775
 20
-35.8081
 30
0.0
 10
14.8775
 20
-35.8081
 30
0.0
 10
14.8775
 20
-35.8081
 30
0.0
 10
14.8775
 20
-36.7798
 30
0.0
 10
14.8775
 20
-36.7798
 30
0.0
  0
SPLINE
  5
45
330
1F
100
AcDbEntity
  8
Ebene 1
  6
New Line1
370
    15
100
AcDbSpline
210
0.0
220
0.0
230
1.0
 70
    24
 71
     3
 72
     8
 73
     4
 74
     0
 42
0.0000000001
 43
0.0000000001
 40
0.0
 40
0.0
 40
0.0
 40
0.0
 40
1.0
 40
1.0
 40
1.0
 40
1.0
 10
-18.0865
 20
30.029
 30
0.0
 10
-18.0865
 20
30.029
 30
0.0
 10
-18.0865
 20
6.721500000000001
 30
0.0
 10
-18.0865
 20
6.721500000000001
 30
0.0
  0
SPLINE
  5
47
330
1F
100
AcDbEntity
  8
Ebene 1
  6
New Line2
370
    15
100
AcDbSpline
210
0.0
220
0.0
230
1.0
 70
    24
 71
     3
 72
     8
 73
     4
 74
     0
 42
0.0000000001
 43
0.0000000001
 40
0.0
 40
0.0
 40
0.0
 40
0.0
 40
1.0
 40
1.0
 40
1.0
 40
1.0
 10
-39.80430000000001
 20
-39.7233
 30
0.0
 10
-39.80430000000001
 20
-39.7233
 30
0.0
 10
3.6546
 20
-39.7233
 30
0.0
 10
3.6546
 20
-39.7233
 30
0.0
  0
SPLINE
  5
49
330
1F
100
AcDbEntity
  8
Ebene 1
 62
   250
370
    15
100
AcDbSpline
210
0.0
220
0.0
230
1.0
 70
    24
 71
     3
 72
     8
 73
     4
 74
     0
 42
0.0000000001
 43
0.0000000001
 40
0.0
 40
0.0
 40
0.0
 40
0.0
 40
1.0
 40
1.0
 40
1.0
 40
1.0
 10
-39.4021
 20
27.8048
 30
0.0
 10
-39.4021
 20
27.8048
 30
0.0
 10
-39.4021
 20
36.8971
 30
0.0
 10
-39.4021
 20
36.8971
 30
0.0
  0
SPLINE
  5
4A
330
1F
100
AcDbEntity
  8
Ebene 1
 62
   250
370
    15
100
AcDbSpline
210
0.0
220
0.0
230
1.0
 70
    24
 71
     3
 72
     8
 73
     4
 74
     0
 42
0.0000000001
 43
0.0000000001
 40
0.0
 40
0.0
 40
0.0
 40
0.0
 40
1.0
 40
1.0
 40
1.0
 40
1.0
 10
3.2288
 20
27.8048
 30
0.0
 10
3.2288
 20
27.8048
 30
0.0
 10
3.2288
 20
36.8971
 30
0.0
 10
3.2288
 20
36.8971
 30
0.0
  0
SPLINE
  5
4B
330
1F
100
AcDbEntity
  8
Ebene 1
 62
   250
370
    15
100
AcDbSpline
210
0.0
220
0.0
230
1.0
 70
    24
 71
     3
 72
     8
 73
     4
 74
     0
 42
0.0000000001
 43
0.0000000001
 40
0.0
 40
0.0
 40
0.0
 40
0.0
 40
1.0
 40
1.0
 40
1.0
 40
1.0
 10
-39.4021
 20
36.1236
 30
0.0
 10
-39.4021
 20
36.1236
 30
0.0
 10
3.2288
 20
36.1236
 30
0.0
 10
3.2288
 20
36.1236
 30
0.0
  0
SPLINE
  5
4C
330
1F
100
AcDbEntity
  8
Ebene 1
 62
   250
370
    15
100
AcDbSpline
210
0.0
220
0.0
230
1.0
 70
    11
 71
     3
 72
    16
 73
    12
 74
     0
 42
0.0000000001
 43
0.0000000001
 40
0.0
 40
0.0
 40
0.0
 40
0.0
 40
0.3333333333333333
 40
0.3333333333333333
 40
0.3333333333333333
 40
0.3333333333333333
 40
0.6666666666666666
 40
0.6666666666666666
 40
0.6666666666666666
 40
0.6666666666666666
 40
1.0
 40
1.0
 40
1.0
 40
1.0
 10
-39.4021
 20
36.1236
 30
0.0
 10
-39.4021
 20
36.1236
 30
0.0
 10
-34.7598
 20
36.8199
 30
0.0
 10
-34.7598
 20
36.8199
 30
0.0
 10
-34.7598
 20
36.8199
 30
0.0
 10
-34.7598
 20
36.8199
 30
0.0
 10
-34.7598
 20
35.427
 30
0.0
 10
-34.7598
 20
35.427
 30
0.0
 10
-34.7598
 20
35.427
 30
0.0
 10
-34.7598
 20
35.427
 30
0.0
 10
-39.4021
 20
36.1236
 30
0.0
 10
-39.4021
 20
36.1236
 30
0.0
  0
SPLINE
  5
4D
330
1F
100
AcDbEntity
  8
Ebene 1
 62
   250
370
    15
100
AcDbSpline
210
0.0
220
0.0
230
1.0
 70
    11
 71
     3
 72
    16
 73
    12
 74
     0
 42
0.0000000001
 43
0.0000000001
 40
0.0
 40
0.0
 40
0.0
 40
0.0
 40
0.3333333333333333
 40
0.3333333333333333
 40
0.3333333333333333
 40
0.3333333333333333
 40
0.6666666666666666
 40
0.6666666666666666
 40
0.6666666666666666
 40
0.6666666666666666
 40
1.0
 40
1.0
 40
1.0
 40
1.0
 10
3.2288
 20
36.1236
 30
0.0
 10
3.2288
 20
36.1236
 30
0.0
 10
-1.4134
 20
35.427
 30
0.0
 10
-1.4134
 20
35.427
 30
0.0
 10
-1.4134
 20
35.427
 30
0.0
 10
-1.4134
 20
35.427
 30
0.0
 10
-1.4134
 20
36.8199
 30
0.0
 10
-1.4134
 20
36.8199
 30
0.0
 10
-1.4134
 20
36.8199
 30
0.0
 10
-1.4134
 20
36.8199
 30
0.0
 10
3.2288
 20
36.1236
 30
0.0
 10
3.2288
 20
36.1236
 30
0.0
  0
SPLINE
  5
4E
330
1F
100
AcDbEntity
  8
Ebene 1
 62
   250
370
    15
100
AcDbSpline
210
0.0
220
0.0
230
1.0
 70
    24
 71
     3
 72
     8
 73
     4
 74
     0
 42
0.0000000001
 43
0.0000000001
 40
0.0
 40
0.0
 40
0.0
 40
0.0
 40
1.0
 40
1.0
 40
1.0
 40
1.0
 10
-33.9476
 20
7.4953
 30
0.0
 10
-33.9476
 20
7.4953
 30
0.0
 10
-33.9476
 20
-6.071400000000001
 30
0.0
 10
-33.9476
 20
-6.071400000000001
 30
0.0
  0
SPLINE
  5
4F
330
1F
100
AcDbEntity
  8
Ebene 1
 62
   250
370
    15
100
AcDbSpline
210
0.0
220
0.0
230
1.0
 70
    24
 71
     3
 72
     8
 73
     4
 74
     0
 42
0.0000000001
 43
0.0000000001
 40
0.0
 40
0.0
 40
0.0
 40
0.0
 40
1.0
 40
1.0
 40
1.0
 40
1.0
 10
-2.2257
 20
7.4953
 30
0.0
 10
-2.2257
 20
7.4953
 30
0.0
 10
-2.2257
 20
-6.071400000000001
 30
0.0
 10
-2.2257
 20
-6.071400000000001
 30
0.0
  0
SPLINE
  5
50
330
1F
100
AcDbEntity
  8
Ebene 1
 62
   250
370
    15
100
AcDbSpline
210
0.0
220
0.0
230
1.0
 70
    24
 71
     3
 72
     8
 73
     4
 74
     0
 42
0.0000000001
 43
0.0000000001
 40
0.0
 40
0.0
 40
0.0
 40
0.0
 40
1.0
 40
1.0
 40
1.0
 40
1.0
 10
-33.9476
 20
-5.2976
 30
0.0
 10
-33.9476
 20
-5.2976
 30
0.0
 10
-2.2257
 20
-5.2976
 30
0.0
 10
-2.2257
 20
-5.2976
 30
0.0
  0
SPLINE
  5
51
330
1F
100
AcDbEntity
  8
Ebene 1
 62
   250
370
    15
100
AcDbSpline
210
0.0
220
0.0
230
1.0
 70
    11
 71
     3
 72
    16
 73
    12
 74
     0
 42
0.0000000001
 43
0.0000000001
 40
0.0
 40
0.0
 40
0.0
 40
0.0
 40
0.3333333333333333
 40
0.3333333333333333
 40
0.3333333333333333
 40
0.3333333333333333
 40
0.6666666666666666
 40
0.6666666666666666
 40
0.6666666666666666
 40
0.6666666666666666
 40
1.0
 40
1.0
 40
1.0
 40
1.0
 10
-33.9476
 20
-5.2976
 30
0.0
 10
-33.9476
 20
-5.2976
 30
0.0
 10
-29.3053
 20
-4.6013
 30
0.0
 10
-29.3053
 20
-4.6013
 30
0.0
 10
-29.3053
 20
-4.6013
 30
0.0
 10
-29.3053
 20
-4.6013
 30
0.0
 10
-29.3053
 20
-5.9939
 30
0.0
 10
-29.3053
 20
-5.9939
 30
0.0
 10
-29.3053
 20
-5.9939
 30
0.0
 10
-29.3053
 20
-5.9939
 30
0.0
 10
-33.9476
 20
-5.2976
 30
0.0
 10
-33.9476
 20
-5.2976
 30
0.0
  0
SPLINE
  5
52
330
1F
100
AcDbEntity
  8
Ebene 1
 62
   250
370
    15
100
AcDbSpline
210
0.0
220
0.0
230
1.0
 70
    11
 71
     3
 72
    16
 73
    12
 74
     0
 42
0.0000000001
 43
0.0000000001
 40
0.0
 40
0.0
 40
0.0
 40
0.0
 40
0.3333333333333333
 40
0.3333333333333333
 40
0.3333333333333333
 40
0.3333333333333333
 40
0.6666666666666666
 40
0.6666666666666666
 40
0.6666666666666666
 40
0.6666666666666666
 40
1.0
 40
1.0
 40
1.0
 40
1.0
 10
-2.2257
 20
-5.2976
 30
0.0
 10
-2.2257
 20
-5.2976
 30
0.0
 10
-6.867900000000001
 20
-5.9939
 30
0.0
 10
-6.867900000000001
 20
-5.9939
 30
0.0
 10
-6.867900000000001
 20
-5.9939
 30
0.0
 10
-6.867900000000001
 20
-5.9939
 30
0.0
 10
-6.867900000000001
 20
-4.6013
 30
0.0
 10
-6.867900000000001
 20
-4.6013
 30
0.0
 10
-6.867900000000001
 20
-4.6013
 30
0.0
 10
-6.867900000000001
 20
-4.6013
 30
0.0
 10
-2.2257
 20
-5.2976
 30
0.0
 10
-2.2257
 20
-5.2976
 30
0.0
  0
SPLINE
  5
53
330
1F
100
AcDbEntity
  8
Ebene 1
 62
   250
370
    15
100
AcDbSpline
210
0.0
220
0.0
230
1.0
 70
    24
 71
     3
 72
     8
 73
     4
 74
     0
 42
0.0000000001
 43
0.0000000001
 40
0.0
 40
0.0
 40
0.0
 40
0.0
 40
1.0
 40
1.0
 40
1.0
 40
1.0
 10
3.7703
 20
30.1259
 30
0.0
 10
3.7703
 20
30.1259
 30
0.0
 10
30.5377
 20
30.1259
 30
0.0
 10
30.5377
 20
30.1259
 30
0.0
  0
SPLINE
  5
54
330
1F
100
AcDbEntity
  8
Ebene 1
 62
   250
370
    15
100
AcDbSpline
210
0.0
220
0.0
230
1.0
 70
    24
 71
     3
 72
     8
 73
     4
 74
     0
 42
0.0000000001
 43
0.0000000001
 40
0.0
 40
0.0
 40
0.0
 40
0.0
 40
1.0
 40
1.0
 40
1.0
 40
1.0
 10
-3.3863
 20
6.334700000000001
 30
0.0
 10
-3.3863
 20
6.334700000000001
 30
0.0
 10
30.5377
 20
6.334700000000001
 30
0.0
 10
30.5377
 20
6.334700000000001
 30
0.0
  0
SPLINE
  5
55
330
1F
100
AcDbEntity
  8
Ebene 1
 62
   250
370
    15
100
AcDbSpline
210
0.0
220
0.0
230
1.0
 70
    24
 71
     3
 72
     8
 73
     4
 74
     0
 42
0.0000000001
 43
0.0000000001
 40
0.0
 40
0.0
 40
0.0
 40
0.0
 40
1.0
 40
1.0
 40
1.0
 40
1.0
 10
29.7639
 20
30.1259
 30
0.0
 10
29.7639
 20
30.1259
 30
0.0
 10
29.7639
 20
6.334700000000001
 30
0.0
 10
29.7639
 20
6.334700000000001
 30
0.0
  0
SPLINE
  5
56
330
1F
100
AcDbEntity
  8
Ebene 1
 62
   250
370
    15
100
AcDbSpline
210
0.0
220
0.0
230
1.0
 70
    11
 71
     3
 72
    16
 73
    12
 74
     0
 42
0.0000000001
 43
0.0000000001
 40
0.0
 40
0.0
 40
0.0
 40
0.0
 40
0.3333333333333333
 40
0.3333333333333333
 40
0.3333333333333333
 40
0.3333333333333333
 40
0.6666666666666666
 40
0.6666666666666666
 40
0.6666666666666666
 40
0.6666666666666666
 40
1.0
 40
1.0
 40
1.0
 40
1.0
 10
29.7639
 20
30.1259
 30
0.0
 10
29.7639
 20
30.1259
 30
0.0
 10
30.4602
 20
25.4836
 30
0.0
 10
30.4602
 20
25.4836
 30
0.0
 10
30.4602
 20
25.4836
 30
0.0
 10
30.4602
 20
25.4836
 30
0.0
 10
29.0676
 20
25.4836
 30
0.0
 10
29.0676
 20
25.4836
 30
0.0
 10
29.0676
 20
25.4836
 30
0.0
 10
29.0676
 20
25.4836
 30
0.0
 10
29.7639
 20
30.1259
 30
0.0
 10
29.7639
 20
30.1259
 30
0.0
  0
SPLINE
  5
57
330
1F
100
AcDbEntity
  8
Ebene 1
 62
   250
370
    15
100
AcDbSpline
210
0.0
220
0.0
230
1.0
 70
    11
 71
     3
 72
    16
 73
    12
 74
     0
 42
0.0000000001
 43
0.0000000001
 40
0.0
 40
0.0
 40
0.0
 40
0.0
 40
0.3333333333333333
 40
0.3333333333333333
 40
0.3333333333333333
 40
0.3333333333333333
 40
0.6666666666666666
 40
0.6666666666666666
 40
0.6666666666666666
 40
0.6666666666666666
 40
1.0
 40
1.0
 40
1.0
 40
1.0
 10
29.7639
 20
6.334700000000001
 30
0.0
 10
29.7639
 20
6.334700000000001
 30
0.0
 10
29.0676
 20
10.977
 30
0.0
 10
29.0676
 20
10.977
 30
0.0
 10
29.0676
 20
10.977
 30
0.0
 10
29.0676
 20
10.977
 30
0.0
 10
30.4602
 20
10.977
 30
0.0
 10
30.4602
 20
10.977
 30
0.0
 10
30.4602
 20
10.977
 30
0.0
 10
30.4602
 20
10.977
 30
0.0
 10
29.7639
 20
6.334700000000001
 30
0.0
 10
29.7639
 20
6.334700000000001
 30
0.0
  0
SPLINE
  5
58
330
1F
100
AcDbEntity
  8
Ebene 1
 62
   250
370
    15
100
AcDbSpline
210
0.0
220
0.0
230
1.0
 70
    24
 71
     3
 72
     8
 73
     4
 74
     0
 42
0.0000000001
 43
0.0000000001
 40
0.0
 40
0.0
 40
0.0
 40
0.0
 40
1.0
 40
1.0
 40
1.0
 40
1.0
 10
-3.7425
 20
24.1299
 30
0.0
 10
-3.7425
 20
24.1299
 30
0.0
 10
17.1449
 20
24.1299
 30
0.0
 10
17.1449
 20
24.1299
 30
0.0
  0
SPLINE
  5
59
330
1F
100
AcDbEntity
  8
Ebene 1
 62
   250
370
    15
100
AcDbSpline
210
0.0
220
0.0
230
1.0
 70
    24
 71
     3
 72
     8
 73
     4
 74
     0
 42
0.0000000001
 43
0.0000000001
 40
0.0
 40
0.0
 40
0.0
 40
0.0
 40
1.0
 40
1.0
 40
1.0
 40
1.0
 10
-6.0941
 20
12.5242
 30
0.0
 10
-6.0941
 20
12.5242
 30
0.0
 10
17.1449
 20
12.5242
 30
0.0
 10
17.1449
 20
12.5242
 30
0.0
  0
SPLINE
  5
5A
330
1F
100
AcDbEntity
  8
Ebene 1
 62
   250
370
    15
100
AcDbSpline
210
0.0
220
0.0
230
1.0
 70
    24
 71
     3
 72
     8
 73
     4
 74
     0
 42
0.0000000001
 43
0.0000000001
 40
0.0
 40
0.0
 40
0.0
 40
0.0
 40
1.0
 40
1.0
 40
1.0
 40
1.0
 10
16.3711
 20
24.1299
 30
0.0
 10
16.3711
 20
24.1299
 30
0.0
 10
16.3711
 20
33.41410000000001
 30
0.0
 10
16.3711
 20
33.41410000000001
 30
0.0
  0
SPLINE
  5
5B
330
1F
100
AcDbEntity
  8
Ebene 1
 62
   250
370
    15
100
AcDbSpline
210
0.0
220
0.0
230
1.0
 70
    24
 71
     3
 72
     8
 73
     4
 74
     0
 42
0.0000000001
 43
0.0000000001
 40
0.0
 40
0.0
 40
0.0
 40
0.0
 40
1.0
 40
1.0
 40
1.0
 40
1.0
 10
16.3711
 20
24.1299
 30
0.0
 10
16.3711
 20
24.1299
 30
0.0
 10
16.3711
 20
12.5242
 30
0.0
 10
16.3711
 20
12.5242
 30
0.0
  0
SPLINE
  5
5C
330
1F
100
AcDbEntity
  8
Ebene 1
 62
   250
370
    15
100
AcDbSpline
210
0.0
220
0.0
230
1.0
 70
    24
 71
     3
 72
     8
 73
     4
 74
     0
 42
0.0000000001
 43
0.0000000001
 40
0.0
 40
0.0
 40
0.0
 40
0.0
 40
1.0
 40
1.0
 40
1.0
 40
1.0
 10
16.3711
 20
12.5242
 30
0.0
 10
16.3711
 20
12.5242
 30
0.0
 10
16.3711
 20
3.2398
 30
0.0
 10
16.3711
 20
3.2398
 30
0.0
  0
SPLINE
  5
5D
330
1F
100
AcDbEntity
  8
Ebene 1
 62
   250
370
    15
100
AcDbSpline
210
0.0
220
0.0
230
1.0
 70
    11
 71
     3
 72
    16
 73
    12
 74
     0
 42
0.0000000001
 43
0.0000000001
 40
0.0
 40
0.0
 40
0.0
 40
0.0
 40
0.3333333333333333
 40
0.3333333333333333
 40
0.3333333333333333
 40
0.3333333333333333
 40
0.6666666666666666
 40
0.6666666666666666
 40
0.6666666666666666
 40
0.6666666666666666
 40
1.0
 40
1.0
 40
1.0
 40
1.0
 10
16.3711
 20
24.1299
 30
0.0
 10
16.3711
 20
24.1299
 30
0.0
 10
15.6748
 20
28.7721
 30
0.0
 10
15.6748
 20
28.7721
 30
0.0
 10
15.6748
 20
28.7721
 30
0.0
 10
15.6748
 20
28.7721
 30
0.0
 10
17.0677
 20
28.7721
 30
0.0
 10
17.0677
 20
28.7721
 30
0.0
 10
17.0677
 20
28.7721
 30
0.0
 10
17.0677
 20
28.7721
 30
0.0
 10
16.3711
 20
24.1299
 30
0.0
 10
16.3711
 20
24.1299
 30
0.0
  0
SPLINE
  5
5E
330
1F
100
AcDbEntity
  8
Ebene 1
 62
   250
370
    15
100
AcDbSpline
210
0.0
220
0.0
230
1.0
 70
    11
 71
     3
 72
    16
 73
    12
 74
     0
 42
0.0000000001
 43
0.0000000001
 40
0.0
 40
0.0
 40
0.0
 40
0.0
 40
0.3333333333333333
 40
0.3333333333333333
 40
0.3333333333333333
 40
0.3333333333333333
 40
0.6666666666666666
 40
0.6666666666666666
 40
0.6666666666666666
 40
0.6666666666666666
 40
1.0
 40
1.0
 40
1.0
 40
1.0
 10
16.3711
 20
12.5242
 30
0.0
 10
16.3711
 20
12.5242
 30
0.0
 10
17.0677
 20
7.882000000000001
 30
0.0
 10
17.0677
 20
7.882000000000001
 30
0.0
 10
17.0677
 20
7.882000000000001
 30
0.0
 10
17.0677
 20
7.882000000000001
 30
0.0
 10
15.6748
 20
7.882000000000001
 30
0.0
 10
15.6748
 20
7.882000000000001
 30
0.0
 10
15.6748
 20
7.882000000000001
 30
0.0
 10
15.6748
 20
7.882000000000001
 30
0.0
 10
16.3711
 20
12.5242
 30
0.0
 10
16.3711
 20
12.5242
 30
0.0
  0
SPLINE
  5
5F
330
1F
100
AcDbEntity
  8
Ebene 1
 62
   250
100
AcDbSpline
210
0.0
220
0.0
230
1.0
 70
    11
 71
     3
 72
    16
 73
    12
 74
     0
 42
0.0000000001
 43
0.0000000001
 40
0.0
 40
0.0
 40
0.0
 40
0.0
 40
0.3333333333333333
 40
0.3333333333333333
 40
0.3333333333333333
 40
0.3333333333333333
 40
0.6666666666666666
 40
0.6666666666666666
 40
0.6666666666666666
 40
0.6666666666666666
 40
1.0
 40
1.0
 40
1.0
 40
1.0
 10
-39.4021
 20
36.1236
 30
0.0
 10
-39.4021
 20
36.1236
 30
0.0
 10
-34.7598
 20
36.8199
 30
0.0
 10
-34.7598
 20
36.8199
 30
0.0
 10
-34.7598
 20
36.8199
 30
0.0
 10
-34.7598
 20
36.8199
 30
0.0
 10
-34.7598
 20
35.427
 30
0.0
 10
-34.7598
 20
35.427
 30
0.0
 10
-34.7598
 20
35.427
 30
0.0
 10
-34.7598
 20
35.427
 30
0.0
 10
-39.4021
 20
36.1236
 30
0.0
 10
-39.4021
 20
36.1236
 30
0.0
  0
SPLINE
  5
60
330
1F
100
AcDbEntity
  8
Ebene 1
 62
   250
100
AcDbSpline
210
0.0
220
0.0
230
1.0
 70
    11
 71
     3
 72
    16
 73
    12
 74
     0
 42
0.0000000001
 43
0.0000000001
 40
0.0
 40
0.0
 40
0.0
 40
0.0
 40
0.3333333333333333
 40
0.3333333333333333
 40
0.3333333333333333
 40
0.3333333333333333
 40
0.6666666666666666
 40
0.6666666666666666
 40
0.6666666666666666
 40
0.6666666666666666
 40
1.0
 40
1.0
 40
1.0
 40
1.0
 10
3.2288
 20
36.1236
 30
0.0
 10
3.2288
 20
36.1236
 30
0.0
 10
-1.4134
 20
35.427
 30
0.0
 10
-1.4134
 20
35.427
 30
0.0
 10
-1.4134
 20
35.427
 30
0.0
 10
-1.4134
 20
35.427
 30
0.0
 10
-1.4134
 20
36.8199
 30
0.0
 10
-1.4134
 20
36.8199
 30
0.0
 10
-1.4134
 20
36.8199
 30
0.0
 10
-1.4134
 20
36.8199
 30
0.0
 10
3.2288
 20
36.1236
 30
0.0
 10
3.2288
 20
36.1236
 30
0.0
  0
SPLINE
  5
61
330
1F
100
AcDbEntity
  8
Ebene 1
 62
   250
100
AcDbSpline
210
0.0
220
0.0
230
1.0
 70
    11
 71
     3
 72
    16
 73
    12
 74
     0
 42
0.0000000001
 43
0.0000000001
 40
0.0
 40
0.0
 40
0.0
 40
0.0
 40
0.3333333333333333
 40
0.3333333333333333
 40
0.3333333333333333
 40
0.3333333333333333
 40
0.6666666666666666
 40
0.6666666666666666
 40
0.6666666666666666
 40
0.6666666666666666
 40
1.0
 40
1.0
 40
1.0
 40
1.0
 10
-33.9476
 20
-5.2976
 30
0.0
 10
-33.9476
 20
-5.2976
 30
0.0
 10
-29.3053
 20
-4.6013
 30
0.0
 10
-29.3053
 20
-4.6013
 30
0.0
 10
-29.3053
 20
-4.6013
 30
0.0
 10
-29.3053
 20
-4.6013
 30
0.0
 10
-29.3053
 20
-5.9939
 30
0.0
 10
-29.3053
 20
-5.9939
 30
0.0
 10
-29.3053
 20
-5.9939
 30
0.0
 10
-29.3053
 20
-5.9939
 30
0.0
 10
-33.9476
 20
-5.2976
 30
0.0
 10
-33.9476
 20
-5.2976
 30
0.0
  0
SPLINE
  5
62
330
1F
100
AcDbEntity
  8
Ebene 1
 62
   250
100
AcDbSpline
210
0.0
220
0.0
230
1.0
 70
    11
 71
     3
 72
    16
 73
    12
 74
     0
 42
0.0000000001
 43
0.0000000001
 40
0.0
 40
0.0
 40
0.0
 40
0.0
 40
0.3333333333333333
 40
0.3333333333333333
 40
0.3333333333333333
 40
0.3333333333333333
 40
0.6666666666666666
 40
0.6666666666666666
 40
0.6666666666666666
 40
0.6666666666666666
 40
1.0
 40
1.0
 40
1.0
 40
1.0
 10
-2.2257
 20
-5.2976
 30
0.0
 10
-2.2257
 20
-5.2976
 30
0.0
 10
-6.867900000000001
 20
-5.9939
 30
0.0
 10
-6.867900000000001
 20
-5.9939
 30
0.0
 10
-6.867900000000001
 20
-5.9939
 30
0.0
 10
-6.867900000000001
 20
-5.9939
 30
0.0
 10
-6.867900000000001
 20
-4.6013
 30
0.0
 10
-6.867900000000001
 20
-4.6013
 30
0.0
 10
-6.867900000000001
 20
-4.6013
 30
0.0
 10
-6.867900000000001
 20
-4.6013
 30
0.0
 10
-2.2257
 20
-5.2976
 30
0.0
 10
-2.2257
 20
-5.2976
 30
0.0
  0
SPLINE
  5
63
330
1F
100
AcDbEntity
  8
Ebene 1
 62
   250
100
AcDbSpline
210
0.0
220
0.0
230
1.0
 70
    11
 71
     3
 72
    16
 73
    12
 74
     0
 42
0.0000000001
 43
0.0000000001
 40
0.0
 40
0.0
 40
0.0
 40
0.0
 40
0.3333333333333333
 40
0.3333333333333333
 40
0.3333333333333333
 40
0.3333333333333333
 40
0.6666666666666666
 40
0.6666666666666666
 40
0.6666666666666666
 40
0.6666666666666666
 40
1.0
 40
1.0
 40
1.0
 40
1.0
 10
29.7639
 20
30.1259
 30
0.0
 10
29.7639
 20
30.1259
 30
0.0
 10
30.4602
 20
25.4836
 30
0.0
 10
30.4602
 20
25.4836
 30
0.0
 10
30.4602
 20
25.4836
 30
0.0
 10
30.4602
 20
25.4836
 30
0.0
 10
29.0676
 20
25.4836
 30
0.0
 10
29.0676
 20
25.4836
 30
0.0
 10
29.0676
 20
25.4836
 30
0.0
 10
29.0676
 20
25.4836
 30
0.0
 10
29.7639
 20
30.1259
 30
0.0
 10
29.7639
 20
30.1259
 30
0.0
  0
SPLINE
  5
64
330
1F
100
AcDbEntity
  8
Ebene 1
 62
   250
100
AcDbSpline
210
0.0
220
0.0
230
1.0
 70
    11
 71
     3
 72
    16
 73
    12
 74
     0
 42
0.0000000001
 43
0.0000000001
 40
0.0
 40
0.0
 40
0.0
 40
0.0
 40
0.3333333333333333
 40
0.3333333333333333
 40
0.3333333333333333
 40
0.3333333333333333
 40
0.6666666666666666
 40
0.6666666666666666
 40
0.6666666666666666
 40
0.6666666666666666
 40
1.0
 40
1.0
 40
1.0
 40
1.0
 10
29.7639
 20
6.334700000000001
 30
0.0
 10
29.7639
 20
6.334700000000001
 30
0.0
 10
29.0676
 20
10.977
 30
0.0
 10
29.0676
 20
10.977
 30
0.0
 10
29.0676
 20
10.977
 30
0.0
 10
29.0676
 20
10.977
 30
0.0
 10
30.4602
 20
10.977
 30
0.0
 10
30.4602
 20
10.977
 30
0.0
 10
30.4602
 20
10.977
 30
0.0
 10
30.4602
 20
10.977
 30
0.0
 10
29.7639
 20
6.334700000000001
 30
0.0
 10
29.7639
 20
6.334700000000001
 30
0.0
  0
SPLINE
  5
65
330
1F
100
AcDbEntity
  8
Ebene 1
 62
   250
100
AcDbSpline
210
0.0
220
0.0
230
1.0
 70
    11
 71
     3
 72
    16
 73
    12
 74
     0
 42
0.0000000001
 43
0.0000000001
 40
0.0
 40
0.0
 40
0.0
 40
0.0
 40
0.3333333333333333
 40
0.3333333333333333
 40
0.3333333333333333
 40
0.3333333333333333
 40
0.6666666666666666
 40
0.6666666666666666
 40
0.6666666666666666
 40
0.6666666666666666
 40
1.0
 40
1.0
 40
1.0
 40
1.0
 10
16.3711
 20
24.1299
 30
0.0
 10
16.3711
 20
24.1299
 30
0.0
 10
15.6748
 20
28.7721
 30
0.0
 10
15.6748
 20
28.7721
 30
0.0
 10
15.6748
 20
28.7721
 30
0.0
 10
15.6748
 20
28.7721
 30
0.0
 10
17.0677
 20
28.7721
 30
0.0
 10
17.0677
 20
28.7721
 30
0.0
 10
17.0677
 20
28.7721
 30
0.0
 10
17.0677
 20
28.7721
 30
0.0
 10
16.3711
 20
24.1299
 30
0.0
 10
16.3711
 20
24.1299
 30
0.0
  0
SPLINE
  5
66
330
1F
100
AcDbEntity
  8
Ebene 1
 62
   250
100
AcDbSpline
210
0.0
220
0.0
230
1.0
 70
    11
 71
     3
 72
    16
 73
    12
 74
     0
 42
0.0000000001
 43
0.0000000001
 40
0.0
 40
0.0
 40
0.0
 40
0.0
 40
0.3333333333333333
 40
0.3333333333333333
 40
0.3333333333333333
 40
0.3333333333333333
 40
0.6666666666666666
 40
0.6666666666666666
 40
0.6666666666666666
 40
0.6666666666666666
 40
1.0
 40
1.0
 40
1.0
 40
1.0
 10
16.3711
 20
12.5242
 30
0.0
 10
16.3711
 20
12.5242
 30
0.0
 10
17.0677
 20
7.882000000000001
 30
0.0
 10
17.0677
 20
7.882000000000001
 30
0.0
 10
17.0677
 20
7.882000000000001
 30
0.0
 10
17.0677
 20
7.882000000000001
 30
0.0
 10
15.6748
 20
7.882000000000001
 30
0.0
 10
15.6748
 20
7.882000000000001
 30
0.0
 10
15.6748
 20
7.882000000000001
 30
0.0
 10
15.6748
 20
7.882000000000001
 30
0.0
 10
16.3711
 20
12.5242
 30
0.0
 10
16.3711
 20
12.5242
 30
0.0
  0
SPLINE
  5
67
330
1F
100
AcDbEntity
  8
Ebene 1
370
    35
100
AcDbSpline
210
0.0
220
0.0
230
1.0
 70
     8
 71
     3
 72
   172
 73
   168
 74
     0
 42
0.0000000001
 43
0.0000000001
 40
0.0
 40
0.0
 40
0.0
 40
0.0
 40
0.0238095238095238
 40
0.0238095238095238
 40
0.0238095238095238
 40
0.0238095238095238
 40
0.0476190476190476
 40
0.0476190476190476
 40
0.0476190476190476
 40
0.0476190476190476
 40
0.0714285714285714
 40
0.0714285714285714
 40
0.0714285714285714
 40
0.0714285714285714
 40
0.0952380952380952
 40
0.0952380952380952
 40
0.0952380952380952
 40
0.0952380952380952
 40
0.119047619047619
 40
0.119047619047619
 40
0.119047619047619
 40
0.119047619047619
 40
0.1428571428571429
 40
0.1428571428571429
 40
0.1428571428571429
 40
0.1428571428571429
 40
0.1666666666666667
 40
0.1666666666666667
 40
0.1666666666666667
 40
0.1666666666666667
 40
0.1904761904761905
 40
0.1904761904761905
 40
0.1904761904761905
 40
0.1904761904761905
 40
0.2142857142857143
 40
0.2142857142857143
 40
0.2142857142857143
 40
0.2142857142857143
 40
0.2380952380952381
 40
0.2380952380952381
 40
0.2380952380952381
 40
0.2380952380952381
 40
0.2619047619047619
 40
0.2619047619047619
 40
0.2619047619047619
 40
0.2619047619047619
 40
0.2857142857142857
 40
0.2857142857142857
 40
0.2857142857142857
 40
0.2857142857142857
 40
0.3095238095238095
 40
0.3095238095238095
 40
0.3095238095238095
 40
0.3095238095238095
 40
0.3333333333333334
 40
0.3333333333333334
 40
0.3333333333333334
 40
0.3333333333333334
 40
0.3571428571428572
 40
0.3571428571428572
 40
0.3571428571428572
 40
0.3571428571428572
 40
0.380952380952381
 40
0.380952380952381
 40
0.380952380952381
 40
0.380952380952381
 40
0.4047619047619049
 40
0.4047619047619049
 40
0.4047619047619049
 40
0.4047619047619049
 40
0.4285714285714287
 40
0.4285714285714287
 40
0.4285714285714287
 40
0.4285714285714287
 40
0.4523809523809526
 40
0.4523809523809526
 40
0.4523809523809526
 40
0.4523809523809526
 40
0.4761904761904764
 40
0.4761904761904764
 40
0.4761904761904764
 40
0.4761904761904764
 40
0.5000000000000002
 40
0.5000000000000002
 40
0.5000000000000002
 40
0.5000000000000002
 40
0.5238095238095241
 40
0.5238095238095241
 40
0.5238095238095241
 40
0.5238095238095241
 40
0.5476190476190479
 40
0.5476190476190479
 40
0.5476190476190479
 40
0.5476190476190479
 40
0.5714285714285717
 40
0.5714285714285717
 40
0.5714285714285717
 40
0.5714285714285717
 40
0.5952380952380956
 40
0.5952380952380956
 40
0.5952380952380956
 40
0.5952380952380956
 40
0.6190476190476194
 40
0.6190476190476194
 40
0.6190476190476194
 40
0.6190476190476194
 40
0.6428571428571432
 40
0.6428571428571432
 40
0.6428571428571432
 40
0.6428571428571432
 40
0.6666666666666671
 40
0.6666666666666671
 40
0.6666666666666671
 40
0.6666666666666671
 40
0.6904761904761909
 40
0.6904761904761909
 40
0.6904761904761909
 40
0.6904761904761909
 40
0.7142857142857148
 40
0.7142857142857148
 40
0.7142857142857148
 40
0.7142857142857148
 40
0.7380952380952386
 40
0.7380952380952386
 40
0.7380952380952386
 40
0.7380952380952386
 40
0.7619047619047624
 40
0.7619047619047624
 40
0.7619047619047624
 40
0.7619047619047624
 40
0.7857142857142863
 40
0.7857142857142863
 40
0.7857142857142863
 40
0.7857142857142863
 40
0.8095238095238101
 40
0.8095238095238101
 40
0.8095238095238101
 40
0.8095238095238101
 40
0.8333333333333339
 40
0.8333333333333339
 40
0.8333333333333339
 40
0.8333333333333339
 40
0.8571428571428578
 40
0.8571428571428578
 40
0.8571428571428578
 40
0.8571428571428578
 40
0.8809523809523816
 40
0.8809523809523816
 40
0.8809523809523816
 40
0.8809523809523816
 40
0.9047619047619054
 40
0.9047619047619054
 40
0.9047619047619054
 40
0.9047619047619054
 40
0.9285714285714293
 40
0.9285714285714293
 40
0.9285714285714293
 40
0.9285714285714293
 40
0.9523809523809531
 40
0.9523809523809531
 40
0.9523809523809531
 40
0.9523809523809531
 40
0.9761904761904769
 40
0.9761904761904769
 40
0.9761904761904769
 40
0.9761904761904769
 40
1.0
 40
1.0
 40
1.0
 40
1.0
 10
-29.8856
 20
-29.8585
 30
0.0
 10
-29.8856
 20
-29.8585
 30
0.0
 10
-30.6228
 20
-29.886
 30
0.0
 10
-30.6228
 20
-29.886
 30
0.0
 10
-30.6228
 20
-29.886
 30
0.0
 10
-30.6228
 20
-29.886
 30
0.0
 10
-31.3557
 20
-29.9688
 30
0.0
 10
-31.3557
 20
-29.9688
 30
0.0
 10
-31.3557
 20
-29.9688
 30
0.0
 10
-31.3557
 20
-29.9688
 30
0.0
 10
-32.0807
 20
-30.1058
 30
0.0
 10
-32.0807
 20
-30.1058
 30
0.0
 10
-32.0807
 20
-30.1058
 30
0.0
 10
-32.0807
 20
-30.1058
 30
0.0
 10
-32.7933
 20
-30.2968
 30
0.0
 10
-32.7933
 20
-30.2968
 30
0.0
 10
-32.7933
 20
-30.2968
 30
0.0
 10
-32.7933
 20
-30.2968
 30
0.0
 10
-33.4896
 20
-30.5406
 30
0.0
 10
-33.4896
 20
-30.5406
 30
0.0
 10
-33.4896
 20
-30.5406
 30
0.0
 10
-33.4896
 20
-30.5406
 30
0.0
 10
-34.16560000000001
 20
-30.8354
 30
0.0
 10
-34.16560000000001
 20
-30.8354
 30
0.0
 10
-34.16560000000001
 20
-30.8354
 30
0.0
 10
-34.16560000000001
 20
-30.8354
 30
0.0
 10
-34.81800000000001
 20
-31.1801
 30
0.0
 10
-34.81800000000001
 20
-31.1801
 30
0.0
 10
-34.81800000000001
 20
-31.1801
 30
0.0
 10
-34.81800000000001
 20
-31.1801
 30
0.0
 10
-35.4425
 20
-31.5726
 30
0.0
 10
-35.4425
 20
-31.5726
 30
0.0
 10
-35.4425
 20
-31.5726
 30
0.0
 10
-35.4425
 20
-31.5726
 30
0.0
 10
-36.03610000000001
 20
-32.0106
 30
0.0
 10
-36.03610000000001
 20
-32.0106
 30
0.0
 10
-36.03610000000001
 20
-32.0106
 30
0.0
 10
-36.03610000000001
 20
-32.0106
 30
0.0
 10
-36.5951
 20
-32.4919
 30
0.0
 10
-36.5951
 20
-32.4919
 30
0.0
 10
-36.5951
 20
-32.4919
 30
0.0
 10
-36.5951
 20
-32.4919
 30
0.0
 10
-37.1167
 20
-33.0134
 30
0.0
 10
-37.1167
 20
-33.0134
 30
0.0
 10
-37.1167
 20
-33.0134
 30
0.0
 10
-37.1167
 20
-33.0134
 30
0.0
 10
-37.5979
 20
-33.57270000000001
 30
0.0
 10
-37.5979
 20
-33.57270000000001
 30
0.0
 10
-37.5979
 20
-33.57270000000001
 30
0.0
 10
-37.5979
 20
-33.57270000000001
 30
0.0
 10
-38.036
 20
-34.1664
 30
0.0
 10
-38.036
 20
-34.1664
 30
0.0
 10
-38.036
 20
-34.1664
 30
0.0
 10
-38.036
 20
-34.1664
 30
0.0
 10
-38.4285
 20
-34.7908
 30
0.0
 10
-38.4285
 20
-34.7908
 30
0.0
 10
-38.4285
 20
-34.7908
 30
0.0
 10
-38.4285
 20
-34.7908
 30
0.0
 10
-38.7732
 20
-35.4432
 30
0.0
 10
-38.7732
 20
-35.4432
 30
0.0
 10
-38.7732
 20
-35.4432
 30
0.0
 10
-38.7732
 20
-35.4432
 30
0.0
 10
-39.0682
 20
-36.1193
 30
0.0
 10
-39.0682
 20
-36.1193
 30
0.0
 10
-39.0682
 20
-36.1193
 30
0.0
 10
-39.0682
 20
-36.1193
 30
0.0
 10
-39.31200000000001
 20
-36.8155
 30
0.0
 10
-39.31200000000001
 20
-36.8155
 30
0.0
 10
-39.31200000000001
 20
-36.8155
 30
0.0
 10
-39.31200000000001
 20
-36.8155
 30
0.0
 10
-39.5028
 20
-37.52820000000001
 30
0.0
 10
-39.5028
 20
-37.52820000000001
 30
0.0
 10
-39.5028
 20
-37.52820000000001
 30
0.0
 10
-39.5028
 20
-37.52820000000001
 30
0.0
 10
-39.6401
 20
-38.2529
 30
0.0
 10
-39.6401
 20
-38.2529
 30
0.0
 10
-39.6401
 20
-38.2529
 30
0.0
 10
-39.6401
 20
-38.2529
 30
0.0
 10
-39.7225
 20
-38.986
 30
0.0
 10
-39.7225
 20
-38.986
 30
0.0
 10
-39.7225
 20
-38.986
 30
0.0
 10
-39.7225
 20
-38.986
 30
0.0
 10
-39.7501
 20
-39.7233
 30
0.0
 10
-39.7501
 20
-39.7233
 30
0.0
 10
-39.7501
 20
-39.7233
 30
0.0
 10
-39.7501
 20
-39.7233
 30
0.0
 10
-39.7225
 20
-40.4604
 30
0.0
 10
-39.7225
 20
-40.4604
 30
0.0
 10
-39.7225
 20
-40.4604
 30
0.0
 10
-39.7225
 20
-40.4604
 30
0.0
 10
-39.6401
 20
-41.1936
 30
0.0
 10
-39.6401
 20
-41.1936
 30
0.0
 10
-39.6401
 20
-41.1936
 30
0.0
 10
-39.6401
 20
-41.1936
 30
0.0
 10
-39.5028
 20
-41.9182
 30
0.0
 10
-39.5028
 20
-41.9182
 30
0.0
 10
-39.5028
 20
-41.9182
 30
0.0
 10
-39.5028
 20
-41.9182
 30
0.0
 10
-39.31200000000001
 20
-42.6309
 30
0.0
 10
-39.31200000000001
 20
-42.6309
 30
0.0
 10
-39.31200000000001
 20
-42.6309
 30
0.0
 10
-39.31200000000001
 20
-42.6309
 30
0.0
 10
-39.0682
 20
-43.32720000000001
 30
0.0
 10
-39.0682
 20
-43.32720000000001
 30
0.0
 10
-39.0682
 20
-43.32720000000001
 30
0.0
 10
-39.0682
 20
-43.32720000000001
 30
0.0
 10
-38.7732
 20
-44.0033
 30
0.0
 10
-38.7732
 20
-44.0033
 30
0.0
 10
-38.7732
 20
-44.0033
 30
0.0
 10
-38.7732
 20
-44.0033
 30
0.0
 10
-38.4285
 20
-44.6556
 30
0.0
 10
-38.4285
 20
-44.6556
 30
0.0
 10
-38.4285
 20
-44.6556
 30
0.0
 10
-38.4285
 20
-44.6556
 30
0.0
 10
-38.036
 20
-45.2801
 30
0.0
 10
-38.036
 20
-45.2801
 30
0.0
 10
-38.036
 20
-45.2801
 30
0.0
 10
-38.036
 20
-45.2801
 30
0.0
 10
-37.5979
 20
-45.8738
 30
0.0
 10
-37.5979
 20
-45.8738
 30
0.0
 10
-37.5979
 20
-45.8738
 30
0.0
 10
-37.5979
 20
-45.8738
 30
0.0
 10
-37.1167
 20
-46.433
 30
0.0
 10
-37.1167
 20
-46.433
 30
0.0
 10
-37.1167
 20
-46.433
 30
0.0
 10
-37.1167
 20
-46.433
 30
0.0
 10
-36.5951
 20
-46.9546
 30
0.0
 10
-36.5951
 20
-46.9546
 30
0.0
 10
-36.5951
 20
-46.9546
 30
0.0
 10
-36.5951
 20
-46.9546
 30
0.0
 10
-36.03610000000001
 20
-47.4358
 30
0.0
 10
-36.03610000000001
 20
-47.4358
 30
0.0
 10
-36.03610000000001
 20
-47.4358
 30
0.0
 10
-36.03610000000001
 20
-47.4358
 30
0.0
 10
-35.4425
 20
-47.8739
 30
0.0
 10
-35.4425
 20
-47.8739
 30
0.0
 10
-35.4425
 20
-47.8739
 30
0.0
 10
-35.4425
 20
-47.8739
 30
0.0
 10
-34.81800000000001
 20
-48.2664
 30
0.0
 10
-34.81800000000001
 20
-48.2664
 30
0.0
 10
-34.81800000000001
 20
-48.2664
 30
0.0
 10
-34.81800000000001
 20
-48.2664
 30
0.0
 10
-34.16560000000001
 20
-48.61080000000001
 30
0.0
 10
-34.16560000000001
 20
-48.61080000000001
 30
0.0
 10
-34.16560000000001
 20
-48.61080000000001
 30
0.0
 10
-34.16560000000001
 20
-48.61080000000001
 30
0.0
 10
-33.4896
 20
-48.9059
 30
0.0
 10
-33.4896
 20
-48.9059
 30
0.0
 10
-33.4896
 20
-48.9059
 30
0.0
 10
-33.4896
 20
-48.9059
 30
0.0
 10
-32.7933
 20
-49.1496
 30
0.0
 10
-32.7933
 20
-49.1496
 30
0.0
 10
-32.7933
 20
-49.1496
 30
0.0
 10
-32.7933
 20
-49.1496
 30
0.0
 10
-32.0807
 20
-49.34070000000001
 30
0.0
 10
-32.0807
 20
-49.34070000000001
 30
0.0
 10
-32.0807
 20
-49.34070000000001
 30
0.0
 10
-32.0807
 20
-49.34070000000001
 30
0.0
 10
-31.3557
 20
-49.4778
 30
0.0
 10
-31.3557
 20
-49.4778
 30
0.0
 10
-31.3557
 20
-49.4778
 30
0.0
 10
-31.3557
 20
-49.4778
 30
0.0
 10
-30.6228
 20
-49.5604
 30
0.0
 10
-30.6228
 20
-49.5604
 30
0.0
 10
-30.6228
 20
-49.5604
 30
0.0
 10
-30.6228
 20
-49.5604
 30
0.0
 10
-29.8856
 20
-49.588
 30
0.0
 10
-29.8856
 20
-49.588
 30
0.0
  0
SPLINE
  5
68
330
1F
100
AcDbEntity
  8
Ebene 1
370
    35
100
AcDbSpline
210
0.0
220
0.0
230
1.0
 70
     8
 71
     3
 72
   172
 73
   168
 74
     0
 42
0.0000000001
 43
0.0000000001
 40
0.0
 40
0.0
 40
0.0
 40
0.0
 40
0.0238095238095238
 40
0.0238095238095238
 40
0.0238095238095238
 40
0.0238095238095238
 40
0.0476190476190476
 40
0.0476190476190476
 40
0.0476190476190476
 40
0.0476190476190476
 40
0.0714285714285714
 40
0.0714285714285714
 40
0.0714285714285714
 40
0.0714285714285714
 40
0.0952380952380952
 40
0.0952380952380952
 40
0.0952380952380952
 40
0.0952380952380952
 40
0.119047619047619
 40
0.119047619047619
 40
0.119047619047619
 40
0.119047619047619
 40
0.1428571428571429
 40
0.1428571428571429
 40
0.1428571428571429
 40
0.1428571428571429
 40
0.1666666666666667
 40
0.1666666666666667
 40
0.1666666666666667
 40
0.1666666666666667
 40
0.1904761904761905
 40
0.1904761904761905
 40
0.1904761904761905
 40
0.1904761904761905
 40
0.2142857142857143
 40
0.2142857142857143
 40
0.2142857142857143
 40
0.2142857142857143
 40
0.2380952380952381
 40
0.2380952380952381
 40
0.2380952380952381
 40
0.2380952380952381
 40
0.2619047619047619
 40
0.2619047619047619
 40
0.2619047619047619
 40
0.2619047619047619
 40
0.2857142857142857
 40
0.2857142857142857
 40
0.2857142857142857
 40
0.2857142857142857
 40
0.3095238095238095
 40
0.3095238095238095
 40
0.3095238095238095
 40
0.3095238095238095
 40
0.3333333333333334
 40
0.3333333333333334
 40
0.3333333333333334
 40
0.3333333333333334
 40
0.3571428571428572
 40
0.3571428571428572
 40
0.3571428571428572
 40
0.3571428571428572
 40
0.380952380952381
 40
0.380952380952381
 40
0.380952380952381
 40
0.380952380952381
 40
0.4047619047619049
 40
0.4047619047619049
 40
0.4047619047619049
 40
0.4047619047619049
 40
0.4285714285714287
 40
0.4285714285714287
 40
0.4285714285714287
 40
0.4285714285714287
 40
0.4523809523809526
 40
0.4523809523809526
 40
0.4523809523809526
 40
0.4523809523809526
 40
0.4761904761904764
 40
0.4761904761904764
 40
0.4761904761904764
 40
0.4761904761904764
 40
0.5000000000000002
 40
0.5000000000000002
 40
0.5000000000000002
 40
0.5000000000000002
 40
0.5238095238095241
 40
0.5238095238095241
 40
0.5238095238095241
 40
0.5238095238095241
 40
0.5476190476190479
 40
0.5476190476190479
 40
0.5476190476190479
 40
0.5476190476190479
 40
0.5714285714285717
 40
0.5714285714285717
 40
0.5714285714285717
 40
0.5714285714285717
 40
0.5952380952380956
 40
0.5952380952380956
 40
0.5952380952380956
 40
0.5952380952380956
 40
0.6190476190476194
 40
0.6190476190476194
 40
0.6190476190476194
 40
0.6190476190476194
 40
0.6428571428571432
 40
0.6428571428571432
 40
0.6428571428571432
 40
0.6428571428571432
 40
0.6666666666666671
 40
0.6666666666666671
 40
0.6666666666666671
 40
0.6666666666666671
 40
0.6904761904761909
 40
0.6904761904761909
 40
0.6904761904761909
 40
0.6904761904761909
 40
0.7142857142857148
 40
0.7142857142857148
 40
0.7142857142857148
 40
0.7142857142857148
 40
0.7380952380952386
 40
0.7380952380952386
 40
0.7380952380952386
 40
0.7380952380952386
 40
0.7619047619047624
 40
0.7619047619047624
 40
0.7619047619047624
 40
0.7619047619047624
 40
0.7857142857142863
 40
0.7857142857142863
 40
0.7857142857142863
 40
0.7857142857142863
 40
0.8095238095238101
 40
0.8095238095238101
 40
0.8095238095238101
 40
0.8095238095238101
 40
0.8333333333333339
 40
0.8333333333333339
 40
0.8333333333333339
 40
0.8333333333333339
 40
0.8571428571428578
 40
0.8571428571428578
 40
0.8571428571428578
 40
0.8571428571428578
 40
0.8809523809523816
 40
0.8809523809523816
 40
0.8809523809523816
 40
0.8809523809523816
 40
0.9047619047619054
 40
0.9047619047619054
 40
0.9047619047619054
 40
0.9047619047619054
 40
0.9285714285714293
 40
0.9285714285714293
 40
0.9285714285714293
 40
0.9285714285714293
 40
0.9523809523809531
 40
0.9523809523809531
 40
0.9523809523809531
 40
0.9523809523809531
 40
0.9761904761904769
 40
0.9761904761904769
 40
0.9761904761904769
 40
0.9761904761904769
 40
1.0
 40
1.0
 40
1.0
 40
1.0
 10
-6.2876
 20
-49.588
 30
0.0
 10
-6.2876
 20
-49.588
 30
0.0
 10
-5.5505
 20
-49.5604
 30
0.0
 10
-5.5505
 20
-49.5604
 30
0.0
 10
-5.5505
 20
-49.5604
 30
0.0
 10
-5.5505
 20
-49.5604
 30
0.0
 10
-4.8173
 20
-49.4778
 30
0.0
 10
-4.8173
 20
-49.4778
 30
0.0
 10
-4.8173
 20
-49.4778
 30
0.0
 10
-4.8173
 20
-49.4778
 30
0.0
 10
-4.0927
 20
-49.34070000000001
 30
0.0
 10
-4.0927
 20
-49.34070000000001
 30
0.0
 10
-4.0927
 20
-49.34070000000001
 30
0.0
 10
-4.0927
 20
-49.34070000000001
 30
0.0
 10
-3.38
 20
-49.1496
 30
0.0
 10
-3.38
 20
-49.1496
 30
0.0
 10
-3.38
 20
-49.1496
 30
0.0
 10
-3.38
 20
-49.1496
 30
0.0
 10
-2.6837
 20
-48.9059
 30
0.0
 10
-2.6837
 20
-48.9059
 30
0.0
 10
-2.6837
 20
-48.9059
 30
0.0
 10
-2.6837
 20
-48.9059
 30
0.0
 10
-2.0076
 20
-48.61080000000001
 30
0.0
 10
-2.0076
 20
-48.61080000000001
 30
0.0
 10
-2.0076
 20
-48.61080000000001
 30
0.0
 10
-2.0076
 20
-48.61080000000001
 30
0.0
 10
-1.3553
 20
-48.2664
 30
0.0
 10
-1.3553
 20
-48.2664
 30
0.0
 10
-1.3553
 20
-48.2664
 30
0.0
 10
-1.3553
 20
-48.2664
 30
0.0
 10
-0.7308
 20
-47.8739
 30
0.0
 10
-0.7308
 20
-47.8739
 30
0.0
 10
-0.7308
 20
-47.8739
 30
0.0
 10
-0.7308
 20
-47.8739
 30
0.0
 10
-0.1371
 20
-47.4358
 30
0.0
 10
-0.1371
 20
-47.4358
 30
0.0
 10
-0.1371
 20
-47.4358
 30
0.0
 10
-0.1371
 20
-47.4358
 30
0.0
 10
0.4221
 20
-46.9546
 30
0.0
 10
0.4221
 20
-46.9546
 30
0.0
 10
0.4221
 20
-46.9546
 30
0.0
 10
0.4221
 20
-46.9546
 30
0.0
 10
0.9437000000000001
 20
-46.433
 30
0.0
 10
0.9437000000000001
 20
-46.433
 30
0.0
 10
0.9437000000000001
 20
-46.433
 30
0.0
 10
0.9437000000000001
 20
-46.433
 30
0.0
 10
1.4249
 20
-45.8738
 30
0.0
 10
1.4249
 20
-45.8738
 30
0.0
 10
1.4249
 20
-45.8738
 30
0.0
 10
1.4249
 20
-45.8738
 30
0.0
 10
1.863
 20
-45.2801
 30
0.0
 10
1.863
 20
-45.2801
 30
0.0
 10
1.863
 20
-45.2801
 30
0.0
 10
1.863
 20
-45.2801
 30
0.0
 10
2.2555
 20
-44.6556
 30
0.0
 10
2.2555
 20
-44.6556
 30
0.0
 10
2.2555
 20
-44.6556
 30
0.0
 10
2.2555
 20
-44.6556
 30
0.0
 10
2.6002
 20
-44.0033
 30
0.0
 10
2.6002
 20
-44.0033
 30
0.0
 10
2.6002
 20
-44.0033
 30
0.0
 10
2.6002
 20
-44.0033
 30
0.0
 10
2.895
 20
-43.32720000000001
 30
0.0
 10
2.895
 20
-43.32720000000001
 30
0.0
 10
2.895
 20
-43.32720000000001
 30
0.0
 10
2.895
 20
-43.32720000000001
 30
0.0
 10
3.1387
 20
-42.6309
 30
0.0
 10
3.1387
 20
-42.6309
 30
0.0
 10
3.1387
 20
-42.6309
 30
0.0
 10
3.1387
 20
-42.6309
 30
0.0
 10
3.3298
 20
-41.9182
 30
0.0
 10
3.3298
 20
-41.9182
 30
0.0
 10
3.3298
 20
-41.9182
 30
0.0
 10
3.3298
 20
-41.9182
 30
0.0
 10
3.4668
 20
-41.1936
 30
0.0
 10
3.4668
 20
-41.1936
 30
0.0
 10
3.4668
 20
-41.1936
 30
0.0
 10
3.4668
 20
-41.1936
 30
0.0
 10
3.5495
 20
-40.4604
 30
0.0
 10
3.5495
 20
-40.4604
 30
0.0
 10
3.5495
 20
-40.4604
 30
0.0
 10
3.5495
 20
-40.4604
 30
0.0
 10
3.5771
 20
-39.7233
 30
0.0
 10
3.5771
 20
-39.7233
 30
0.0
 10
3.5771
 20
-39.7233
 30
0.0
 10
3.5771
 20
-39.7233
 30
0.0
 10
3.5495
 20
-38.986
 30
0.0
 10
3.5495
 20
-38.986
 30
0.0
 10
3.5495
 20
-38.986
 30
0.0
 10
3.5495
 20
-38.986
 30
0.0
 10
3.4668
 20
-38.2529
 30
0.0
 10
3.4668
 20
-38.2529
 30
0.0
 10
3.4668
 20
-38.2529
 30
0.0
 10
3.4668
 20
-38.2529
 30
0.0
 10
3.3298
 20
-37.52820000000001
 30
0.0
 10
3.3298
 20
-37.52820000000001
 30
0.0
 10
3.3298
 20
-37.52820000000001
 30
0.0
 10
3.3298
 20
-37.52820000000001
 30
0.0
 10
3.1387
 20
-36.8155
 30
0.0
 10
3.1387
 20
-36.8155
 30
0.0
 10
3.1387
 20
-36.8155
 30
0.0
 10
3.1387
 20
-36.8155
 30
0.0
 10
2.895
 20
-36.1193
 30
0.0
 10
2.895
 20
-36.1193
 30
0.0
 10
2.895
 20
-36.1193
 30
0.0
 10
2.895
 20
-36.1193
 30
0.0
 10
2.6002
 20
-35.4432
 30
0.0
 10
2.6002
 20
-35.4432
 30
0.0
 10
2.6002
 20
-35.4432
 30
0.0
 10
2.6002
 20
-35.4432
 30
0.0
 10
2.2555
 20
-34.7908
 30
0.0
 10
2.2555
 20
-34.7908
 30
0.0
 10
2.2555
 20
-34.7908
 30
0.0
 10
2.2555
 20
-34.7908
 30
0.0
 10
1.863
 20
-34.1664
 30
0.0
 10
1.863
 20
-34.1664
 30
0.0
 10
1.863
 20
-34.1664
 30
0.0
 10
1.863
 20
-34.1664
 30
0.0
 10
1.4249
 20
-33.57270000000001
 30
0.0
 10
1.4249
 20
-33.57270000000001
 30
0.0
 10
1.4249
 20
-33.57270000000001
 30
0.0
 10
1.4249
 20
-33.57270000000001
 30
0.0
 10
0.9437000000000001
 20
-33.0134
 30
0.0
 10
0.9437000000000001
 20
-33.0134
 30
0.0
 10
0.9437000000000001
 20
-33.0134
 30
0.0
 10
0.9437000000000001
 20
-33.0134
 30
0.0
 10
0.4221
 20
-32.4919
 30
0.0
 10
0.4221
 20
-32.4919
 30
0.0
 10
0.4221
 20
-32.4919
 30
0.0
 10
0.4221
 20
-32.4919
 30
0.0
 10
-0.1371
 20
-32.0106
 30
0.0
 10
-0.1371
 20
-32.0106
 30
0.0
 10
-0.1371
 20
-32.0106
 30
0.0
 10
-0.1371
 20
-32.0106
 30
0.0
 10
-0.7308
 20
-31.5726
 30
0.0
 10
-0.7308
 20
-31.5726
 30
0.0
 10
-0.7308
 20
-31.5726
 30
0.0
 10
-0.7308
 20
-31.5726
 30
0.0
 10
-1.3553
 20
-31.1801
 30
0.0
 10
-1.3553
 20
-31.1801
 30
0.0
 10
-1.3553
 20
-31.1801
 30
0.0
 10
-1.3553
 20
-31.1801
 30
0.0
 10
-2.0076
 20
-30.8354
 30
0.0
 10
-2.0076
 20
-30.8354
 30
0.0
 10
-2.0076
 20
-30.8354
 30
0.0
 10
-2.0076
 20
-30.8354
 30
0.0
 10
-2.6837
 20
-30.5406
 30
0.0
 10
-2.6837
 20
-30.5406
 30
0.0
 10
-2.6837
 20
-30.5406
 30
0.0
 10
-2.6837
 20
-30.5406
 30
0.0
 10
-3.38
 20
-30.2968
 30
0.0
 10
-3.38
 20
-30.2968
 30
0.0
 10
-3.38
 20
-30.2968
 30
0.0
 10
-3.38
 20
-30.2968
 30
0.0
 10
-4.0927
 20
-30.1058
 30
0.0
 10
-4.0927
 20
-30.1058
 30
0.0
 10
-4.0927
 20
-30.1058
 30
0.0
 10
-4.0927
 20
-30.1058
 30
0.0
 10
-4.8173
 20
-29.9688
 30
0.0
 10
-4.8173
 20
-29.9688
 30
0.0
 10
-4.8173
 20
-29.9688
 30
0.0
 10
-4.8173
 20
-29.9688
 30
0.0
 10
-5.5505
 20
-29.886
 30
0.0
 10
-5.5505
 20
-29.886
 30
0.0
 10
-5.5505
 20
-29.886
 30
0.0
 10
-5.5505
 20
-29.886
 30
0.0
 10
-6.2876
 20
-29.8585
 30
0.0
 10
-6.2876
 20
-29.8585
 30
0.0
  0
SPLINE
  5
69
330
1F
100
AcDbEntity
  8
Ebene 1
370
    35
100
AcDbSpline
210
0.0
220
0.0
230
1.0
 70
    24
 71
     3
 72
     8
 73
     4
 74
     0
 42
0.0000000001
 43
0.0000000001
 40
0.0
 40
0.0
 40
0.0
 40
0.0
 40
1.0
 40
1.0
 40
1.0
 40
1.0
 10
-6.2876
 20
-29.8585
 30
0.0
 10
-6.2876
 20
-29.8585
 30
0.0
 10
-29.8856
 20
-29.8585
 30
0.0
 10
-29.8856
 20
-29.8585
 30
0.0
  0
SPLINE
  5
6A
330
1F
100
AcDbEntity
  8
Ebene 1
370
    35
100
AcDbSpline
210
0.0
220
0.0
230
1.0
 70
    24
 71
     3
 72
     8
 73
     4
 74
     0
 42
0.0000000001
 43
0.0000000001
 40
0.0
 40
0.0
 40
0.0
 40
0.0
 40
1.0
 40
1.0
 40
1.0
 40
1.0
 10
-29.8856
 20
-49.588
 30
0.0
 10
-29.8856
 20
-49.588
 30
0.0
 10
-6.2876
 20
-49.588
 30
0.0
 10
-6.2876
 20
-49.588
 30
0.0
  0
SPLINE
  5
6B
330
1F
100
AcDbEntity
  8
Ebene 1
370
    35
100
AcDbSpline
210
0.0
220
0.0
230
1.0
 70
    24
 71
     3
 72
     8
 73
     4
 74
     0
 42
0.0000000001
 43
0.0000000001
 40
0.0
 40
0.0
 40
0.0
 40
0.0
 40
1.0
 40
1.0
 40
1.0
 40
1.0
 10
-6.2876
 20
-30.4388
 30
0.0
 10
-6.2876
 20
-30.4388
 30
0.0
 10
-29.8856
 20
-30.4388
 30
0.0
 10
-29.8856
 20
-30.4388
 30
0.0
  0
SPLINE
  5
6C
330
1F
100
AcDbEntity
  8
Ebene 1
370
    35
100
AcDbSpline
210
0.0
220
0.0
230
1.0
 70
     8
 71
     3
 72
   168
 73
   164
 74
     0
 42
0.0000000001
 43
0.0000000001
 40
0.0
 40
0.0
 40
0.0
 40
0.0
 40
0.024390243902439
 40
0.024390243902439
 40
0.024390243902439
 40
0.024390243902439
 40
0.0487804878048781
 40
0.0487804878048781
 40
0.0487804878048781
 40
0.0487804878048781
 40
0.0731707317073171
 40
0.0731707317073171
 40
0.0731707317073171
 40
0.0731707317073171
 40
0.0975609756097561
 40
0.0975609756097561
 40
0.0975609756097561
 40
0.0975609756097561
 40
0.1219512195121951
 40
0.1219512195121951
 40
0.1219512195121951
 40
0.1219512195121951
 40
0.1463414634146341
 40
0.1463414634146341
 40
0.1463414634146341
 40
0.1463414634146341
 40
0.1707317073170732
 40
0.1707317073170732
 40
0.1707317073170732
 40
0.1707317073170732
 40
0.1951219512195122
 40
0.1951219512195122
 40
0.1951219512195122
 40
0.1951219512195122
 40
0.2195121951219512
 40
0.2195121951219512
 40
0.2195121951219512
 40
0.2195121951219512
 40
0.2439024390243902
 40
0.2439024390243902
 40
0.2439024390243902
 40
0.2439024390243902
 40
0.2682926829268292
 40
0.2682926829268292
 40
0.2682926829268292
 40
0.2682926829268292
 40
0.2926829268292683
 40
0.2926829268292683
 40
0.2926829268292683
 40
0.2926829268292683
 40
0.3170731707317073
 40
0.3170731707317073
 40
0.3170731707317073
 40
0.3170731707317073
 40
0.3414634146341464
 40
0.3414634146341464
 40
0.3414634146341464
 40
0.3414634146341464
 40
0.3658536585365854
 40
0.3658536585365854
 40
0.3658536585365854
 40
0.3658536585365854
 40
0.3902439024390245
 40
0.3902439024390245
 40
0.3902439024390245
 40
0.3902439024390245
 40
0.4146341463414635
 40
0.4146341463414635
 40
0.4146341463414635
 40
0.4146341463414635
 40
0.4390243902439026
 40
0.4390243902439026
 40
0.4390243902439026
 40
0.4390243902439026
 40
0.4634146341463416
 40
0.4634146341463416
 40
0.4634146341463416
 40
0.4634146341463416
 40
0.4878048780487806
 40
0.4878048780487806
 40
0.4878048780487806
 40
0.4878048780487806
 40
0.5121951219512196
 40
0.5121951219512196
 40
0.5121951219512196
 40
0.5121951219512196
 40
0.5365853658536587
 40
0.5365853658536587
 40
0.5365853658536587
 40
0.5365853658536587
 40
0.5609756097560977
 40
0.5609756097560977
 40
0.5609756097560977
 40
0.5609756097560977
 40
0.5853658536585368
 40
0.5853658536585368
 40
0.5853658536585368
 40
0.5853658536585368
 40
0.6097560975609758
 40
0.6097560975609758
 40
0.6097560975609758
 40
0.6097560975609758
 40
0.6341463414634149
 40
0.6341463414634149
 40
0.6341463414634149
 40
0.6341463414634149
 40
0.6585365853658539
 40
0.6585365853658539
 40
0.6585365853658539
 40
0.6585365853658539
 40
0.682926829268293
 40
0.682926829268293
 40
0.682926829268293
 40
0.682926829268293
 40
0.707317073170732
 40
0.707317073170732
 40
0.707317073170732
 40
0.707317073170732
 40
0.7317073170731711
 40
0.7317073170731711
 40
0.7317073170731711
 40
0.7317073170731711
 40
0.7560975609756101
 40
0.7560975609756101
 40
0.7560975609756101
 40
0.7560975609756101
 40
0.7804878048780491
 40
0.7804878048780491
 40
0.7804878048780491
 40
0.7804878048780491
 40
0.8048780487804882
 40
0.8048780487804882
 40
0.8048780487804882
 40
0.8048780487804882
 40
0.8292682926829272
 40
0.8292682926829272
 40
0.8292682926829272
 40
0.8292682926829272
 40
0.8536585365853663
 40
0.8536585365853663
 40
0.8536585365853663
 40
0.8536585365853663
 40
0.8780487804878053
 40
0.8780487804878053
 40
0.8780487804878053
 40
0.8780487804878053
 40
0.9024390243902444
 40
0.9024390243902444
 40
0.9024390243902444
 40
0.9024390243902444
 40
0.9268292682926834
 40
0.9268292682926834
 40
0.9268292682926834
 40
0.9268292682926834
 40
0.9512195121951225
 40
0.9512195121951225
 40
0.9512195121951225
 40
0.9512195121951225
 40
0.9756097560975615
 40
0.9756097560975615
 40
0.9756097560975615
 40
0.9756097560975615
 40
1.0
 40
1.0
 40
1.0
 40
1.0
 10
-6.2876
 20
-49.0077
 30
0.0
 10
-6.2876
 20
-49.0077
 30
0.0
 10
-5.5769
 20
-48.9804
 30
0.0
 10
-5.5769
 20
-48.9804
 30
0.0
 10
-5.5769
 20
-48.9804
 30
0.0
 10
-5.5769
 20
-48.9804
 30
0.0
 10
-4.870200000000001
 20
-48.8988
 30
0.0
 10
-4.870200000000001
 20
-48.8988
 30
0.0
 10
-4.870200000000001
 20
-48.8988
 30
0.0
 10
-4.870200000000001
 20
-48.8988
 30
0.0
 10
-4.172000000000001
 20
-48.7634
 30
0.0
 10
-4.172000000000001
 20
-48.7634
 30
0.0
 10
-4.172000000000001
 20
-48.7634
 30
0.0
 10
-4.172000000000001
 20
-48.7634
 30
0.0
 10
-3.4865
 20
-48.5748
 30
0.0
 10
-3.4865
 20
-48.5748
 30
0.0
 10
-3.4865
 20
-48.5748
 30
0.0
 10
-3.4865
 20
-48.5748
 30
0.0
 10
-2.8169
 20
-48.3346
 30
0.0
 10
-2.8169
 20
-48.3346
 30
0.0
 10
-2.8169
 20
-48.3346
 30
0.0
 10
-2.8169
 20
-48.3346
 30
0.0
 10
-2.1681
 20
-48.0437
 30
0.0
 10
-2.1681
 20
-48.0437
 30
0.0
 10
-2.1681
 20
-48.0437
 30
0.0
 10
-2.1681
 20
-48.0437
 30
0.0
 10
-1.5431
 20
-47.7039
 30
0.0
 10
-1.5431
 20
-47.7039
 30
0.0
 10
-1.5431
 20
-47.7039
 30
0.0
 10
-1.5431
 20
-47.7039
 30
0.0
 10
-0.9462
 20
-47.3171
 30
0.0
 10
-0.9462
 20
-47.3171
 30
0.0
 10
-0.9462
 20
-47.3171
 30
0.0
 10
-0.9462
 20
-47.3171
 30
0.0
 10
-0.3806
 20
-46.8861
 30
0.0
 10
-0.3806
 20
-46.8861
 30
0.0
 10
-0.3806
 20
-46.8861
 30
0.0
 10
-0.3806
 20
-46.8861
 30
0.0
 10
0.1505
 20
-46.4128
 30
0.0
 10
0.1505
 20
-46.4128
 30
0.0
 10
0.1505
 20
-46.4128
 30
0.0
 10
0.1505
 20
-46.4128
 30
0.0
 10
0.6438
 20
-45.90020000000001
 30
0.0
 10
0.6438
 20
-45.90020000000001
 30
0.0
 10
0.6438
 20
-45.90020000000001
 30
0.0
 10
0.6438
 20
-45.90020000000001
 30
0.0
 10
1.0963
 20
-45.35160000000001
 30
0.0
 10
1.0963
 20
-45.35160000000001
 30
0.0
 10
1.0963
 20
-45.35160000000001
 30
0.0
 10
1.0963
 20
-45.35160000000001
 30
0.0
 10
1.5054
 20
-44.7699
 30
0.0
 10
1.5054
 20
-44.7699
 30
0.0
 10
1.5054
 20
-44.7699
 30
0.0
 10
1.5054
 20
-44.7699
 30
0.0
 10
1.8687
 20
-44.1586
 30
0.0
 10
1.8687
 20
-44.1586
 30
0.0
 10
1.8687
 20
-44.1586
 30
0.0
 10
1.8687
 20
-44.1586
 30
0.0
 10
2.1845
 20
-43.5213
 30
0.0
 10
2.1845
 20
-43.5213
 30
0.0
 10
2.1845
 20
-43.5213
 30
0.0
 10
2.1845
 20
-43.5213
 30
0.0
 10
2.4504
 20
-42.8615
 30
0.0
 10
2.4504
 20
-42.8615
 30
0.0
 10
2.4504
 20
-42.8615
 30
0.0
 10
2.4504
 20
-42.8615
 30
0.0
 10
2.6649
 20
-42.1833
 30
0.0
 10
2.6649
 20
-42.1833
 30
0.0
 10
2.6649
 20
-42.1833
 30
0.0
 10
2.6649
 20
-42.1833
 30
0.0
 10
2.827
 20
-41.4909
 30
0.0
 10
2.827
 20
-41.4909
 30
0.0
 10
2.827
 20
-41.4909
 30
0.0
 10
2.827
 20
-41.4909
 30
0.0
 10
2.9354
 20
-40.788
 30
0.0
 10
2.9354
 20
-40.788
 30
0.0
 10
2.9354
 20
-40.788
 30
0.0
 10
2.9354
 20
-40.788
 30
0.0
 10
2.9899
 20
-40.0789
 30
0.0
 10
2.9899
 20
-40.0789
 30
0.0
 10
2.9899
 20
-40.0789
 30
0.0
 10
2.9899
 20
-40.0789
 30
0.0
 10
2.9899
 20
-39.3676
 30
0.0
 10
2.9899
 20
-39.3676
 30
0.0
 10
2.9899
 20
-39.3676
 30
0.0
 10
2.9899
 20
-39.3676
 30
0.0
 10
2.9354
 20
-38.6585
 30
0.0
 10
2.9354
 20
-38.6585
 30
0.0
 10
2.9354
 20
-38.6585
 30
0.0
 10
2.9354
 20
-38.6585
 30
0.0
 10
2.827
 20
-37.9557
 30
0.0
 10
2.827
 20
-37.9557
 30
0.0
 10
2.827
 20
-37.9557
 30
0.0
 10
2.827
 20
-37.9557
 30
0.0
 10
2.6649
 20
-37.2629
 30
0.0
 10
2.6649
 20
-37.2629
 30
0.0
 10
2.6649
 20
-37.2629
 30
0.0
 10
2.6649
 20
-37.2629
 30
0.0
 10
2.4504
 20
-36.58490000000001
 30
0.0
 10
2.4504
 20
-36.58490000000001
 30
0.0
 10
2.4504
 20
-36.58490000000001
 30
0.0
 10
2.4504
 20
-36.58490000000001
 30
0.0
 10
2.1845
 20
-35.9252
 30
0.0
 10
2.1845
 20
-35.9252
 30
0.0
 10
2.1845
 20
-35.9252
 30
0.0
 10
2.1845
 20
-35.9252
 30
0.0
 10
1.8687
 20
-35.2879
 30
0.0
 10
1.8687
 20
-35.2879
 30
0.0
 10
1.8687
 20
-35.2879
 30
0.0
 10
1.8687
 20
-35.2879
 30
0.0
 10
1.5054
 20
-34.6765
 30
0.0
 10
1.5054
 20
-34.6765
 30
0.0
 10
1.5054
 20
-34.6765
 30
0.0
 10
1.5054
 20
-34.6765
 30
0.0
 10
1.0963
 20
-34.0949
 30
0.0
 10
1.0963
 20
-34.0949
 30
0.0
 10
1.0963
 20
-34.0949
 30
0.0
 10
1.0963
 20
-34.0949
 30
0.0
 10
0.6438
 20
-33.546
 30
0.0
 10
0.6438
 20
-33.546
 30
0.0
 10
0.6438
 20
-33.546
 30
0.0
 10
0.6438
 20
-33.546
 30
0.0
 10
0.1505
 20
-33.0337
 30
0.0
 10
0.1505
 20
-33.0337
 30
0.0
 10
0.1505
 20
-33.0337
 30
0.0
 10
0.1505
 20
-33.0337
 30
0.0
 10
-0.3806
 20
-32.5603
 30
0.0
 10
-0.3806
 20
-32.5603
 30
0.0
 10
-0.3806
 20
-32.5603
 30
0.0
 10
-0.3806
 20
-32.5603
 30
0.0
 10
-0.9462
 20
-32.1291
 30
0.0
 10
-0.9462
 20
-32.1291
 30
0.0
 10
-0.9462
 20
-32.1291
 30
0.0
 10
-0.9462
 20
-32.1291
 30
0.0
 10
-1.5431
 20
-31.7426
 30
0.0
 10
-1.5431
 20
-31.7426
 30
0.0
 10
-1.5431
 20
-31.7426
 30
0.0
 10
-1.5431
 20
-31.7426
 30
0.0
 10
-2.1681
 20
-31.4028
 30
0.0
 10
-2.1681
 20
-31.4028
 30
0.0
 10
-2.1681
 20
-31.4028
 30
0.0
 10
-2.1681
 20
-31.4028
 30
0.0
 10
-2.8169
 20
-31.1118
 30
0.0
 10
-2.8169
 20
-31.1118
 30
0.0
 10
-2.8169
 20
-31.1118
 30
0.0
 10
-2.8169
 20
-31.1118
 30
0.0
 10
-3.4865
 20
-30.8714
 30
0.0
 10
-3.4865
 20
-30.8714
 30
0.0
 10
-3.4865
 20
-30.8714
 30
0.0
 10
-3.4865
 20
-30.8714
 30
0.0
 10
-4.172000000000001
 20
-30.683
 30
0.0
 10
-4.172000000000001
 20
-30.683
 30
0.0
 10
-4.172000000000001
 20
-30.683
 30
0.0
 10
-4.172000000000001
 20
-30.683
 30
0.0
 10
-4.870200000000001
 20
-30.5477
 30
0.0
 10
-4.870200000000001
 20
-30.5477
 30
0.0
 10
-4.870200000000001
 20
-30.5477
 30
0.0
 10
-4.870200000000001
 20
-30.5477
 30
0.0
 10
-5.5769
 20
-30.4661
 30
0.0
 10
-5.5769
 20
-30.4661
 30
0.0
 10
-5.5769
 20
-30.4661
 30
0.0
 10
-5.5769
 20
-30.4661
 30
0.0
 10
-6.2876
 20
-30.4388
 30
0.0
 10
-6.2876
 20
-30.4388
 30
0.0
  0
SPLINE
  5
6D
330
1F
100
AcDbEntity
  8
Ebene 1
370
    35
100
AcDbSpline
210
0.0
220
0.0
230
1.0
 70
    24
 71
     3
 72
     8
 73
     4
 74
     0
 42
0.0000000001
 43
0.0000000001
 40
0.0
 40
0.0
 40
0.0
 40
0.0
 40
1.0
 40
1.0
 40
1.0
 40
1.0
 10
-29.8856
 20
-49.0077
 30
0.0
 10
-29.8856
 20
-49.0077
 30
0.0
 10
-6.2876
 20
-49.0077
 30
0.0
 10
-6.2876
 20
-49.0077
 30
0.0
  0
SPLINE
  5
6E
330
1F
100
AcDbEntity
  8
Ebene 1
370
    35
100
AcDbSpline
210
0.0
220
0.0
230
1.0
 70
     8
 71
     3
 72
   168
 73
   164
 74
     0
 42
0.0000000001
 43
0.0000000001
 40
0.0
 40
0.0
 40
0.0
 40
0.0
 40
0.024390243902439
 40
0.024390243902439
 40
0.024390243902439
 40
0.024390243902439
 40
0.0487804878048781
 40
0.0487804878048781
 40
0.0487804878048781
 40
0.0487804878048781
 40
0.0731707317073171
 40
0.0731707317073171
 40
0.0731707317073171
 40
0.0731707317073171
 40
0.0975609756097561
 40
0.0975609756097561
 40
0.0975609756097561
 40
0.0975609756097561
 40
0.1219512195121951
 40
0.1219512195121951
 40
0.1219512195121951
 40
0.1219512195121951
 40
0.1463414634146341
 40
0.1463414634146341
 40
0.1463414634146341
 40
0.1463414634146341
 40
0.1707317073170732
 40
0.1707317073170732
 40
0.1707317073170732
 40
0.1707317073170732
 40
0.1951219512195122
 40
0.1951219512195122
 40
0.1951219512195122
 40
0.1951219512195122
 40
0.2195121951219512
 40
0.2195121951219512
 40
0.2195121951219512
 40
0.2195121951219512
 40
0.2439024390243902
 40
0.2439024390243902
 40
0.2439024390243902
 40
0.2439024390243902
 40
0.2682926829268292
 40
0.2682926829268292
 40
0.2682926829268292
 40
0.2682926829268292
 40
0.2926829268292683
 40
0.2926829268292683
 40
0.2926829268292683
 40
0.2926829268292683
 40
0.3170731707317073
 40
0.3170731707317073
 40
0.3170731707317073
 40
0.3170731707317073
 40
0.3414634146341464
 40
0.3414634146341464
 40
0.3414634146341464
 40
0.3414634146341464
 40
0.3658536585365854
 40
0.3658536585365854
 40
0.3658536585365854
 40
0.3658536585365854
 40
0.3902439024390245
 40
0.3902439024390245
 40
0.3902439024390245
 40
0.3902439024390245
 40
0.4146341463414635
 40
0.4146341463414635
 40
0.4146341463414635
 40
0.4146341463414635
 40
0.4390243902439026
 40
0.4390243902439026
 40
0.4390243902439026
 40
0.4390243902439026
 40
0.4634146341463416
 40
0.4634146341463416
 40
0.4634146341463416
 40
0.4634146341463416
 40
0.4878048780487806
 40
0.4878048780487806
 40
0.4878048780487806
 40
0.4878048780487806
 40
0.5121951219512196
 40
0.5121951219512196
 40
0.5121951219512196
 40
0.5121951219512196
 40
0.5365853658536587
 40
0.5365853658536587
 40
0.5365853658536587
 40
0.5365853658536587
 40
0.5609756097560977
 40
0.5609756097560977
 40
0.5609756097560977
 40
0.5609756097560977
 40
0.5853658536585368
 40
0.5853658536585368
 40
0.5853658536585368
 40
0.5853658536585368
 40
0.6097560975609758
 40
0.6097560975609758
 40
0.6097560975609758
 40
0.6097560975609758
 40
0.6341463414634149
 40
0.6341463414634149
 40
0.6341463414634149
 40
0.6341463414634149
 40
0.6585365853658539
 40
0.6585365853658539
 40
0.6585365853658539
 40
0.6585365853658539
 40
0.682926829268293
 40
0.682926829268293
 40
0.682926829268293
 40
0.682926829268293
 40
0.707317073170732
 40
0.707317073170732
 40
0.707317073170732
 40
0.707317073170732
 40
0.7317073170731711
 40
0.7317073170731711
 40
0.7317073170731711
 40
0.7317073170731711
 40
0.7560975609756101
 40
0.7560975609756101
 40
0.7560975609756101
 40
0.7560975609756101
 40
0.7804878048780491
 40
0.7804878048780491
 40
0.7804878048780491
 40
0.7804878048780491
 40
0.8048780487804882
 40
0.8048780487804882
 40
0.8048780487804882
 40
0.8048780487804882
 40
0.8292682926829272
 40
0.8292682926829272
 40
0.8292682926829272
 40
0.8292682926829272
 40
0.8536585365853663
 40
0.8536585365853663
 40
0.8536585365853663
 40
0.8536585365853663
 40
0.8780487804878053
 40
0.8780487804878053
 40
0.8780487804878053
 40
0.8780487804878053
 40
0.9024390243902444
 40
0.9024390243902444
 40
0.9024390243902444
 40
0.9024390243902444
 40
0.9268292682926834
 40
0.9268292682926834
 40
0.9268292682926834
 40
0.9268292682926834
 40
0.9512195121951225
 40
0.9512195121951225
 40
0.9512195121951225
 40
0.9512195121951225
 40
0.9756097560975615
 40
0.9756097560975615
 40
0.9756097560975615
 40
0.9756097560975615
 40
1.0
 40
1.0
 40
1.0
 40
1.0
 10
-29.8856
 20
-30.4388
 30
0.0
 10
-29.8856
 20
-30.4388
 30
0.0
 10
-30.5964
 20
-30.4661
 30
0.0
 10
-30.5964
 20
-30.4661
 30
0.0
 10
-30.5964
 20
-30.4661
 30
0.0
 10
-30.5964
 20
-30.4661
 30
0.0
 10
-31.3028
 20
-30.5477
 30
0.0
 10
-31.3028
 20
-30.5477
 30
0.0
 10
-31.3028
 20
-30.5477
 30
0.0
 10
-31.3028
 20
-30.5477
 30
0.0
 10
-32.00100000000001
 20
-30.683
 30
0.0
 10
-32.00100000000001
 20
-30.683
 30
0.0
 10
-32.00100000000001
 20
-30.683
 30
0.0
 10
-32.00100000000001
 20
-30.683
 30
0.0
 10
-32.6868
 20
-30.8714
 30
0.0
 10
-32.6868
 20
-30.8714
 30
0.0
 10
-32.6868
 20
-30.8714
 30
0.0
 10
-32.6868
 20
-30.8714
 30
0.0
 10
-33.35610000000001
 20
-31.1118
 30
0.0
 10
-33.35610000000001
 20
-31.1118
 30
0.0
 10
-33.35610000000001
 20
-31.1118
 30
0.0
 10
-33.35610000000001
 20
-31.1118
 30
0.0
 10
-34.0052
 20
-31.4028
 30
0.0
 10
-34.0052
 20
-31.4028
 30
0.0
 10
-34.0052
 20
-31.4028
 30
0.0
 10
-34.0052
 20
-31.4028
 30
0.0
 10
-34.6299
 20
-31.7426
 30
0.0
 10
-34.6299
 20
-31.7426
 30
0.0
 10
-34.6299
 20
-31.7426
 30
0.0
 10
-34.6299
 20
-31.7426
 30
0.0
 10
-35.2271
 20
-32.1291
 30
0.0
 10
-35.2271
 20
-32.1291
 30
0.0
 10
-35.2271
 20
-32.1291
 30
0.0
 10
-35.2271
 20
-32.1291
 30
0.0
 10
-35.7926
 20
-32.5603
 30
0.0
 10
-35.7926
 20
-32.5603
 30
0.0
 10
-35.7926
 20
-32.5603
 30
0.0
 10
-35.7926
 20
-32.5603
 30
0.0
 10
-36.3235
 20
-33.0337
 30
0.0
 10
-36.3235
 20
-33.0337
 30
0.0
 10
-36.3235
 20
-33.0337
 30
0.0
 10
-36.3235
 20
-33.0337
 30
0.0
 10
-36.8168
 20
-33.546
 30
0.0
 10
-36.8168
 20
-33.546
 30
0.0
 10
-36.8168
 20
-33.546
 30
0.0
 10
-36.8168
 20
-33.546
 30
0.0
 10
-37.2693
 20
-34.0949
 30
0.0
 10
-37.2693
 20
-34.0949
 30
0.0
 10
-37.2693
 20
-34.0949
 30
0.0
 10
-37.2693
 20
-34.0949
 30
0.0
 10
-37.6784
 20
-34.6765
 30
0.0
 10
-37.6784
 20
-34.6765
 30
0.0
 10
-37.6784
 20
-34.6765
 30
0.0
 10
-37.6784
 20
-34.6765
 30
0.0
 10
-38.042
 20
-35.2879
 30
0.0
 10
-38.042
 20
-35.2879
 30
0.0
 10
-38.042
 20
-35.2879
 30
0.0
 10
-38.042
 20
-35.2879
 30
0.0
 10
-38.3575
 20
-35.9252
 30
0.0
 10
-38.3575
 20
-35.9252
 30
0.0
 10
-38.3575
 20
-35.9252
 30
0.0
 10
-38.3575
 20
-35.9252
 30
0.0
 10
-38.6234
 20
-36.58490000000001
 30
0.0
 10
-38.6234
 20
-36.58490000000001
 30
0.0
 10
-38.6234
 20
-36.58490000000001
 30
0.0
 10
-38.6234
 20
-36.58490000000001
 30
0.0
 10
-38.83790000000001
 20
-37.2629
 30
0.0
 10
-38.83790000000001
 20
-37.2629
 30
0.0
 10
-38.83790000000001
 20
-37.2629
 30
0.0
 10
-38.83790000000001
 20
-37.2629
 30
0.0
 10
-39.0
 20
-37.9557
 30
0.0
 10
-39.0
 20
-37.9557
 30
0.0
 10
-39.0
 20
-37.9557
 30
0.0
 10
-39.0
 20
-37.9557
 30
0.0
 10
-39.1086
 20
-38.6585
 30
0.0
 10
-39.1086
 20
-38.6585
 30
0.0
 10
-39.1086
 20
-38.6585
 30
0.0
 10
-39.1086
 20
-38.6585
 30
0.0
 10
-39.1629
 20
-39.3676
 30
0.0
 10
-39.1629
 20
-39.3676
 30
0.0
 10
-39.1629
 20
-39.3676
 30
0.0
 10
-39.1629
 20
-39.3676
 30
0.0
 10
-39.1629
 20
-40.0789
 30
0.0
 10
-39.1629
 20
-40.0789
 30
0.0
 10
-39.1629
 20
-40.0789
 30
0.0
 10
-39.1629
 20
-40.0789
 30
0.0
 10
-39.1086
 20
-40.788
 30
0.0
 10
-39.1086
 20
-40.788
 30
0.0
 10
-39.1086
 20
-40.788
 30
0.0
 10
-39.1086
 20
-40.788
 30
0.0
 10
-39.0
 20
-41.4909
 30
0.0
 10
-39.0
 20
-41.4909
 30
0.0
 10
-39.0
 20
-41.4909
 30
0.0
 10
-39.0
 20
-41.4909
 30
0.0
 10
-38.83790000000001
 20
-42.1833
 30
0.0
 10
-38.83790000000001
 20
-42.1833
 30
0.0
 10
-38.83790000000001
 20
-42.1833
 30
0.0
 10
-38.83790000000001
 20
-42.1833
 30
0.0
 10
-38.6234
 20
-42.8615
 30
0.0
 10
-38.6234
 20
-42.8615
 30
0.0
 10
-38.6234
 20
-42.8615
 30
0.0
 10
-38.6234
 20
-42.8615
 30
0.0
 10
-38.3575
 20
-43.5213
 30
0.0
 10
-38.3575
 20
-43.5213
 30
0.0
 10
-38.3575
 20
-43.5213
 30
0.0
 10
-38.3575
 20
-43.5213
 30
0.0
 10
-38.042
 20
-44.1586
 30
0.0
 10
-38.042
 20
-44.1586
 30
0.0
 10
-38.042
 20
-44.1586
 30
0.0
 10
-38.042
 20
-44.1586
 30
0.0
 10
-37.6784
 20
-44.7699
 30
0.0
 10
-37.6784
 20
-44.7699
 30
0.0
 10
-37.6784
 20
-44.7699
 30
0.0
 10
-37.6784
 20
-44.7699
 30
0.0
 10
-37.2693
 20
-45.35160000000001
 30
0.0
 10
-37.2693
 20
-45.35160000000001
 30
0.0
 10
-37.2693
 20
-45.35160000000001
 30
0.0
 10
-37.2693
 20
-45.35160000000001
 30
0.0
 10
-36.8168
 20
-45.90020000000001
 30
0.0
 10
-36.8168
 20
-45.90020000000001
 30
0.0
 10
-36.8168
 20
-45.90020000000001
 30
0.0
 10
-36.8168
 20
-45.90020000000001
 30
0.0
 10
-36.3235
 20
-46.4128
 30
0.0
 10
-36.3235
 20
-46.4128
 30
0.0
 10
-36.3235
 20
-46.4128
 30
0.0
 10
-36.3235
 20
-46.4128
 30
0.0
 10
-35.7926
 20
-46.8861
 30
0.0
 10
-35.7926
 20
-46.8861
 30
0.0
 10
-35.7926
 20
-46.8861
 30
0.0
 10
-35.7926
 20
-46.8861
 30
0.0
 10
-35.2271
 20
-47.3171
 30
0.0
 10
-35.2271
 20
-47.3171
 30
0.0
 10
-35.2271
 20
-47.3171
 30
0.0
 10
-35.2271
 20
-47.3171
 30
0.0
 10
-34.6299
 20
-47.7039
 30
0.0
 10
-34.6299
 20
-47.7039
 30
0.0
 10
-34.6299
 20
-47.7039
 30
0.0
 10
-34.6299
 20
-47.7039
 30
0.0
 10
-34.0052
 20
-48.0437
 30
0.0
 10
-34.0052
 20
-48.0437
 30
0.0
 10
-34.0052
 20
-48.0437
 30
0.0
 10
-34.0052
 20
-48.0437
 30
0.0
 10
-33.35610000000001
 20
-48.3346
 30
0.0
 10
-33.35610000000001
 20
-48.3346
 30
0.0
 10
-33.35610000000001
 20
-48.3346
 30
0.0
 10
-33.35610000000001
 20
-48.3346
 30
0.0
 10
-32.6868
 20
-48.5748
 30
0.0
 10
-32.6868
 20
-48.5748
 30
0.0
 10
-32.6868
 20
-48.5748
 30
0.0
 10
-32.6868
 20
-48.5748
 30
0.0
 10
-32.00100000000001
 20
-48.7634
 30
0.0
 10
-32.00100000000001
 20
-48.7634
 30
0.0
 10
-32.00100000000001
 20
-48.7634
 30
0.0
 10
-32.00100000000001
 20
-48.7634
 30
0.0
 10
-31.3028
 20
-48.8988
 30
0.0
 10
-31.3028
 20
-48.8988
 30
0.0
 10
-31.3028
 20
-48.8988
 30
0.0
 10
-31.3028
 20
-48.8988
 30
0.0
 10
-30.5964
 20
-48.9804
 30
0.0
 10
-30.5964
 20
-48.9804
 30
0.0
 10
-30.5964
 20
-48.9804
 30
0.0
 10
-30.5964
 20
-48.9804
 30
0.0
 10
-29.8856
 20
-49.0077
 30
0.0
 10
-29.8856
 20
-49.0077
 30
0.0
  0
SPLINE
  5
6F
330
1F
100
AcDbEntity
  8
Ebene 1
370
    35
100
AcDbSpline
210
0.0
220
0.0
230
1.0
 70
     8
 71
     3
 72
   144
 73
   140
 74
     0
 42
0.0000000001
 43
0.0000000001
 40
0.0
 40
0.0
 40
0.0
 40
0.0
 40
0.0285714285714286
 40
0.0285714285714286
 40
0.0285714285714286
 40
0.0285714285714286
 40
0.0571428571428571
 40
0.0571428571428571
 40
0.0571428571428571
 40
0.0571428571428571
 40
0.0857142857142857
 40
0.0857142857142857
 40
0.0857142857142857
 40
0.0857142857142857
 40
0.1142857142857143
 40
0.1142857142857143
 40
0.1142857142857143
 40
0.1142857142857143
 40
0.1428571428571429
 40
0.1428571428571429
 40
0.1428571428571429
 40
0.1428571428571429
 40
0.1714285714285714
 40
0.1714285714285714
 40
0.1714285714285714
 40
0.1714285714285714
 40
0.2
 40
0.2
 40
0.2
 40
0.2
 40
0.2285714285714286
 40
0.2285714285714286
 40
0.2285714285714286
 40
0.2285714285714286
 40
0.2571428571428572
 40
0.2571428571428572
 40
0.2571428571428572
 40
0.2571428571428572
 40
0.2857142857142858
 40
0.2857142857142858
 40
0.2857142857142858
 40
0.2857142857142858
 40
0.3142857142857143
 40
0.3142857142857143
 40
0.3142857142857143
 40
0.3142857142857143
 40
0.3428571428571429
 40
0.3428571428571429
 40
0.3428571428571429
 40
0.3428571428571429
 40
0.3714285714285715
 40
0.3714285714285715
 40
0.3714285714285715
 40
0.3714285714285715
 40
0.4000000000000001
 40
0.4000000000000001
 40
0.4000000000000001
 40
0.4000000000000001
 40
0.4285714285714287
 40
0.4285714285714287
 40
0.4285714285714287
 40
0.4285714285714287
 40
0.4571428571428572
 40
0.4571428571428572
 40
0.4571428571428572
 40
0.4571428571428572
 40
0.4857142857142858
 40
0.4857142857142858
 40
0.4857142857142858
 40
0.4857142857142858
 40
0.5142857142857144
 40
0.5142857142857144
 40
0.5142857142857144
 40
0.5142857142857144
 40
0.5428571428571429
 40
0.5428571428571429
 40
0.5428571428571429
 40
0.5428571428571429
 40
0.5714285714285715
 40
0.5714285714285715
 40
0.5714285714285715
 40
0.5714285714285715
 40
0.6000000000000001
 40
0.6000000000000001
 40
0.6000000000000001
 40
0.6000000000000001
 40
0.6285714285714287
 40
0.6285714285714287
 40
0.6285714285714287
 40
0.6285714285714287
 40
0.6571428571428573
 40
0.6571428571428573
 40
0.6571428571428573
 40
0.6571428571428573
 40
0.6857142857142858
 40
0.6857142857142858
 40
0.6857142857142858
 40
0.6857142857142858
 40
0.7142857142857144
 40
0.7142857142857144
 40
0.7142857142857144
 40
0.7142857142857144
 40
0.742857142857143
 40
0.742857142857143
 40
0.742857142857143
 40
0.742857142857143
 40
0.7714285714285716
 40
0.7714285714285716
 40
0.7714285714285716
 40
0.7714285714285716
 40
0.8000000000000002
 40
0.8000000000000002
 40
0.8000000000000002
 40
0.8000000000000002
 40
0.8285714285714287
 40
0.8285714285714287
 40
0.8285714285714287
 40
0.8285714285714287
 40
0.8571428571428573
 40
0.8571428571428573
 40
0.8571428571428573
 40
0.8571428571428573
 40
0.8857142857142859
 40
0.8857142857142859
 40
0.8857142857142859
 40
0.8857142857142859
 40
0.9142857142857145
 40
0.9142857142857145
 40
0.9142857142857145
 40
0.9142857142857145
 40
0.9428571428571431
 40
0.9428571428571431
 40
0.9428571428571431
 40
0.9428571428571431
 40
0.9714285714285716
 40
0.9714285714285716
 40
0.9714285714285716
 40
0.9714285714285716
 40
1.0
 40
1.0
 40
1.0
 40
1.0
 10
-13.6378
 20
-32.7599
 30
0.0
 10
-13.6378
 20
-32.7599
 30
0.0
 10
-13.0136
 20
-32.788
 30
0.0
 10
-13.0136
 20
-32.788
 30
0.0
 10
-13.0136
 20
-32.788
 30
0.0
 10
-13.0136
 20
-32.788
 30
0.0
 10
-12.3945
 20
-32.8718
 30
0.0
 10
-12.3945
 20
-32.8718
 30
0.0
 10
-12.3945
 20
-32.8718
 30
0.0
 10
-12.3945
 20
-32.8718
 30
0.0
 10
-11.7853
 20
-33.0107
 30
0.0
 10
-11.7853
 20
-33.0107
 30
0.0
 10
-11.7853
 20
-33.0107
 30
0.0
 10
-11.7853
 20
-33.0107
 30
0.0
 10
-11.1911
 20
-33.204
 30
0.0
 10
-11.1911
 20
-33.204
 30
0.0
 10
-11.1911
 20
-33.204
 30
0.0
 10
-11.1911
 20
-33.204
 30
0.0
 10
-10.6166
 20
-33.4496
 30
0.0
 10
-10.6166
 20
-33.4496
 30
0.0
 10
-10.6166
 20
-33.4496
 30
0.0
 10
-10.6166
 20
-33.4496
 30
0.0
 10
-10.0663
 20
-33.7455
 30
0.0
 10
-10.0663
 20
-33.7455
 30
0.0
 10
-10.0663
 20
-33.7455
 30
0.0
 10
-10.0663
 20
-33.7455
 30
0.0
 10
-9.545
 20
-34.0896
 30
0.0
 10
-9.545
 20
-34.0896
 30
0.0
 10
-9.545
 20
-34.0896
 30
0.0
 10
-9.545
 20
-34.0896
 30
0.0
 10
-9.0564
 20
-34.4794
 30
0.0
 10
-9.0564
 20
-34.4794
 30
0.0
 10
-9.0564
 20
-34.4794
 30
0.0
 10
-9.0564
 20
-34.4794
 30
0.0
 10
-8.604700000000001
 20
-34.9112
 30
0.0
 10
-8.604700000000001
 20
-34.9112
 30
0.0
 10
-8.604700000000001
 20
-34.9112
 30
0.0
 10
-8.604700000000001
 20
-34.9112
 30
0.0
 10
-8.1937
 20
-35.3818
 30
0.0
 10
-8.1937
 20
-35.3818
 30
0.0
 10
-8.1937
 20
-35.3818
 30
0.0
 10
-8.1937
 20
-35.3818
 30
0.0
 10
-7.8265
 20
-35.8873
 30
0.0
 10
-7.8265
 20
-35.8873
 30
0.0
 10
-7.8265
 20
-35.8873
 30
0.0
 10
-7.8265
 20
-35.8873
 30
0.0
 10
-7.505800000000001
 20
-36.4237
 30
0.0
 10
-7.505800000000001
 20
-36.4237
 30
0.0
 10
-7.505800000000001
 20
-36.4237
 30
0.0
 10
-7.505800000000001
 20
-36.4237
 30
0.0
 10
-7.234800000000001
 20
-36.9864
 30
0.0
 10
-7.234800000000001
 20
-36.9864
 30
0.0
 10
-7.234800000000001
 20
-36.9864
 30
0.0
 10
-7.234800000000001
 20
-36.9864
 30
0.0
 10
-7.015300000000001
 20
-37.5714
 30
0.0
 10
-7.015300000000001
 20
-37.5714
 30
0.0
 10
-7.015300000000001
 20
-37.5714
 30
0.0
 10
-7.015300000000001
 20
-37.5714
 30
0.0
 10
-6.8491
 20
-38.1738
 30
0.0
 10
-6.8491
 20
-38.1738
 30
0.0
 10
-6.8491
 20
-38.1738
 30
0.0
 10
-6.8491
 20
-38.1738
 30
0.0
 10
-6.737500000000001
 20
-38.7884
 30
0.0
 10
-6.737500000000001
 20
-38.7884
 30
0.0
 10
-6.737500000000001
 20
-38.7884
 30
0.0
 10
-6.737500000000001
 20
-38.7884
 30
0.0
 10
-6.681500000000001
 20
-39.4108
 30
0.0
 10
-6.681500000000001
 20
-39.4108
 30
0.0
 10
-6.681500000000001
 20
-39.4108
 30
0.0
 10
-6.681500000000001
 20
-39.4108
 30
0.0
 10
-6.681500000000001
 20
-40.0358
 30
0.0
 10
-6.681500000000001
 20
-40.0358
 30
0.0
 10
-6.681500000000001
 20
-40.0358
 30
0.0
 10
-6.681500000000001
 20
-40.0358
 30
0.0
 10
-6.737500000000001
 20
-40.6578
 30
0.0
 10
-6.737500000000001
 20
-40.6578
 30
0.0
 10
-6.737500000000001
 20
-40.6578
 30
0.0
 10
-6.737500000000001
 20
-40.6578
 30
0.0
 10
-6.8491
 20
-41.2727
 30
0.0
 10
-6.8491
 20
-41.2727
 30
0.0
 10
-6.8491
 20
-41.2727
 30
0.0
 10
-6.8491
 20
-41.2727
 30
0.0
 10
-7.015300000000001
 20
-41.8751
 30
0.0
 10
-7.015300000000001
 20
-41.8751
 30
0.0
 10
-7.015300000000001
 20
-41.8751
 30
0.0
 10
-7.015300000000001
 20
-41.8751
 30
0.0
 10
-7.234800000000001
 20
-42.4601
 30
0.0
 10
-7.234800000000001
 20
-42.4601
 30
0.0
 10
-7.234800000000001
 20
-42.4601
 30
0.0
 10
-7.234800000000001
 20
-42.4601
 30
0.0
 10
-7.505800000000001
 20
-43.0229
 30
0.0
 10
-7.505800000000001
 20
-43.0229
 30
0.0
 10
-7.505800000000001
 20
-43.0229
 30
0.0
 10
-7.505800000000001
 20
-43.0229
 30
0.0
 10
-7.8265
 20
-43.5592
 30
0.0
 10
-7.8265
 20
-43.5592
 30
0.0
 10
-7.8265
 20
-43.5592
 30
0.0
 10
-7.8265
 20
-43.5592
 30
0.0
 10
-8.1937
 20
-44.0647
 30
0.0
 10
-8.1937
 20
-44.0647
 30
0.0
 10
-8.1937
 20
-44.0647
 30
0.0
 10
-8.1937
 20
-44.0647
 30
0.0
 10
-8.604700000000001
 20
-44.5353
 30
0.0
 10
-8.604700000000001
 20
-44.5353
 30
0.0
 10
-8.604700000000001
 20
-44.5353
 30
0.0
 10
-8.604700000000001
 20
-44.5353
 30
0.0
 10
-9.0564
 20
-44.967
 30
0.0
 10
-9.0564
 20
-44.967
 30
0.0
 10
-9.0564
 20
-44.967
 30
0.0
 10
-9.0564
 20
-44.967
 30
0.0
 10
-9.545
 20
-45.3566
 30
0.0
 10
-9.545
 20
-45.3566
 30
0.0
 10
-9.545
 20
-45.3566
 30
0.0
 10
-9.545
 20
-45.3566
 30
0.0
 10
-10.0663
 20
-45.70070000000001
 30
0.0
 10
-10.0663
 20
-45.70070000000001
 30
0.0
 10
-10.0663
 20
-45.70070000000001
 30
0.0
 10
-10.0663
 20
-45.70070000000001
 30
0.0
 10
-10.6166
 20
-45.9969
 30
0.0
 10
-10.6166
 20
-45.9969
 30
0.0
 10
-10.6166
 20
-45.9969
 30
0.0
 10
-10.6166
 20
-45.9969
 30
0.0
 10
-11.1911
 20
-46.2425
 30
0.0
 10
-11.1911
 20
-46.2425
 30
0.0
 10
-11.1911
 20
-46.2425
 30
0.0
 10
-11.1911
 20
-46.2425
 30
0.0
 10
-11.7853
 20
-46.43550000000001
 30
0.0
 10
-11.7853
 20
-46.43550000000001
 30
0.0
 10
-11.7853
 20
-46.43550000000001
 30
0.0
 10
-11.7853
 20
-46.43550000000001
 30
0.0
 10
-12.3945
 20
-46.5747
 30
0.0
 10
-12.3945
 20
-46.5747
 30
0.0
 10
-12.3945
 20
-46.5747
 30
0.0
 10
-12.3945
 20
-46.5747
 30
0.0
 10
-13.0136
 20
-46.6585
 30
0.0
 10
-13.0136
 20
-46.6585
 30
0.0
 10
-13.0136
 20
-46.6585
 30
0.0
 10
-13.0136
 20
-46.6585
 30
0.0
 10
-13.6378
 20
-46.68660000000001
 30
0.0
 10
-13.6378
 20
-46.68660000000001
 30
0.0
  0
SPLINE
  5
70
330
1F
100
AcDbEntity
  8
Ebene 1
370
    35
100
AcDbSpline
210
0.0
220
0.0
230
1.0
 70
    24
 71
     3
 72
     8
 73
     4
 74
     0
 42
0.0000000001
 43
0.0000000001
 40
0.0
 40
0.0
 40
0.0
 40
0.0
 40
1.0
 40
1.0
 40
1.0
 40
1.0
 10
-22.5355
 20
-32.7599
 30
0.0
 10
-22.5355
 20
-32.7599
 30
0.0
 10
-13.6378
 20
-32.7599
 30
0.0
 10
-13.6378
 20
-32.7599
 30
0.0
  0
SPLINE
  5
71
330
1F
100
AcDbEntity
  8
Ebene 1
370
    35
100
AcDbSpline
210
0.0
220
0.0
230
1.0
 70
     8
 71
     3
 72
   144
 73
   140
 74
     0
 42
0.0000000001
 43
0.0000000001
 40
0.0
 40
0.0
 40
0.0
 40
0.0
 40
0.0285714285714286
 40
0.0285714285714286
 40
0.0285714285714286
 40
0.0285714285714286
 40
0.0571428571428571
 40
0.0571428571428571
 40
0.0571428571428571
 40
0.0571428571428571
 40
0.0857142857142857
 40
0.0857142857142857
 40
0.0857142857142857
 40
0.0857142857142857
 40
0.1142857142857143
 40
0.1142857142857143
 40
0.1142857142857143
 40
0.1142857142857143
 40
0.1428571428571429
 40
0.1428571428571429
 40
0.1428571428571429
 40
0.1428571428571429
 40
0.1714285714285714
 40
0.1714285714285714
 40
0.1714285714285714
 40
0.1714285714285714
 40
0.2
 40
0.2
 40
0.2
 40
0.2
 40
0.2285714285714286
 40
0.2285714285714286
 40
0.2285714285714286
 40
0.2285714285714286
 40
0.2571428571428572
 40
0.2571428571428572
 40
0.2571428571428572
 40
0.2571428571428572
 40
0.2857142857142858
 40
0.2857142857142858
 40
0.2857142857142858
 40
0.2857142857142858
 40
0.3142857142857143
 40
0.3142857142857143
 40
0.3142857142857143
 40
0.3142857142857143
 40
0.3428571428571429
 40
0.3428571428571429
 40
0.3428571428571429
 40
0.3428571428571429
 40
0.3714285714285715
 40
0.3714285714285715
 40
0.3714285714285715
 40
0.3714285714285715
 40
0.4000000000000001
 40
0.4000000000000001
 40
0.4000000000000001
 40
0.4000000000000001
 40
0.4285714285714287
 40
0.4285714285714287
 40
0.4285714285714287
 40
0.4285714285714287
 40
0.4571428571428572
 40
0.4571428571428572
 40
0.4571428571428572
 40
0.4571428571428572
 40
0.4857142857142858
 40
0.4857142857142858
 40
0.4857142857142858
 40
0.4857142857142858
 40
0.5142857142857144
 40
0.5142857142857144
 40
0.5142857142857144
 40
0.5142857142857144
 40
0.5428571428571429
 40
0.5428571428571429
 40
0.5428571428571429
 40
0.5428571428571429
 40
0.5714285714285715
 40
0.5714285714285715
 40
0.5714285714285715
 40
0.5714285714285715
 40
0.6000000000000001
 40
0.6000000000000001
 40
0.6000000000000001
 40
0.6000000000000001
 40
0.6285714285714287
 40
0.6285714285714287
 40
0.6285714285714287
 40
0.6285714285714287
 40
0.6571428571428573
 40
0.6571428571428573
 40
0.6571428571428573
 40
0.6571428571428573
 40
0.6857142857142858
 40
0.6857142857142858
 40
0.6857142857142858
 40
0.6857142857142858
 40
0.7142857142857144
 40
0.7142857142857144
 40
0.7142857142857144
 40
0.7142857142857144
 40
0.742857142857143
 40
0.742857142857143
 40
0.742857142857143
 40
0.742857142857143
 40
0.7714285714285716
 40
0.7714285714285716
 40
0.7714285714285716
 40
0.7714285714285716
 40
0.8000000000000002
 40
0.8000000000000002
 40
0.8000000000000002
 40
0.8000000000000002
 40
0.8285714285714287
 40
0.8285714285714287
 40
0.8285714285714287
 40
0.8285714285714287
 40
0.8571428571428573
 40
0.8571428571428573
 40
0.8571428571428573
 40
0.8571428571428573
 40
0.8857142857142859
 40
0.8857142857142859
 40
0.8857142857142859
 40
0.8857142857142859
 40
0.9142857142857145
 40
0.9142857142857145
 40
0.9142857142857145
 40
0.9142857142857145
 40
0.9428571428571431
 40
0.9428571428571431
 40
0.9428571428571431
 40
0.9428571428571431
 40
0.9714285714285716
 40
0.9714285714285716
 40
0.9714285714285716
 40
0.9714285714285716
 40
1.0
 40
1.0
 40
1.0
 40
1.0
 10
-22.5355
 20
-46.68660000000001
 30
0.0
 10
-22.5355
 20
-46.68660000000001
 30
0.0
 10
-23.1594
 20
-46.6585
 30
0.0
 10
-23.1594
 20
-46.6585
 30
0.0
 10
-23.1594
 20
-46.6585
 30
0.0
 10
-23.1594
 20
-46.6585
 30
0.0
 10
-23.7788
 20
-46.5747
 30
0.0
 10
-23.7788
 20
-46.5747
 30
0.0
 10
-23.7788
 20
-46.5747
 30
0.0
 10
-23.7788
 20
-46.5747
 30
0.0
 10
-24.388
 20
-46.43550000000001
 30
0.0
 10
-24.388
 20
-46.43550000000001
 30
0.0
 10
-24.388
 20
-46.43550000000001
 30
0.0
 10
-24.388
 20
-46.43550000000001
 30
0.0
 10
-24.9822
 20
-46.2425
 30
0.0
 10
-24.9822
 20
-46.2425
 30
0.0
 10
-24.9822
 20
-46.2425
 30
0.0
 10
-24.9822
 20
-46.2425
 30
0.0
 10
-25.5567
 20
-45.9969
 30
0.0
 10
-25.5567
 20
-45.9969
 30
0.0
 10
-25.5567
 20
-45.9969
 30
0.0
 10
-25.5567
 20
-45.9969
 30
0.0
 10
-26.1067
 20
-45.70070000000001
 30
0.0
 10
-26.1067
 20
-45.70070000000001
 30
0.0
 10
-26.1067
 20
-45.70070000000001
 30
0.0
 10
-26.1067
 20
-45.70070000000001
 30
0.0
 10
-26.6283
 20
-45.3566
 30
0.0
 10
-26.6283
 20
-45.3566
 30
0.0
 10
-26.6283
 20
-45.3566
 30
0.0
 10
-26.6283
 20
-45.3566
 30
0.0
 10
-27.1169
 20
-44.967
 30
0.0
 10
-27.1169
 20
-44.967
 30
0.0
 10
-27.1169
 20
-44.967
 30
0.0
 10
-27.1169
 20
-44.967
 30
0.0
 10
-27.5683
 20
-44.5353
 30
0.0
 10
-27.5683
 20
-44.5353
 30
0.0
 10
-27.5683
 20
-44.5353
 30
0.0
 10
-27.5683
 20
-44.5353
 30
0.0
 10
-27.9793
 20
-44.0647
 30
0.0
 10
-27.9793
 20
-44.0647
 30
0.0
 10
-27.9793
 20
-44.0647
 30
0.0
 10
-27.9793
 20
-44.0647
 30
0.0
 10
-28.3468
 20
-43.5592
 30
0.0
 10
-28.3468
 20
-43.5592
 30
0.0
 10
-28.3468
 20
-43.5592
 30
0.0
 10
-28.3468
 20
-43.5592
 30
0.0
 10
-28.6672
 20
-43.0229
 30
0.0
 10
-28.6672
 20
-43.0229
 30
0.0
 10
-28.6672
 20
-43.0229
 30
0.0
 10
-28.6672
 20
-43.0229
 30
0.0
 10
-28.9382
 20
-42.4601
 30
0.0
 10
-28.9382
 20
-42.4601
 30
0.0
 10
-28.9382
 20
-42.4601
 30
0.0
 10
-28.9382
 20
-42.4601
 30
0.0
 10
-29.1579
 20
-41.8751
 30
0.0
 10
-29.1579
 20
-41.8751
 30
0.0
 10
-29.1579
 20
-41.8751
 30
0.0
 10
-29.1579
 20
-41.8751
 30
0.0
 10
-29.3242
 20
-41.2727
 30
0.0
 10
-29.3242
 20
-41.2727
 30
0.0
 10
-29.3242
 20
-41.2727
 30
0.0
 10
-29.3242
 20
-41.2727
 30
0.0
 10
-29.4355
 20
-40.6578
 30
0.0
 10
-29.4355
 20
-40.6578
 30
0.0
 10
-29.4355
 20
-40.6578
 30
0.0
 10
-29.4355
 20
-40.6578
 30
0.0
 10
-29.4918
 20
-40.0358
 30
0.0
 10
-29.4918
 20
-40.0358
 30
0.0
 10
-29.4918
 20
-40.0358
 30
0.0
 10
-29.4918
 20
-40.0358
 30
0.0
 10
-29.4918
 20
-39.4108
 30
0.0
 10
-29.4918
 20
-39.4108
 30
0.0
 10
-29.4918
 20
-39.4108
 30
0.0
 10
-29.4918
 20
-39.4108
 30
0.0
 10
-29.4355
 20
-38.7884
 30
0.0
 10
-29.4355
 20
-38.7884
 30
0.0
 10
-29.4355
 20
-38.7884
 30
0.0
 10
-29.4355
 20
-38.7884
 30
0.0
 10
-29.3242
 20
-38.1738
 30
0.0
 10
-29.3242
 20
-38.1738
 30
0.0
 10
-29.3242
 20
-38.1738
 30
0.0
 10
-29.3242
 20
-38.1738
 30
0.0
 10
-29.1579
 20
-37.5714
 30
0.0
 10
-29.1579
 20
-37.5714
 30
0.0
 10
-29.1579
 20
-37.5714
 30
0.0
 10
-29.1579
 20
-37.5714
 30
0.0
 10
-28.9382
 20
-36.9864
 30
0.0
 10
-28.9382
 20
-36.9864
 30
0.0
 10
-28.9382
 20
-36.9864
 30
0.0
 10
-28.9382
 20
-36.9864
 30
0.0
 10
-28.6672
 20
-36.4237
 30
0.0
 10
-28.6672
 20
-36.4237
 30
0.0
 10
-28.6672
 20
-36.4237
 30
0.0
 10
-28.6672
 20
-36.4237
 30
0.0
 10
-28.3468
 20
-35.8873
 30
0.0
 10
-28.3468
 20
-35.8873
 30
0.0
 10
-28.3468
 20
-35.8873
 30
0.0
 10
-28.3468
 20
-35.8873
 30
0.0
 10
-27.9793
 20
-35.3818
 30
0.0
 10
-27.9793
 20
-35.3818
 30
0.0
 10
-27.9793
 20
-35.3818
 30
0.0
 10
-27.9793
 20
-35.3818
 30
0.0
 10
-27.5683
 20
-34.9112
 30
0.0
 10
-27.5683
 20
-34.9112
 30
0.0
 10
-27.5683
 20
-34.9112
 30
0.0
 10
-27.5683
 20
-34.9112
 30
0.0
 10
-27.1169
 20
-34.4794
 30
0.0
 10
-27.1169
 20
-34.4794
 30
0.0
 10
-27.1169
 20
-34.4794
 30
0.0
 10
-27.1169
 20
-34.4794
 30
0.0
 10
-26.6283
 20
-34.0896
 30
0.0
 10
-26.6283
 20
-34.0896
 30
0.0
 10
-26.6283
 20
-34.0896
 30
0.0
 10
-26.6283
 20
-34.0896
 30
0.0
 10
-26.1067
 20
-33.7455
 30
0.0
 10
-26.1067
 20
-33.7455
 30
0.0
 10
-26.1067
 20
-33.7455
 30
0.0
 10
-26.1067
 20
-33.7455
 30
0.0
 10
-25.5567
 20
-33.4496
 30
0.0
 10
-25.5567
 20
-33.4496
 30
0.0
 10
-25.5567
 20
-33.4496
 30
0.0
 10
-25.5567
 20
-33.4496
 30
0.0
 10
-24.9822
 20
-33.204
 30
0.0
 10
-24.9822
 20
-33.204
 30
0.0
 10
-24.9822
 20
-33.204
 30
0.0
 10
-24.9822
 20
-33.204
 30
0.0
 10
-24.388
 20
-33.0107
 30
0.0
 10
-24.388
 20
-33.0107
 30
0.0
 10
-24.388
 20
-33.0107
 30
0.0
 10
-24.388
 20
-33.0107
 30
0.0
 10
-23.7788
 20
-32.8718
 30
0.0
 10
-23.7788
 20
-32.8718
 30
0.0
 10
-23.7788
 20
-32.8718
 30
0.0
 10
-23.7788
 20
-32.8718
 30
0.0
 10
-23.1594
 20
-32.788
 30
0.0
 10
-23.1594
 20
-32.788
 30
0.0
 10
-23.1594
 20
-32.788
 30
0.0
 10
-23.1594
 20
-32.788
 30
0.0
 10
-22.5355
 20
-32.7599
 30
0.0
 10
-22.5355
 20
-32.7599
 30
0.0
  0
SPLINE
  5
72
330
1F
100
AcDbEntity
  8
Ebene 1
370
    35
100
AcDbSpline
210
0.0
220
0.0
230
1.0
 70
    24
 71
     3
 72
     8
 73
     4
 74
     0
 42
0.0000000001
 43
0.0000000001
 40
0.0
 40
0.0
 40
0.0
 40
0.0
 40
1.0
 40
1.0
 40
1.0
 40
1.0
 10
-13.6378
 20
-46.68660000000001
 30
0.0
 10
-13.6378
 20
-46.68660000000001
 30
0.0
 10
-22.5355
 20
-46.68660000000001
 30
0.0
 10
-22.5355
 20
-46.68660000000001
 30
0.0
  0
SPLINE
  5
73
330
1F
100
AcDbEntity
  8
Ebene 1
370
    35
100
AcDbSpline
210
0.0
220
0.0
230
1.0
 70
    24
 71
     3
 72
     8
 73
     4
 74
     0
 42
0.0000000001
 43
0.0000000001
 40
0.0
 40
0.0
 40
0.0
 40
0.0
 40
1.0
 40
1.0
 40
1.0
 40
1.0
 10
-13.6378
 20
-33.5337
 30
0.0
 10
-13.6378
 20
-33.5337
 30
0.0
 10
-22.5355
 20
-33.5337
 30
0.0
 10
-22.5355
 20
-33.5337
 30
0.0
  0
SPLINE
  5
74
330
1F
100
AcDbEntity
  8
Ebene 1
370
    35
100
AcDbSpline
210
0.0
220
0.0
230
1.0
 70
    24
 71
     3
 72
    36
 73
    32
 74
     0
 42
0.0000000001
 43
0.0000000001
 40
0.0
 40
0.0
 40
0.0
 40
0.0
 40
0.125
 40
0.125
 40
0.125
 40
0.125
 40
0.25
 40
0.25
 40
0.25
 40
0.25
 40
0.375
 40
0.375
 40
0.375
 40
0.375
 40
0.5
 40
0.5
 40
0.5
 40
0.5
 40
0.625
 40
0.625
 40
0.625
 40
0.625
 40
0.75
 40
0.75
 40
0.75
 40
0.75
 40
0.875
 40
0.875
 40
0.875
 40
0.875
 40
1.0
 40
1.0
 40
1.0
 40
1.0
 10
-22.5355
 20
-33.5337
 30
0.0
 10
-22.5355
 20
-33.5337
 30
0.0
 10
-22.5355
 20
-33.5186
 30
0.0
 10
-22.5355
 20
-33.5186
 30
0.0
 10
-22.5355
 20
-33.5186
 30
0.0
 10
-22.5355
 20
-33.5186
 30
0.0
 10
-22.5355
 20
-33.4747
 30
0.0
 10
-22.5355
 20
-33.4747
 30
0.0
 10
-22.5355
 20
-33.4747
 30
0.0
 10
-22.5355
 20
-33.4747
 30
0.0
 10
-22.5355
 20
-33.4032
 30
0.0
 10
-22.5355
 20
-33.4032
 30
0.0
 10
-22.5355
 20
-33.4032
 30
0.0
 10
-22.5355
 20
-33.4032
 30
0.0
 10
-22.5355
 20
-33.3071
 30
0.0
 10
-22.5355
 20
-33.3071
 30
0.0
 10
-22.5355
 20
-33.3071
 30
0.0
 10
-22.5355
 20
-33.3071
 30
0.0
 10
-22.5355
 20
-33.1897
 30
0.0
 10
-22.5355
 20
-33.1897
 30
0.0
 10
-22.5355
 20
-33.1897
 30
0.0
 10
-22.5355
 20
-33.1897
 30
0.0
 10
-22.5355
 20
-33.0561
 30
0.0
 10
-22.5355
 20
-33.0561
 30
0.0
 10
-22.5355
 20
-33.0561
 30
0.0
 10
-22.5355
 20
-33.0561
 30
0.0
 10
-22.5355
 20
-32.9108
 30
0.0
 10
-22.5355
 20
-32.9108
 30
0.0
 10
-22.5355
 20
-32.9108
 30
0.0
 10
-22.5355
 20
-32.9108
 30
0.0
 10
-22.5355
 20
-32.7599
 30
0.0
 10
-22.5355
 20
-32.7599
 30
0.0
  0
SPLINE
  5
75
330
1F
100
AcDbEntity
  8
Ebene 1
370
    35
100
AcDbSpline
210
0.0
220
0.0
230
1.0
 70
    24
 71
     3
 72
    36
 73
    32
 74
     0
 42
0.0000000001
 43
0.0000000001
 40
0.0
 40
0.0
 40
0.0
 40
0.0
 40
0.125
 40
0.125
 40
0.125
 40
0.125
 40
0.25
 40
0.25
 40
0.25
 40
0.25
 40
0.375
 40
0.375
 40
0.375
 40
0.375
 40
0.5
 40
0.5
 40
0.5
 40
0.5
 40
0.625
 40
0.625
 40
0.625
 40
0.625
 40
0.75
 40
0.75
 40
0.75
 40
0.75
 40
0.875
 40
0.875
 40
0.875
 40
0.875
 40
1.0
 40
1.0
 40
1.0
 40
1.0
 10
-13.6378
 20
-33.5337
 30
0.0
 10
-13.6378
 20
-33.5337
 30
0.0
 10
-13.6378
 20
-33.5186
 30
0.0
 10
-13.6378
 20
-33.5186
 30
0.0
 10
-13.6378
 20
-33.5186
 30
0.0
 10
-13.6378
 20
-33.5186
 30
0.0
 10
-13.6378
 20
-33.4747
 30
0.0
 10
-13.6378
 20
-33.4747
 30
0.0
 10
-13.6378
 20
-33.4747
 30
0.0
 10
-13.6378
 20
-33.4747
 30
0.0
 10
-13.6378
 20
-33.4032
 30
0.0
 10
-13.6378
 20
-33.4032
 30
0.0
 10
-13.6378
 20
-33.4032
 30
0.0
 10
-13.6378
 20
-33.4032
 30
0.0
 10
-13.6378
 20
-33.3071
 30
0.0
 10
-13.6378
 20
-33.3071
 30
0.0
 10
-13.6378
 20
-33.3071
 30
0.0
 10
-13.6378
 20
-33.3071
 30
0.0
 10
-13.6378
 20
-33.1897
 30
0.0
 10
-13.6378
 20
-33.1897
 30
0.0
 10
-13.6378
 20
-33.1897
 30
0.0
 10
-13.6378
 20
-33.1897
 30
0.0
 10
-13.6378
 20
-33.0561
 30
0.0
 10
-13.6378
 20
-33.0561
 30
0.0
 10
-13.6378
 20
-33.0561
 30
0.0
 10
-13.6378
 20
-33.0561
 30
0.0
 10
-13.6378
 20
-32.9108
 30
0.0
 10
-13.6378
 20
-32.9108
 30
0.0
 10
-13.6378
 20
-32.9108
 30
0.0
 10
-13.6378
 20
-32.9108
 30
0.0
 10
-13.6378
 20
-32.7599
 30
0.0
 10
-13.6378
 20
-32.7599
 30
0.0
  0
SPLINE
  5
76
330
1F
100
AcDbEntity
  8
Ebene 1
370
    35
100
AcDbSpline
210
0.0
220
0.0
230
1.0
 70
    24
 71
     3
 72
    36
 73
    32
 74
     0
 42
0.0000000001
 43
0.0000000001
 40
0.0
 40
0.0
 40
0.0
 40
0.0
 40
0.125
 40
0.125
 40
0.125
 40
0.125
 40
0.25
 40
0.25
 40
0.25
 40
0.25
 40
0.375
 40
0.375
 40
0.375
 40
0.375
 40
0.5
 40
0.5
 40
0.5
 40
0.5
 40
0.625
 40
0.625
 40
0.625
 40
0.625
 40
0.75
 40
0.75
 40
0.75
 40
0.75
 40
0.875
 40
0.875
 40
0.875
 40
0.875
 40
1.0
 40
1.0
 40
1.0
 40
1.0
 10
-13.6378
 20
-46.68660000000001
 30
0.0
 10
-13.6378
 20
-46.68660000000001
 30
0.0
 10
-13.6378
 20
-46.53570000000001
 30
0.0
 10
-13.6378
 20
-46.53570000000001
 30
0.0
 10
-13.6378
 20
-46.53570000000001
 30
0.0
 10
-13.6378
 20
-46.53570000000001
 30
0.0
 10
-13.6378
 20
-46.3905
 30
0.0
 10
-13.6378
 20
-46.3905
 30
0.0
 10
-13.6378
 20
-46.3905
 30
0.0
 10
-13.6378
 20
-46.3905
 30
0.0
 10
-13.6378
 20
-46.2567
 30
0.0
 10
-13.6378
 20
-46.2567
 30
0.0
 10
-13.6378
 20
-46.2567
 30
0.0
 10
-13.6378
 20
-46.2567
 30
0.0
 10
-13.6378
 20
-46.13930000000001
 30
0.0
 10
-13.6378
 20
-46.13930000000001
 30
0.0
 10
-13.6378
 20
-46.13930000000001
 30
0.0
 10
-13.6378
 20
-46.13930000000001
 30
0.0
 10
-13.6378
 20
-46.0433
 30
0.0
 10
-13.6378
 20
-46.0433
 30
0.0
 10
-13.6378
 20
-46.0433
 30
0.0
 10
-13.6378
 20
-46.0433
 30
0.0
 10
-13.6378
 20
-45.97170000000001
 30
0.0
 10
-13.6378
 20
-45.97170000000001
 30
0.0
 10
-13.6378
 20
-45.97170000000001
 30
0.0
 10
-13.6378
 20
-45.97170000000001
 30
0.0
 10
-13.6378
 20
-45.92780000000001
 30
0.0
 10
-13.6378
 20
-45.92780000000001
 30
0.0
 10
-13.6378
 20
-45.92780000000001
 30
0.0
 10
-13.6378
 20
-45.92780000000001
 30
0.0
 10
-13.6378
 20
-45.9128
 30
0.0
 10
-13.6378
 20
-45.9128
 30
0.0
  0
SPLINE
  5
77
330
1F
100
AcDbEntity
  8
Ebene 1
370
    35
100
AcDbSpline
210
0.0
220
0.0
230
1.0
 70
     8
 71
     3
 72
   136
 73
   132
 74
     0
 42
0.0000000001
 43
0.0000000001
 40
0.0
 40
0.0
 40
0.0
 40
0.0
 40
0.0303030303030303
 40
0.0303030303030303
 40
0.0303030303030303
 40
0.0303030303030303
 40
0.0606060606060606
 40
0.0606060606060606
 40
0.0606060606060606
 40
0.0606060606060606
 40
0.0909090909090909
 40
0.0909090909090909
 40
0.0909090909090909
 40
0.0909090909090909
 40
0.1212121212121212
 40
0.1212121212121212
 40
0.1212121212121212
 40
0.1212121212121212
 40
0.1515151515151515
 40
0.1515151515151515
 40
0.1515151515151515
 40
0.1515151515151515
 40
0.1818181818181818
 40
0.1818181818181818
 40
0.1818181818181818
 40
0.1818181818181818
 40
0.2121212121212121
 40
0.2121212121212121
 40
0.2121212121212121
 40
0.2121212121212121
 40
0.2424242424242424
 40
0.2424242424242424
 40
0.2424242424242424
 40
0.2424242424242424
 40
0.2727272727272727
 40
0.2727272727272727
 40
0.2727272727272727
 40
0.2727272727272727
 40
0.303030303030303
 40
0.303030303030303
 40
0.303030303030303
 40
0.303030303030303
 40
0.3333333333333333
 40
0.3333333333333333
 40
0.3333333333333333
 40
0.3333333333333333
 40
0.3636363636363635
 40
0.3636363636363635
 40
0.3636363636363635
 40
0.3636363636363635
 40
0.3939393939393938
 40
0.3939393939393938
 40
0.3939393939393938
 40
0.3939393939393938
 40
0.4242424242424241
 40
0.4242424242424241
 40
0.4242424242424241
 40
0.4242424242424241
 40
0.4545454545454544
 40
0.4545454545454544
 40
0.4545454545454544
 40
0.4545454545454544
 40
0.4848484848484846
 40
0.4848484848484846
 40
0.4848484848484846
 40
0.4848484848484846
 40
0.5151515151515149
 40
0.5151515151515149
 40
0.5151515151515149
 40
0.5151515151515149
 40
0.5454545454545452
 40
0.5454545454545452
 40
0.5454545454545452
 40
0.5454545454545452
 40
0.5757575757575755
 40
0.5757575757575755
 40
0.5757575757575755
 40
0.5757575757575755
 40
0.6060606060606057
 40
0.6060606060606057
 40
0.6060606060606057
 40
0.6060606060606057
 40
0.636363636363636
 40
0.636363636363636
 40
0.636363636363636
 40
0.636363636363636
 40
0.6666666666666663
 40
0.6666666666666663
 40
0.6666666666666663
 40
0.6666666666666663
 40
0.6969696969696966
 40
0.6969696969696966
 40
0.6969696969696966
 40
0.6969696969696966
 40
0.7272727272727269
 40
0.7272727272727269
 40
0.7272727272727269
 40
0.7272727272727269
 40
0.7575757575757571
 40
0.7575757575757571
 40
0.7575757575757571
 40
0.7575757575757571
 40
0.7878787878787874
 40
0.7878787878787874
 40
0.7878787878787874
 40
0.7878787878787874
 40
0.8181818181818177
 40
0.8181818181818177
 40
0.8181818181818177
 40
0.8181818181818177
 40
0.848484848484848
 40
0.848484848484848
 40
0.848484848484848
 40
0.848484848484848
 40
0.8787878787878782
 40
0.8787878787878782
 40
0.8787878787878782
 40
0.8787878787878782
 40
0.9090909090909085
 40
0.9090909090909085
 40
0.9090909090909085
 40
0.9090909090909085
 40
0.9393939393939388
 40
0.9393939393939388
 40
0.9393939393939388
 40
0.9393939393939388
 40
0.9696969696969691
 40
0.9696969696969691
 40
0.9696969696969691
 40
0.9696969696969691
 40
1.0
 40
1.0
 40
1.0
 40
1.0
 10
-13.6378
 20
-45.9128
 30
0.0
 10
-13.6378
 20
-45.9128
 30
0.0
 10
-13.0493
 20
-45.8847
 30
0.0
 10
-13.0493
 20
-45.8847
 30
0.0
 10
-13.0493
 20
-45.8847
 30
0.0
 10
-13.0493
 20
-45.8847
 30
0.0
 10
-12.4663
 20
-45.80090000000001
 30
0.0
 10
-12.4663
 20
-45.80090000000001
 30
0.0
 10
-12.4663
 20
-45.80090000000001
 30
0.0
 10
-12.4663
 20
-45.80090000000001
 30
0.0
 10
-11.894
 20
-45.6623
 30
0.0
 10
-11.894
 20
-45.6623
 30
0.0
 10
-11.894
 20
-45.6623
 30
0.0
 10
-11.894
 20
-45.6623
 30
0.0
 10
-11.3374
 20
-45.4695
 30
0.0
 10
-11.3374
 20
-45.4695
 30
0.0
 10
-11.3374
 20
-45.4695
 30
0.0
 10
-11.3374
 20
-45.4695
 30
0.0
 10
-10.8016
 20
-45.22470000000001
 30
0.0
 10
-10.8016
 20
-45.22470000000001
 30
0.0
 10
-10.8016
 20
-45.22470000000001
 30
0.0
 10
-10.8016
 20
-45.22470000000001
 30
0.0
 10
-10.2915
 20
-44.9302
 30
0.0
 10
-10.2915
 20
-44.9302
 30
0.0
 10
-10.2915
 20
-44.9302
 30
0.0
 10
-10.2915
 20
-44.9302
 30
0.0
 10
-9.8116
 20
-44.5884
 30
0.0
 10
-9.8116
 20
-44.5884
 30
0.0
 10
-9.8116
 20
-44.5884
 30
0.0
 10
-9.8116
 20
-44.5884
 30
0.0
 10
-9.3665
 20
-44.2028
 30
0.0
 10
-9.3665
 20
-44.2028
 30
0.0
 10
-9.3665
 20
-44.2028
 30
0.0
 10
-9.3665
 20
-44.2028
 30
0.0
 10
-8.960100000000001
 20
-43.7764
 30
0.0
 10
-8.960100000000001
 20
-43.7764
 30
0.0
 10
-8.960100000000001
 20
-43.7764
 30
0.0
 10
-8.960100000000001
 20
-43.7764
 30
0.0
 10
-8.596
 20
-43.31350000000001
 30
0.0
 10
-8.596
 20
-43.31350000000001
 30
0.0
 10
-8.596
 20
-43.31350000000001
 30
0.0
 10
-8.596
 20
-43.31350000000001
 30
0.0
 10
-8.2775
 20
-42.8181
 30
0.0
 10
-8.2775
 20
-42.8181
 30
0.0
 10
-8.2775
 20
-42.8181
 30
0.0
 10
-8.2775
 20
-42.8181
 30
0.0
 10
-8.0075
 20
-42.2943
 30
0.0
 10
-8.0075
 20
-42.2943
 30
0.0
 10
-8.0075
 20
-42.2943
 30
0.0
 10
-8.0075
 20
-42.2943
 30
0.0
 10
-7.788600000000001
 20
-41.7476
 30
0.0
 10
-7.788600000000001
 20
-41.7476
 30
0.0
 10
-7.788600000000001
 20
-41.7476
 30
0.0
 10
-7.788600000000001
 20
-41.7476
 30
0.0
 10
-7.6227
 20
-41.1824
 30
0.0
 10
-7.6227
 20
-41.1824
 30
0.0
 10
-7.6227
 20
-41.1824
 30
0.0
 10
-7.6227
 20
-41.1824
 30
0.0
 10
-7.5113
 20
-40.604
 30
0.0
 10
-7.5113
 20
-40.604
 30
0.0
 10
-7.5113
 20
-40.604
 30
0.0
 10
-7.5113
 20
-40.604
 30
0.0
 10
-7.4553
 20
-40.01770000000001
 30
0.0
 10
-7.4553
 20
-40.01770000000001
 30
0.0
 10
-7.4553
 20
-40.01770000000001
 30
0.0
 10
-7.4553
 20
-40.01770000000001
 30
0.0
 10
-7.4553
 20
-39.4287
 30
0.0
 10
-7.4553
 20
-39.4287
 30
0.0
 10
-7.4553
 20
-39.4287
 30
0.0
 10
-7.4553
 20
-39.4287
 30
0.0
 10
-7.5113
 20
-38.8425
 30
0.0
 10
-7.5113
 20
-38.8425
 30
0.0
 10
-7.5113
 20
-38.8425
 30
0.0
 10
-7.5113
 20
-38.8425
 30
0.0
 10
-7.6227
 20
-38.2641
 30
0.0
 10
-7.6227
 20
-38.2641
 30
0.0
 10
-7.6227
 20
-38.2641
 30
0.0
 10
-7.6227
 20
-38.2641
 30
0.0
 10
-7.788600000000001
 20
-37.6988
 30
0.0
 10
-7.788600000000001
 20
-37.6988
 30
0.0
 10
-7.788600000000001
 20
-37.6988
 30
0.0
 10
-7.788600000000001
 20
-37.6988
 30
0.0
 10
-8.0075
 20
-37.15190000000001
 30
0.0
 10
-8.0075
 20
-37.15190000000001
 30
0.0
 10
-8.0075
 20
-37.15190000000001
 30
0.0
 10
-8.0075
 20
-37.15190000000001
 30
0.0
 10
-8.2775
 20
-36.6283
 30
0.0
 10
-8.2775
 20
-36.6283
 30
0.0
 10
-8.2775
 20
-36.6283
 30
0.0
 10
-8.2775
 20
-36.6283
 30
0.0
 10
-8.596
 20
-36.1329
 30
0.0
 10
-8.596
 20
-36.1329
 30
0.0
 10
-8.596
 20
-36.1329
 30
0.0
 10
-8.596
 20
-36.1329
 30
0.0
 10
-8.960100000000001
 20
-35.67
 30
0.0
 10
-8.960100000000001
 20
-35.67
 30
0.0
 10
-8.960100000000001
 20
-35.67
 30
0.0
 10
-8.960100000000001
 20
-35.67
 30
0.0
 10
-9.3665
 20
-35.2437
 30
0.0
 10
-9.3665
 20
-35.2437
 30
0.0
 10
-9.3665
 20
-35.2437
 30
0.0
 10
-9.3665
 20
-35.2437
 30
0.0
 10
-9.8116
 20
-34.85780000000001
 30
0.0
 10
-9.8116
 20
-34.85780000000001
 30
0.0
 10
-9.8116
 20
-34.85780000000001
 30
0.0
 10
-9.8116
 20
-34.85780000000001
 30
0.0
 10
-10.2915
 20
-34.5163
 30
0.0
 10
-10.2915
 20
-34.5163
 30
0.0
 10
-10.2915
 20
-34.5163
 30
0.0
 10
-10.2915
 20
-34.5163
 30
0.0
 10
-10.8016
 20
-34.2218
 30
0.0
 10
-10.8016
 20
-34.2218
 30
0.0
 10
-10.8016
 20
-34.2218
 30
0.0
 10
-10.8016
 20
-34.2218
 30
0.0
 10
-11.3374
 20
-33.9769
 30
0.0
 10
-11.3374
 20
-33.9769
 30
0.0
 10
-11.3374
 20
-33.9769
 30
0.0
 10
-11.3374
 20
-33.9769
 30
0.0
 10
-11.894
 20
-33.7843
 30
0.0
 10
-11.894
 20
-33.7843
 30
0.0
 10
-11.894
 20
-33.7843
 30
0.0
 10
-11.894
 20
-33.7843
 30
0.0
 10
-12.4663
 20
-33.6456
 30
0.0
 10
-12.4663
 20
-33.6456
 30
0.0
 10
-12.4663
 20
-33.6456
 30
0.0
 10
-12.4663
 20
-33.6456
 30
0.0
 10
-13.0493
 20
-33.5615
 30
0.0
 10
-13.0493
 20
-33.5615
 30
0.0
 10
-13.0493
 20
-33.5615
 30
0.0
 10
-13.0493
 20
-33.5615
 30
0.0
 10
-13.6378
 20
-33.5337
 30
0.0
 10
-13.6378
 20
-33.5337
 30
0.0
  0
SPLINE
  5
78
330
1F
100
AcDbEntity
  8
Ebene 1
370
    35
100
AcDbSpline
210
0.0
220
0.0
230
1.0
 70
     8
 71
     3
 72
   136
 73
   132
 74
     0
 42
0.0000000001
 43
0.0000000001
 40
0.0
 40
0.0
 40
0.0
 40
0.0
 40
0.0303030303030303
 40
0.0303030303030303
 40
0.0303030303030303
 40
0.0303030303030303
 40
0.0606060606060606
 40
0.0606060606060606
 40
0.0606060606060606
 40
0.0606060606060606
 40
0.0909090909090909
 40
0.0909090909090909
 40
0.0909090909090909
 40
0.0909090909090909
 40
0.1212121212121212
 40
0.1212121212121212
 40
0.1212121212121212
 40
0.1212121212121212
 40
0.1515151515151515
 40
0.1515151515151515
 40
0.1515151515151515
 40
0.1515151515151515
 40
0.1818181818181818
 40
0.1818181818181818
 40
0.1818181818181818
 40
0.1818181818181818
 40
0.2121212121212121
 40
0.2121212121212121
 40
0.2121212121212121
 40
0.2121212121212121
 40
0.2424242424242424
 40
0.2424242424242424
 40
0.2424242424242424
 40
0.2424242424242424
 40
0.2727272727272727
 40
0.2727272727272727
 40
0.2727272727272727
 40
0.2727272727272727
 40
0.303030303030303
 40
0.303030303030303
 40
0.303030303030303
 40
0.303030303030303
 40
0.3333333333333333
 40
0.3333333333333333
 40
0.3333333333333333
 40
0.3333333333333333
 40
0.3636363636363635
 40
0.3636363636363635
 40
0.3636363636363635
 40
0.3636363636363635
 40
0.3939393939393938
 40
0.3939393939393938
 40
0.3939393939393938
 40
0.3939393939393938
 40
0.4242424242424241
 40
0.4242424242424241
 40
0.4242424242424241
 40
0.4242424242424241
 40
0.4545454545454544
 40
0.4545454545454544
 40
0.4545454545454544
 40
0.4545454545454544
 40
0.4848484848484846
 40
0.4848484848484846
 40
0.4848484848484846
 40
0.4848484848484846
 40
0.5151515151515149
 40
0.5151515151515149
 40
0.5151515151515149
 40
0.5151515151515149
 40
0.5454545454545452
 40
0.5454545454545452
 40
0.5454545454545452
 40
0.5454545454545452
 40
0.5757575757575755
 40
0.5757575757575755
 40
0.5757575757575755
 40
0.5757575757575755
 40
0.6060606060606057
 40
0.6060606060606057
 40
0.6060606060606057
 40
0.6060606060606057
 40
0.636363636363636
 40
0.636363636363636
 40
0.636363636363636
 40
0.636363636363636
 40
0.6666666666666663
 40
0.6666666666666663
 40
0.6666666666666663
 40
0.6666666666666663
 40
0.6969696969696966
 40
0.6969696969696966
 40
0.6969696969696966
 40
0.6969696969696966
 40
0.7272727272727269
 40
0.7272727272727269
 40
0.7272727272727269
 40
0.7272727272727269
 40
0.7575757575757571
 40
0.7575757575757571
 40
0.7575757575757571
 40
0.7575757575757571
 40
0.7878787878787874
 40
0.7878787878787874
 40
0.7878787878787874
 40
0.7878787878787874
 40
0.8181818181818177
 40
0.8181818181818177
 40
0.8181818181818177
 40
0.8181818181818177
 40
0.848484848484848
 40
0.848484848484848
 40
0.848484848484848
 40
0.848484848484848
 40
0.8787878787878782
 40
0.8787878787878782
 40
0.8787878787878782
 40
0.8787878787878782
 40
0.9090909090909085
 40
0.9090909090909085
 40
0.9090909090909085
 40
0.9090909090909085
 40
0.9393939393939388
 40
0.9393939393939388
 40
0.9393939393939388
 40
0.9393939393939388
 40
0.9696969696969691
 40
0.9696969696969691
 40
0.9696969696969691
 40
0.9696969696969691
 40
1.0
 40
1.0
 40
1.0
 40
1.0
 10
-22.5355
 20
-33.5337
 30
0.0
 10
-22.5355
 20
-33.5337
 30
0.0
 10
-23.1237
 20
-33.5615
 30
0.0
 10
-23.1237
 20
-33.5615
 30
0.0
 10
-23.1237
 20
-33.5615
 30
0.0
 10
-23.1237
 20
-33.5615
 30
0.0
 10
-23.7067
 20
-33.6456
 30
0.0
 10
-23.7067
 20
-33.6456
 30
0.0
 10
-23.7067
 20
-33.6456
 30
0.0
 10
-23.7067
 20
-33.6456
 30
0.0
 10
-24.279
 20
-33.7843
 30
0.0
 10
-24.279
 20
-33.7843
 30
0.0
 10
-24.279
 20
-33.7843
 30
0.0
 10
-24.279
 20
-33.7843
 30
0.0
 10
-24.8359
 20
-33.9769
 30
0.0
 10
-24.8359
 20
-33.9769
 30
0.0
 10
-24.8359
 20
-33.9769
 30
0.0
 10
-24.8359
 20
-33.9769
 30
0.0
 10
-25.3717
 20
-34.2218
 30
0.0
 10
-25.3717
 20
-34.2218
 30
0.0
 10
-25.3717
 20
-34.2218
 30
0.0
 10
-25.3717
 20
-34.2218
 30
0.0
 10
-25.8818
 20
-34.5163
 30
0.0
 10
-25.8818
 20
-34.5163
 30
0.0
 10
-25.8818
 20
-34.5163
 30
0.0
 10
-25.8818
 20
-34.5163
 30
0.0
 10
-26.3616
 20
-34.85780000000001
 30
0.0
 10
-26.3616
 20
-34.85780000000001
 30
0.0
 10
-26.3616
 20
-34.85780000000001
 30
0.0
 10
-26.3616
 20
-34.85780000000001
 30
0.0
 10
-26.8068
 20
-35.2437
 30
0.0
 10
-26.8068
 20
-35.2437
 30
0.0
 10
-26.8068
 20
-35.2437
 30
0.0
 10
-26.8068
 20
-35.2437
 30
0.0
 10
-27.2132
 20
-35.67
 30
0.0
 10
-27.2132
 20
-35.67
 30
0.0
 10
-27.2132
 20
-35.67
 30
0.0
 10
-27.2132
 20
-35.67
 30
0.0
 10
-27.5773
 20
-36.1329
 30
0.0
 10
-27.5773
 20
-36.1329
 30
0.0
 10
-27.5773
 20
-36.1329
 30
0.0
 10
-27.5773
 20
-36.1329
 30
0.0
 10
-27.8959
 20
-36.6283
 30
0.0
 10
-27.8959
 20
-36.6283
 30
0.0
 10
-27.8959
 20
-36.6283
 30
0.0
 10
-27.8959
 20
-36.6283
 30
0.0
 10
-28.1655
 20
-37.15190000000001
 30
0.0
 10
-28.1655
 20
-37.15190000000001
 30
0.0
 10
-28.1655
 20
-37.15190000000001
 30
0.0
 10
-28.1655
 20
-37.15190000000001
 30
0.0
 10
-28.3845
 20
-37.6988
 30
0.0
 10
-28.3845
 20
-37.6988
 30
0.0
 10
-28.3845
 20
-37.6988
 30
0.0
 10
-28.3845
 20
-37.6988
 30
0.0
 10
-28.5503
 20
-38.2641
 30
0.0
 10
-28.5503
 20
-38.2641
 30
0.0
 10
-28.5503
 20
-38.2641
 30
0.0
 10
-28.5503
 20
-38.2641
 30
0.0
 10
-28.662
 20
-38.8425
 30
0.0
 10
-28.662
 20
-38.8425
 30
0.0
 10
-28.662
 20
-38.8425
 30
0.0
 10
-28.662
 20
-38.8425
 30
0.0
 10
-28.7179
 20
-39.4287
 30
0.0
 10
-28.7179
 20
-39.4287
 30
0.0
 10
-28.7179
 20
-39.4287
 30
0.0
 10
-28.7179
 20
-39.4287
 30
0.0
 10
-28.7179
 20
-40.01770000000001
 30
0.0
 10
-28.7179
 20
-40.01770000000001
 30
0.0
 10
-28.7179
 20
-40.01770000000001
 30
0.0
 10
-28.7179
 20
-40.01770000000001
 30
0.0
 10
-28.662
 20
-40.604
 30
0.0
 10
-28.662
 20
-40.604
 30
0.0
 10
-28.662
 20
-40.604
 30
0.0
 10
-28.662
 20
-40.604
 30
0.0
 10
-28.5503
 20
-41.1824
 30
0.0
 10
-28.5503
 20
-41.1824
 30
0.0
 10
-28.5503
 20
-41.1824
 30
0.0
 10
-28.5503
 20
-41.1824
 30
0.0
 10
-28.3845
 20
-41.7476
 30
0.0
 10
-28.3845
 20
-41.7476
 30
0.0
 10
-28.3845
 20
-41.7476
 30
0.0
 10
-28.3845
 20
-41.7476
 30
0.0
 10
-28.1655
 20
-42.2943
 30
0.0
 10
-28.1655
 20
-42.2943
 30
0.0
 10
-28.1655
 20
-42.2943
 30
0.0
 10
-28.1655
 20
-42.2943
 30
0.0
 10
-27.8959
 20
-42.8181
 30
0.0
 10
-27.8959
 20
-42.8181
 30
0.0
 10
-27.8959
 20
-42.8181
 30
0.0
 10
-27.8959
 20
-42.8181
 30
0.0
 10
-27.5773
 20
-43.31350000000001
 30
0.0
 10
-27.5773
 20
-43.31350000000001
 30
0.0
 10
-27.5773
 20
-43.31350000000001
 30
0.0
 10
-27.5773
 20
-43.31350000000001
 30
0.0
 10
-27.2132
 20
-43.7764
 30
0.0
 10
-27.2132
 20
-43.7764
 30
0.0
 10
-27.2132
 20
-43.7764
 30
0.0
 10
-27.2132
 20
-43.7764
 30
0.0
 10
-26.8068
 20
-44.2028
 30
0.0
 10
-26.8068
 20
-44.2028
 30
0.0
 10
-26.8068
 20
-44.2028
 30
0.0
 10
-26.8068
 20
-44.2028
 30
0.0
 10
-26.3616
 20
-44.5884
 30
0.0
 10
-26.3616
 20
-44.5884
 30
0.0
 10
-26.3616
 20
-44.5884
 30
0.0
 10
-26.3616
 20
-44.5884
 30
0.0
 10
-25.8818
 20
-44.9302
 30
0.0
 10
-25.8818
 20
-44.9302
 30
0.0
 10
-25.8818
 20
-44.9302
 30
0.0
 10
-25.8818
 20
-44.9302
 30
0.0
 10
-25.3717
 20
-45.22470000000001
 30
0.0
 10
-25.3717
 20
-45.22470000000001
 30
0.0
 10
-25.3717
 20
-45.22470000000001
 30
0.0
 10
-25.3717
 20
-45.22470000000001
 30
0.0
 10
-24.8359
 20
-45.4695
 30
0.0
 10
-24.8359
 20
-45.4695
 30
0.0
 10
-24.8359
 20
-45.4695
 30
0.0
 10
-24.8359
 20
-45.4695
 30
0.0
 10
-24.279
 20
-45.6623
 30
0.0
 10
-24.279
 20
-45.6623
 30
0.0
 10
-24.279
 20
-45.6623
 30
0.0
 10
-24.279
 20
-45.6623
 30
0.0
 10
-23.7067
 20
-45.80090000000001
 30
0.0
 10
-23.7067
 20
-45.80090000000001
 30
0.0
 10
-23.7067
 20
-45.80090000000001
 30
0.0
 10
-23.7067
 20
-45.80090000000001
 30
0.0
 10
-23.1237
 20
-45.8847
 30
0.0
 10
-23.1237
 20
-45.8847
 30
0.0
 10
-23.1237
 20
-45.8847
 30
0.0
 10
-23.1237
 20
-45.8847
 30
0.0
 10
-22.5355
 20
-45.9128
 30
0.0
 10
-22.5355
 20
-45.9128
 30
0.0
  0
SPLINE
  5
79
330
1F
100
AcDbEntity
  8
Ebene 1
370
    35
100
AcDbSpline
210
0.0
220
0.0
230
1.0
 70
    24
 71
     3
 72
    36
 73
    32
 74
     0
 42
0.0000000001
 43
0.0000000001
 40
0.0
 40
0.0
 40
0.0
 40
0.0
 40
0.125
 40
0.125
 40
0.125
 40
0.125
 40
0.25
 40
0.25
 40
0.25
 40
0.25
 40
0.375
 40
0.375
 40
0.375
 40
0.375
 40
0.5
 40
0.5
 40
0.5
 40
0.5
 40
0.625
 40
0.625
 40
0.625
 40
0.625
 40
0.75
 40
0.75
 40
0.75
 40
0.75
 40
0.875
 40
0.875
 40
0.875
 40
0.875
 40
1.0
 40
1.0
 40
1.0
 40
1.0
 10
-22.5355
 20
-46.68660000000001
 30
0.0
 10
-22.5355
 20
-46.68660000000001
 30
0.0
 10
-22.5355
 20
-46.53570000000001
 30
0.0
 10
-22.5355
 20
-46.53570000000001
 30
0.0
 10
-22.5355
 20
-46.53570000000001
 30
0.0
 10
-22.5355
 20
-46.53570000000001
 30
0.0
 10
-22.5355
 20
-46.3905
 30
0.0
 10
-22.5355
 20
-46.3905
 30
0.0
 10
-22.5355
 20
-46.3905
 30
0.0
 10
-22.5355
 20
-46.3905
 30
0.0
 10
-22.5355
 20
-46.2567
 30
0.0
 10
-22.5355
 20
-46.2567
 30
0.0
 10
-22.5355
 20
-46.2567
 30
0.0
 10
-22.5355
 20
-46.2567
 30
0.0
 10
-22.5355
 20
-46.13930000000001
 30
0.0
 10
-22.5355
 20
-46.13930000000001
 30
0.0
 10
-22.5355
 20
-46.13930000000001
 30
0.0
 10
-22.5355
 20
-46.13930000000001
 30
0.0
 10
-22.5355
 20
-46.0433
 30
0.0
 10
-22.5355
 20
-46.0433
 30
0.0
 10
-22.5355
 20
-46.0433
 30
0.0
 10
-22.5355
 20
-46.0433
 30
0.0
 10
-22.5355
 20
-45.97170000000001
 30
0.0
 10
-22.5355
 20
-45.97170000000001
 30
0.0
 10
-22.5355
 20
-45.97170000000001
 30
0.0
 10
-22.5355
 20
-45.97170000000001
 30
0.0
 10
-22.5355
 20
-45.92780000000001
 30
0.0
 10
-22.5355
 20
-45.92780000000001
 30
0.0
 10
-22.5355
 20
-45.92780000000001
 30
0.0
 10
-22.5355
 20
-45.92780000000001
 30
0.0
 10
-22.5355
 20
-45.9128
 30
0.0
 10
-22.5355
 20
-45.9128
 30
0.0
  0
SPLINE
  5
7A
330
1F
100
AcDbEntity
  8
Ebene 1
370
    35
100
AcDbSpline
210
0.0
220
0.0
230
1.0
 70
    24
 71
     3
 72
     8
 73
     4
 74
     0
 42
0.0000000001
 43
0.0000000001
 40
0.0
 40
0.0
 40
0.0
 40
0.0
 40
1.0
 40
1.0
 40
1.0
 40
1.0
 10
-22.5355
 20
-45.9128
 30
0.0
 10
-22.5355
 20
-45.9128
 30
0.0
 10
-13.6378
 20
-45.9128
 30
0.0
 10
-13.6378
 20
-45.9128
 30
0.0
  0
SPLINE
  5
7B
330
1F
100
AcDbEntity
  8
Ebene 1
370
    35
100
AcDbSpline
210
0.0
220
0.0
230
1.0
 70
    24
 71
     3
 72
    24
 73
    20
 74
     0
 42
0.0000000001
 43
0.0000000001
 40
0.0
 40
0.0
 40
0.0
 40
0.0
 40
0.2
 40
0.2
 40
0.2
 40
0.2
 40
0.4
 40
0.4
 40
0.4
 40
0.4
 40
0.6000000000000001
 40
0.6000000000000001
 40
0.6000000000000001
 40
0.6000000000000001
 40
0.8
 40
0.8
 40
0.8
 40
0.8
 40
1.0
 40
1.0
 40
1.0
 40
1.0
 10
-29.8856
 20
-49.0077
 30
0.0
 10
-29.8856
 20
-49.0077
 30
0.0
 10
-29.8856
 20
-49.1922
 30
0.0
 10
-29.8856
 20
-49.1922
 30
0.0
 10
-29.8856
 20
-49.1922
 30
0.0
 10
-29.8856
 20
-49.1922
 30
0.0
 10
-29.8856
 20
-49.35440000000001
 30
0.0
 10
-29.8856
 20
-49.35440000000001
 30
0.0
 10
-29.8856
 20
-49.35440000000001
 30
0.0
 10
-29.8856
 20
-49.35440000000001
 30
0.0
 10
-29.8856
 20
-49.4805
 30
0.0
 10
-29.8856
 20
-49.4805
 30
0.0
 10
-29.8856
 20
-49.4805
 30
0.0
 10
-29.8856
 20
-49.4805
 30
0.0
 10
-29.8856
 20
-49.5604
 30
0.0
 10
-29.8856
 20
-49.5604
 30
0.0
 10
-29.8856
 20
-49.5604
 30
0.0
 10
-29.8856
 20
-49.5604
 30
0.0
 10
-29.8856
 20
-49.588
 30
0.0
 10
-29.8856
 20
-49.588
 30
0.0
  0
SPLINE
  5
7C
330
1F
100
AcDbEntity
  8
Ebene 1
370
    35
100
AcDbSpline
210
0.0
220
0.0
230
1.0
 70
    24
 71
     3
 72
    24
 73
    20
 74
     0
 42
0.0000000001
 43
0.0000000001
 40
0.0
 40
0.0
 40
0.0
 40
0.0
 40
0.2
 40
0.2
 40
0.2
 40
0.2
 40
0.4
 40
0.4
 40
0.4
 40
0.4
 40
0.6000000000000001
 40
0.6000000000000001
 40
0.6000000000000001
 40
0.6000000000000001
 40
0.8
 40
0.8
 40
0.8
 40
0.8
 40
1.0
 40
1.0
 40
1.0
 40
1.0
 10
-29.8856
 20
-30.4388
 30
0.0
 10
-29.8856
 20
-30.4388
 30
0.0
 10
-29.8856
 20
-30.2542
 30
0.0
 10
-29.8856
 20
-30.2542
 30
0.0
 10
-29.8856
 20
-30.2542
 30
0.0
 10
-29.8856
 20
-30.2542
 30
0.0
 10
-29.8856
 20
-30.0922
 30
0.0
 10
-29.8856
 20
-30.0922
 30
0.0
 10
-29.8856
 20
-30.0922
 30
0.0
 10
-29.8856
 20
-30.0922
 30
0.0
 10
-29.8856
 20
-29.966
 30
0.0
 10
-29.8856
 20
-29.966
 30
0.0
 10
-29.8856
 20
-29.966
 30
0.0
 10
-29.8856
 20
-29.966
 30
0.0
 10
-29.8856
 20
-29.886
 30
0.0
 10
-29.8856
 20
-29.886
 30
0.0
 10
-29.8856
 20
-29.886
 30
0.0
 10
-29.8856
 20
-29.886
 30
0.0
 10
-29.8856
 20
-29.8585
 30
0.0
 10
-29.8856
 20
-29.8585
 30
0.0
  0
SPLINE
  5
7D
330
1F
100
AcDbEntity
  8
Ebene 1
370
    35
100
AcDbSpline
210
0.0
220
0.0
230
1.0
 70
    24
 71
     3
 72
    24
 73
    20
 74
     0
 42
0.0000000001
 43
0.0000000001
 40
0.0
 40
0.0
 40
0.0
 40
0.0
 40
0.2
 40
0.2
 40
0.2
 40
0.2
 40
0.4
 40
0.4
 40
0.4
 40
0.4
 40
0.6000000000000001
 40
0.6000000000000001
 40
0.6000000000000001
 40
0.6000000000000001
 40
0.8
 40
0.8
 40
0.8
 40
0.8
 40
1.0
 40
1.0
 40
1.0
 40
1.0
 10
-6.2876
 20
-30.4388
 30
0.0
 10
-6.2876
 20
-30.4388
 30
0.0
 10
-6.2876
 20
-30.2542
 30
0.0
 10
-6.2876
 20
-30.2542
 30
0.0
 10
-6.2876
 20
-30.2542
 30
0.0
 10
-6.2876
 20
-30.2542
 30
0.0
 10
-6.2876
 20
-30.0922
 30
0.0
 10
-6.2876
 20
-30.0922
 30
0.0
 10
-6.2876
 20
-30.0922
 30
0.0
 10
-6.2876
 20
-30.0922
 30
0.0
 10
-6.2876
 20
-29.966
 30
0.0
 10
-6.2876
 20
-29.966
 30
0.0
 10
-6.2876
 20
-29.966
 30
0.0
 10
-6.2876
 20
-29.966
 30
0.0
 10
-6.2876
 20
-29.886
 30
0.0
 10
-6.2876
 20
-29.886
 30
0.0
 10
-6.2876
 20
-29.886
 30
0.0
 10
-6.2876
 20
-29.886
 30
0.0
 10
-6.2876
 20
-29.8585
 30
0.0
 10
-6.2876
 20
-29.8585
 30
0.0
  0
SPLINE
  5
7E
330
1F
100
AcDbEntity
  8
Ebene 1
370
    35
100
AcDbSpline
210
0.0
220
0.0
230
1.0
 70
    24
 71
     3
 72
    24
 73
    20
 74
     0
 42
0.0000000001
 43
0.0000000001
 40
0.0
 40
0.0
 40
0.0
 40
0.0
 40
0.2
 40
0.2
 40
0.2
 40
0.2
 40
0.4
 40
0.4
 40
0.4
 40
0.4
 40
0.6000000000000001
 40
0.6000000000000001
 40
0.6000000000000001
 40
0.6000000000000001
 40
0.8
 40
0.8
 40
0.8
 40
0.8
 40
1.0
 40
1.0
 40
1.0
 40
1.0
 10
-6.2876
 20
-49.0077
 30
0.0
 10
-6.2876
 20
-49.0077
 30
0.0
 10
-6.2876
 20
-49.1922
 30
0.0
 10
-6.2876
 20
-49.1922
 30
0.0
 10
-6.2876
 20
-49.1922
 30
0.0
 10
-6.2876
 20
-49.1922
 30
0.0
 10
-6.2876
 20
-49.35440000000001
 30
0.0
 10
-6.2876
 20
-49.35440000000001
 30
0.0
 10
-6.2876
 20
-49.35440000000001
 30
0.0
 10
-6.2876
 20
-49.35440000000001
 30
0.0
 10
-6.2876
 20
-49.4805
 30
0.0
 10
-6.2876
 20
-49.4805
 30
0.0
 10
-6.2876
 20
-49.4805
 30
0.0
 10
-6.2876
 20
-49.4805
 30
0.0
 10
-6.2876
 20
-49.5604
 30
0.0
 10
-6.2876
 20
-49.5604
 30
0.0
 10
-6.2876
 20
-49.5604
 30
0.0
 10
-6.2876
 20
-49.5604
 30
0.0
 10
-6.2876
 20
-49.588
 30
0.0
 10
-6.2876
 20
-49.588
 30
0.0
  0
SPLINE
  5
7F
330
1F
100
AcDbEntity
  8
Ebene 1
370
    15
100
AcDbSpline
210
0.0
220
0.0
230
1.0
 70
    24
 71
     3
 72
     8
 73
     4
 74
     0
 42
0.0000000001
 43
0.0000000001
 40
0.0
 40
0.0
 40
0.0
 40
0.0
 40
1.0
 40
1.0
 40
1.0
 40
1.0
 10
-39.1698
 20
29.5928
 30
0.0
 10
-39.1698
 20
29.5928
 30
0.0
 10
-38.6368
 20
30.1259
 30
0.0
 10
-38.6368
 20
30.1259
 30
0.0
  0
SPLINE
  5
80
330
1F
100
AcDbEntity
  8
Ebene 1
370
    15
100
AcDbSpline
210
0.0
220
0.0
230
1.0
 70
    24
 71
     3
 72
     8
 73
     4
 74
     0
 42
0.0000000001
 43
0.0000000001
 40
0.0
 40
0.0
 40
0.0
 40
0.0
 40
1.0
 40
1.0
 40
1.0
 40
1.0
 10
-37.4839
 20
27.8048
 30
0.0
 10
-37.4839
 20
27.8048
 30
0.0
 10
-35.1627
 20
30.1259
 30
0.0
 10
-35.1627
 20
30.1259
 30
0.0
  0
SPLINE
  5
81
330
1F
100
AcDbEntity
  8
Ebene 1
370
    15
100
AcDbSpline
210
0.0
220
0.0
230
1.0
 70
    24
 71
     3
 72
     8
 73
     4
 74
     0
 42
0.0000000001
 43
0.0000000001
 40
0.0
 40
0.0
 40
0.0
 40
0.0
 40
1.0
 40
1.0
 40
1.0
 40
1.0
 10
-34.0098
 20
27.8048
 30
0.0
 10
-34.0098
 20
27.8048
 30
0.0
 10
-31.6887
 20
30.1259
 30
0.0
 10
-31.6887
 20
30.1259
 30
0.0
  0
SPLINE
  5
82
330
1F
100
AcDbEntity
  8
Ebene 1
370
    15
100
AcDbSpline
210
0.0
220
0.0
230
1.0
 70
    24
 71
     3
 72
     8
 73
     4
 74
     0
 42
0.0000000001
 43
0.0000000001
 40
0.0
 40
0.0
 40
0.0
 40
0.0
 40
1.0
 40
1.0
 40
1.0
 40
1.0
 10
-31.1237
 20
27.2169
 30
0.0
 10
-31.1237
 20
27.2169
 30
0.0
 10
-28.7595
 20
29.5811
 30
0.0
 10
-28.7595
 20
29.5811
 30
0.0
  0
SPLINE
  5
83
330
1F
100
AcDbEntity
  8
Ebene 1
370
    15
100
AcDbSpline
210
0.0
220
0.0
230
1.0
 70
    24
 71
     3
 72
     8
 73
     4
 74
     0
 42
0.0000000001
 43
0.0000000001
 40
0.0
 40
0.0
 40
0.0
 40
0.0
 40
1.0
 40
1.0
 40
1.0
 40
1.0
 10
-29.5572
 20
25.3096
 30
0.0
 10
-29.5572
 20
25.3096
 30
0.0
 10
-28.725
 20
26.1418
 30
0.0
 10
-28.725
 20
26.1418
 30
0.0
  0
SPLINE
  5
84
330
1F
100
AcDbEntity
  8
Ebene 1
370
    15
100
AcDbSpline
210
0.0
220
0.0
230
1.0
 70
    24
 71
     3
 72
     8
 73
     4
 74
     0
 42
0.0000000001
 43
0.0000000001
 40
0.0
 40
0.0
 40
0.0
 40
0.0
 40
1.0
 40
1.0
 40
1.0
 40
1.0
 10
-29.3053
 20
22.0874
 30
0.0
 10
-29.3053
 20
22.0874
 30
0.0
 10
-28.725
 20
22.6677
 30
0.0
 10
-28.725
 20
22.6677
 30
0.0
  0
SPLINE
  5
85
330
1F
100
AcDbEntity
  8
Ebene 1
370
    15
100
AcDbSpline
210
0.0
220
0.0
230
1.0
 70
    24
 71
     3
 72
     8
 73
     4
 74
     0
 42
0.0000000001
 43
0.0000000001
 40
0.0
 40
0.0
 40
0.0
 40
0.0
 40
1.0
 40
1.0
 40
1.0
 40
1.0
 10
-29.3053
 20
18.6134
 30
0.0
 10
-29.3053
 20
18.6134
 30
0.0
 10
-28.725
 20
19.1937
 30
0.0
 10
-28.725
 20
19.1937
 30
0.0
  0
SPLINE
  5
86
330
1F
100
AcDbEntity
  8
Ebene 1
370
    15
100
AcDbSpline
210
0.0
220
0.0
230
1.0
 70
    24
 71
     3
 72
     8
 73
     4
 74
     0
 42
0.0000000001
 43
0.0000000001
 40
0.0
 40
0.0
 40
0.0
 40
0.0
 40
1.0
 40
1.0
 40
1.0
 40
1.0
 10
-29.3053
 20
15.1394
 30
0.0
 10
-29.3053
 20
15.1394
 30
0.0
 10
-28.725
 20
15.7196
 30
0.0
 10
-28.725
 20
15.7196
 30
0.0
  0
SPLINE
  5
87
330
1F
100
AcDbEntity
  8
Ebene 1
370
    15
100
AcDbSpline
210
0.0
220
0.0
230
1.0
 70
    24
 71
     3
 72
     8
 73
     4
 74
     0
 42
0.0000000001
 43
0.0000000001
 40
0.0
 40
0.0
 40
0.0
 40
0.0
 40
1.0
 40
1.0
 40
1.0
 40
1.0
 10
-7.4482
 20
26.5743
 30
0.0
 10
-7.4482
 20
26.5743
 30
0.0
 10
-3.8967
 20
30.1259
 30
0.0
 10
-3.8967
 20
30.1259
 30
0.0
  0
SPLINE
  5
88
330
1F
100
AcDbEntity
  8
Ebene 1
370
    15
100
AcDbSpline
210
0.0
220
0.0
230
1.0
 70
    24
 71
     3
 72
     8
 73
     4
 74
     0
 42
0.0000000001
 43
0.0000000001
 40
0.0
 40
0.0
 40
0.0
 40
0.0
 40
1.0
 40
1.0
 40
1.0
 40
1.0
 10
-2.7438
 20
27.8048
 30
0.0
 10
-2.7438
 20
27.8048
 30
0.0
 10
-0.4226
 20
30.1259
 30
0.0
 10
-0.4226
 20
30.1259
 30
0.0
  0
SPLINE
  5
89
330
1F
100
AcDbEntity
  8
Ebene 1
370
    15
100
AcDbSpline
210
0.0
220
0.0
230
1.0
 70
    24
 71
     3
 72
     8
 73
     4
 74
     0
 42
0.0000000001
 43
0.0000000001
 40
0.0
 40
0.0
 40
0.0
 40
0.0
 40
1.0
 40
1.0
 40
1.0
 40
1.0
 10
-7.4482
 20
23.1003
 30
0.0
 10
-7.4482
 20
23.1003
 30
0.0
 10
-6.867900000000001
 20
23.6806
 30
0.0
 10
-6.867900000000001
 20
23.6806
 30
0.0
  0
SPLINE
  5
8A
330
1F
100
AcDbEntity
  8
Ebene 1
370
    15
100
AcDbSpline
210
0.0
220
0.0
230
1.0
 70
    24
 71
     3
 72
     8
 73
     4
 74
     0
 42
0.0000000001
 43
0.0000000001
 40
0.0
 40
0.0
 40
0.0
 40
0.0
 40
1.0
 40
1.0
 40
1.0
 40
1.0
 10
2.4711
 20
29.5457
 30
0.0
 10
2.4711
 20
29.5457
 30
0.0
 10
2.9968
 20
30.0713
 30
0.0
 10
2.9968
 20
30.0713
 30
0.0
  0
SPLINE
  5
8B
330
1F
100
AcDbEntity
  8
Ebene 1
370
    15
100
AcDbSpline
210
0.0
220
0.0
230
1.0
 70
    24
 71
     3
 72
     8
 73
     4
 74
     0
 42
0.0000000001
 43
0.0000000001
 40
0.0
 40
0.0
 40
0.0
 40
0.0
 40
1.0
 40
1.0
 40
1.0
 40
1.0
 10
0.7303000000000001
 20
27.8048
 30
0.0
 10
0.7303000000000001
 20
27.8048
 30
0.0
 10
2.223
 20
29.2975
 30
0.0
 10
2.223
 20
29.2975
 30
0.0
  0
SPLINE
  5
8C
330
1F
100
AcDbEntity
  8
Ebene 1
370
    15
100
AcDbSpline
210
0.0
220
0.0
230
1.0
 70
    24
 71
     3
 72
     8
 73
     4
 74
     0
 42
0.0000000001
 43
0.0000000001
 40
0.0
 40
0.0
 40
0.0
 40
0.0
 40
1.0
 40
1.0
 40
1.0
 40
1.0
 10
-7.4482
 20
19.6263
 30
0.0
 10
-7.4482
 20
19.6263
 30
0.0
 10
-6.867900000000001
 20
20.2065
 30
0.0
 10
-6.867900000000001
 20
20.2065
 30
0.0
  0
SPLINE
  5
8D
330
1F
100
AcDbEntity
  8
Ebene 1
370
    15
100
AcDbSpline
210
0.0
220
0.0
230
1.0
 70
    24
 71
     3
 72
     8
 73
     4
 74
     0
 42
0.0000000001
 43
0.0000000001
 40
0.0
 40
0.0
 40
0.0
 40
0.0
 40
1.0
 40
1.0
 40
1.0
 40
1.0
 10
-7.4482
 20
16.1523
 30
0.0
 10
-7.4482
 20
16.1523
 30
0.0
 10
-6.867900000000001
 20
16.7326
 30
0.0
 10
-6.867900000000001
 20
16.7326
 30
0.0
  0
SPLINE
  5
8E
330
1F
100
AcDbEntity
  8
Ebene 1
370
    15
100
AcDbSpline
210
0.0
220
0.0
230
1.0
 70
    24
 71
     3
 72
     8
 73
     4
 74
     0
 42
0.0000000001
 43
0.0000000001
 40
0.0
 40
0.0
 40
0.0
 40
0.0
 40
1.0
 40
1.0
 40
1.0
 40
1.0
 10
-7.4482
 20
12.6782
 30
0.0
 10
-7.4482
 20
12.6782
 30
0.0
 10
-6.867900000000001
 20
13.2585
 30
0.0
 10
-6.867900000000001
 20
13.2585
 30
0.0
  0
SPLINE
  5
8F
330
1F
100
AcDbEntity
  8
Ebene 1
370
    15
100
AcDbSpline
210
0.0
220
0.0
230
1.0
 70
    24
 71
     3
 72
     8
 73
     4
 74
     0
 42
0.0000000001
 43
0.0000000001
 40
0.0
 40
0.0
 40
0.0
 40
0.0
 40
1.0
 40
1.0
 40
1.0
 40
1.0
 10
-38.2576
 20
27.0313
 30
0.0
 10
-38.2576
 20
27.0313
 30
0.0
 10
-37.5734
 20
27.7152
 30
0.0
 10
-37.5734
 20
27.7152
 30
0.0
  0
SPLINE
  5
90
330
1F
100
AcDbEntity
  8
Ebene 1
370
    15
100
AcDbSpline
210
0.0
220
0.0
230
1.0
 70
    24
 71
     3
 72
     8
 73
     4
 74
     0
 42
0.0000000001
 43
0.0000000001
 40
0.0
 40
0.0
 40
0.0
 40
0.0
 40
1.0
 40
1.0
 40
1.0
 40
1.0
 10
-36.1011
 20
25.7135
 30
0.0
 10
-36.1011
 20
25.7135
 30
0.0
 10
-35.5478
 20
26.2668
 30
0.0
 10
-35.5478
 20
26.2668
 30
0.0
  0
SPLINE
  5
91
330
1F
100
AcDbEntity
  8
Ebene 1
370
    15
100
AcDbSpline
210
0.0
220
0.0
230
1.0
 70
    24
 71
     3
 72
     8
 73
     4
 74
     0
 42
0.0000000001
 43
0.0000000001
 40
0.0
 40
0.0
 40
0.0
 40
0.0
 40
1.0
 40
1.0
 40
1.0
 40
1.0
 10
-34.0993
 20
24.2415
 30
0.0
 10
-34.0993
 20
24.2415
 30
0.0
 10
-33.5458
 20
24.7947
 30
0.0
 10
-33.5458
 20
24.7947
 30
0.0
  0
SPLINE
  5
92
330
1F
100
AcDbEntity
  8
Ebene 1
370
    15
100
AcDbSpline
210
0.0
220
0.0
230
1.0
 70
    24
 71
     3
 72
     8
 73
     4
 74
     0
 42
0.0000000001
 43
0.0000000001
 40
0.0
 40
0.0
 40
0.0
 40
0.0
 40
1.0
 40
1.0
 40
1.0
 40
1.0
 10
-33.9476
 20
20.9192
 30
0.0
 10
-33.9476
 20
20.9192
 30
0.0
 10
-33.3673
 20
21.4995
 30
0.0
 10
-33.3673
 20
21.4995
 30
0.0
  0
SPLINE
  5
93
330
1F
100
AcDbEntity
  8
Ebene 1
370
    15
100
AcDbSpline
210
0.0
220
0.0
230
1.0
 70
    24
 71
     3
 72
     8
 73
     4
 74
     0
 42
0.0000000001
 43
0.0000000001
 40
0.0
 40
0.0
 40
0.0
 40
0.0
 40
1.0
 40
1.0
 40
1.0
 40
1.0
 10
-33.9476
 20
17.4452
 30
0.0
 10
-33.9476
 20
17.4452
 30
0.0
 10
-33.3673
 20
18.0255
 30
0.0
 10
-33.3673
 20
18.0255
 30
0.0
  0
SPLINE
  5
94
330
1F
100
AcDbEntity
  8
Ebene 1
370
    15
100
AcDbSpline
210
0.0
220
0.0
230
1.0
 70
    24
 71
     3
 72
     8
 73
     4
 74
     0
 42
0.0000000001
 43
0.0000000001
 40
0.0
 40
0.0
 40
0.0
 40
0.0
 40
1.0
 40
1.0
 40
1.0
 40
1.0
 10
-33.9476
 20
13.9711
 30
0.0
 10
-33.9476
 20
13.9711
 30
0.0
 10
-33.3673
 20
14.5514
 30
0.0
 10
-33.3673
 20
14.5514
 30
0.0
  0
SPLINE
  5
95
330
1F
100
AcDbEntity
  8
Ebene 1
370
    15
100
AcDbSpline
210
0.0
220
0.0
230
1.0
 70
    24
 71
     3
 72
     8
 73
     4
 74
     0
 42
0.0000000001
 43
0.0000000001
 40
0.0
 40
0.0
 40
0.0
 40
0.0
 40
1.0
 40
1.0
 40
1.0
 40
1.0
 10
-33.9476
 20
10.4972
 30
0.0
 10
-33.9476
 20
10.4972
 30
0.0
 10
-33.3673
 20
11.0774
 30
0.0
 10
-33.3673
 20
11.0774
 30
0.0
  0
SPLINE
  5
96
330
1F
100
AcDbEntity
  8
Ebene 1
370
    15
100
AcDbSpline
210
0.0
220
0.0
230
1.0
 70
    24
 71
     3
 72
     8
 73
     4
 74
     0
 42
0.0000000001
 43
0.0000000001
 40
0.0
 40
0.0
 40
0.0
 40
0.0
 40
1.0
 40
1.0
 40
1.0
 40
1.0
 10
-33.6812
 20
7.2895
 30
0.0
 10
-33.6812
 20
7.2895
 30
0.0
 10
-33.2507
 20
7.720000000000001
 30
0.0
 10
-33.2507
 20
7.720000000000001
 30
0.0
  0
SPLINE
  5
97
330
1F
100
AcDbEntity
  8
Ebene 1
370
    15
100
AcDbSpline
210
0.0
220
0.0
230
1.0
 70
    24
 71
     3
 72
     8
 73
     4
 74
     0
 42
0.0000000001
 43
0.0000000001
 40
0.0
 40
0.0
 40
0.0
 40
0.0
 40
1.0
 40
1.0
 40
1.0
 40
1.0
 10
-31.1619
 20
6.334700000000001
 30
0.0
 10
-31.1619
 20
6.334700000000001
 30
0.0
 10
-30.5816
 20
6.915
 30
0.0
 10
-30.5816
 20
6.915
 30
0.0
  0
SPLINE
  5
98
330
1F
100
AcDbEntity
  8
Ebene 1
370
    15
100
AcDbSpline
210
0.0
220
0.0
230
1.0
 70
    24
 71
     3
 72
     8
 73
     4
 74
     0
 42
0.0000000001
 43
0.0000000001
 40
0.0
 40
0.0
 40
0.0
 40
0.0
 40
1.0
 40
1.0
 40
1.0
 40
1.0
 10
-27.6879
 20
6.334700000000001
 30
0.0
 10
-27.6879
 20
6.334700000000001
 30
0.0
 10
-27.1076
 20
6.915
 30
0.0
 10
-27.1076
 20
6.915
 30
0.0
  0
SPLINE
  5
99
330
1F
100
AcDbEntity
  8
Ebene 1
370
    15
100
AcDbSpline
210
0.0
220
0.0
230
1.0
 70
    24
 71
     3
 72
     8
 73
     4
 74
     0
 42
0.0000000001
 43
0.0000000001
 40
0.0
 40
0.0
 40
0.0
 40
0.0
 40
1.0
 40
1.0
 40
1.0
 40
1.0
 10
-24.2138
 20
6.334700000000001
 30
0.0
 10
-24.2138
 20
6.334700000000001
 30
0.0
 10
-23.6335
 20
6.915
 30
0.0
 10
-23.6335
 20
6.915
 30
0.0
  0
SPLINE
  5
9A
330
1F
100
AcDbEntity
  8
Ebene 1
370
    15
100
AcDbSpline
210
0.0
220
0.0
230
1.0
 70
    24
 71
     3
 72
     8
 73
     4
 74
     0
 42
0.0000000001
 43
0.0000000001
 40
0.0
 40
0.0
 40
0.0
 40
0.0
 40
1.0
 40
1.0
 40
1.0
 40
1.0
 10
-2.806
 20
24.2686
 30
0.0
 10
-2.806
 20
24.2686
 30
0.0
 10
-1.3141
 20
25.7605
 30
0.0
 10
-1.3141
 20
25.7605
 30
0.0
  0
SPLINE
  5
9B
330
1F
100
AcDbEntity
  8
Ebene 1
370
    15
100
AcDbSpline
210
0.0
220
0.0
230
1.0
 70
    24
 71
     3
 72
     8
 73
     4
 74
     0
 42
0.0000000001
 43
0.0000000001
 40
0.0
 40
0.0
 40
0.0
 40
0.0
 40
1.0
 40
1.0
 40
1.0
 40
1.0
 10
-20.7398
 20
6.334700000000001
 30
0.0
 10
-20.7398
 20
6.334700000000001
 30
0.0
 10
-20.1595
 20
6.915
 30
0.0
 10
-20.1595
 20
6.915
 30
0.0
  0
SPLINE
  5
9C
330
1F
100
AcDbEntity
  8
Ebene 1
370
    15
100
AcDbSpline
210
0.0
220
0.0
230
1.0
 70
    24
 71
     3
 72
     8
 73
     4
 74
     0
 42
0.0000000001
 43
0.0000000001
 40
0.0
 40
0.0
 40
0.0
 40
0.0
 40
1.0
 40
1.0
 40
1.0
 40
1.0
 10
-2.806
 20
20.7945
 30
0.0
 10
-2.806
 20
20.7945
 30
0.0
 10
-2.2257
 20
21.3748
 30
0.0
 10
-2.2257
 20
21.3748
 30
0.0
  0
SPLINE
  5
9D
330
1F
100
AcDbEntity
  8
Ebene 1
370
    15
100
AcDbSpline
210
0.0
220
0.0
230
1.0
 70
    24
 71
     3
 72
     8
 73
     4
 74
     0
 42
0.0000000001
 43
0.0000000001
 40
0.0
 40
0.0
 40
0.0
 40
0.0
 40
1.0
 40
1.0
 40
1.0
 40
1.0
 10
-17.2658
 20
6.334700000000001
 30
0.0
 10
-17.2658
 20
6.334700000000001
 30
0.0
 10
-16.6855
 20
6.915
 30
0.0
 10
-16.6855
 20
6.915
 30
0.0
  0
SPLINE
  5
9E
330
1F
100
AcDbEntity
  8
Ebene 1
370
    15
100
AcDbSpline
210
0.0
220
0.0
230
1.0
 70
    24
 71
     3
 72
     8
 73
     4
 74
     0
 42
0.0000000001
 43
0.0000000001
 40
0.0
 40
0.0
 40
0.0
 40
0.0
 40
1.0
 40
1.0
 40
1.0
 40
1.0
 10
-2.806
 20
17.3205
 30
0.0
 10
-2.806
 20
17.3205
 30
0.0
 10
-2.2257
 20
17.9008
 30
0.0
 10
-2.2257
 20
17.9008
 30
0.0
  0
SPLINE
  5
9F
330
1F
100
AcDbEntity
  8
Ebene 1
370
    15
100
AcDbSpline
210
0.0
220
0.0
230
1.0
 70
    24
 71
     3
 72
     8
 73
     4
 74
     0
 42
0.0000000001
 43
0.0000000001
 40
0.0
 40
0.0
 40
0.0
 40
0.0
 40
1.0
 40
1.0
 40
1.0
 40
1.0
 10
-13.7917
 20
6.334700000000001
 30
0.0
 10
-13.7917
 20
6.334700000000001
 30
0.0
 10
-13.2114
 20
6.915
 30
0.0
 10
-13.2114
 20
6.915
 30
0.0
  0
SPLINE
  5
A0
330
1F
100
AcDbEntity
  8
Ebene 1
370
    15
100
AcDbSpline
210
0.0
220
0.0
230
1.0
 70
    24
 71
     3
 72
     8
 73
     4
 74
     0
 42
0.0000000001
 43
0.0000000001
 40
0.0
 40
0.0
 40
0.0
 40
0.0
 40
1.0
 40
1.0
 40
1.0
 40
1.0
 10
-2.806
 20
13.8464
 30
0.0
 10
-2.806
 20
13.8464
 30
0.0
 10
-2.2257
 20
14.4267
 30
0.0
 10
-2.2257
 20
14.4267
 30
0.0
  0
SPLINE
  5
A1
330
1F
100
AcDbEntity
  8
Ebene 1
370
    15
100
AcDbSpline
210
0.0
220
0.0
230
1.0
 70
    24
 71
     3
 72
     8
 73
     4
 74
     0
 42
0.0000000001
 43
0.0000000001
 40
0.0
 40
0.0
 40
0.0
 40
0.0
 40
1.0
 40
1.0
 40
1.0
 40
1.0
 10
-10.3177
 20
6.334700000000001
 30
0.0
 10
-10.3177
 20
6.334700000000001
 30
0.0
 10
-9.737400000000001
 20
6.915
 30
0.0
 10
-9.737400000000001
 20
6.915
 30
0.0
  0
SPLINE
  5
A2
330
1F
100
AcDbEntity
  8
Ebene 1
370
    15
100
AcDbSpline
210
0.0
220
0.0
230
1.0
 70
    24
 71
     3
 72
     8
 73
     4
 74
     0
 42
0.0000000001
 43
0.0000000001
 40
0.0
 40
0.0
 40
0.0
 40
0.0
 40
1.0
 40
1.0
 40
1.0
 40
1.0
 10
-2.806
 20
10.3724
 30
0.0
 10
-2.806
 20
10.3724
 30
0.0
 10
-2.2257
 20
10.9527
 30
0.0
 10
-2.2257
 20
10.9527
 30
0.0
  0
SPLINE
  5
A3
330
1F
100
AcDbEntity
  8
Ebene 1
370
    15
100
AcDbSpline
210
0.0
220
0.0
230
1.0
 70
    24
 71
     3
 72
     8
 73
     4
 74
     0
 42
0.0000000001
 43
0.0000000001
 40
0.0
 40
0.0
 40
0.0
 40
0.0
 40
1.0
 40
1.0
 40
1.0
 40
1.0
 10
-6.8436
 20
6.334700000000001
 30
0.0
 10
-6.8436
 20
6.334700000000001
 30
0.0
 10
-6.2637
 20
6.915
 30
0.0
 10
-6.2637
 20
6.915
 30
0.0
  0
SPLINE
  5
A4
330
1F
100
AcDbEntity
  8
Ebene 1
370
    15
100
AcDbSpline
210
0.0
220
0.0
230
1.0
 70
    24
 71
     3
 72
     8
 73
     4
 74
     0
 42
0.0000000001
 43
0.0000000001
 40
0.0
 40
0.0
 40
0.0
 40
0.0
 40
1.0
 40
1.0
 40
1.0
 40
1.0
 10
-2.9204
 20
6.7842
 30
0.0
 10
-2.9204
 20
6.7842
 30
0.0
 10
-2.6752
 20
7.029100000000001
 30
0.0
 10
-2.6752
 20
7.029100000000001
 30
0.0
  0
SPLINE
  5
A5
330
1F
100
AcDbEntity
  8
Ebene 1
370
    15
100
AcDbSpline
210
0.0
220
0.0
230
1.0
 70
    24
 71
     3
 72
     8
 73
     4
 74
     0
 42
0.0000000001
 43
0.0000000001
 40
0.0
 40
0.0
 40
0.0
 40
0.0
 40
1.0
 40
1.0
 40
1.0
 40
1.0
 10
-39.7301
 20
29.0328
 30
0.0
 10
-39.7301
 20
29.0328
 30
0.0
 10
-39.2372
 20
29.5255
 30
0.0
 10
-39.2372
 20
29.5255
 30
0.0
  0
SPLINE
  5
A6
330
1F
100
AcDbEntity
  8
Ebene 1
370
    35
100
AcDbSpline
210
0.0
220
0.0
230
1.0
 70
    11
 71
     3
 72
    92
 73
    88
 74
     0
 42
0.0000000001
 43
0.0000000001
 40
0.0
 40
0.0
 40
0.0
 40
0.0
 40
0.0454545454545455
 40
0.0454545454545455
 40
0.0454545454545455
 40
0.0454545454545455
 40
0.0909090909090909
 40
0.0909090909090909
 40
0.0909090909090909
 40
0.0909090909090909
 40
0.1363636363636364
 40
0.1363636363636364
 40
0.1363636363636364
 40
0.1363636363636364
 40
0.1818181818181818
 40
0.1818181818181818
 40
0.1818181818181818
 40
0.1818181818181818
 40
0.2272727272727273
 40
0.2272727272727273
 40
0.2272727272727273
 40
0.2272727272727273
 40
0.2727272727272728
 40
0.2727272727272728
 40
0.2727272727272728
 40
0.2727272727272728
 40
0.3181818181818182
 40
0.3181818181818182
 40
0.3181818181818182
 40
0.3181818181818182
 40
0.3636363636363637
 40
0.3636363636363637
 40
0.3636363636363637
 40
0.3636363636363637
 40
0.4090909090909092
 40
0.4090909090909092
 40
0.4090909090909092
 40
0.4090909090909092
 40
0.4545454545454546
 40
0.4545454545454546
 40
0.4545454545454546
 40
0.4545454545454546
 40
0.5000000000000001
 40
0.5000000000000001
 40
0.5000000000000001
 40
0.5000000000000001
 40
0.5454545454545455
 40
0.5454545454545455
 40
0.5454545454545455
 40
0.5454545454545455
 40
0.5909090909090909
 40
0.5909090909090909
 40
0.5909090909090909
 40
0.5909090909090909
 40
0.6363636363636364
 40
0.6363636363636364
 40
0.6363636363636364
 40
0.6363636363636364
 40
0.6818181818181818
 40
0.6818181818181818
 40
0.6818181818181818
 40
0.6818181818181818
 40
0.7272727272727272
 40
0.7272727272727272
 40
0.7272727272727272
 40
0.7272727272727272
 40
0.7727272727272726
 40
0.7727272727272726
 40
0.7727272727272726
 40
0.7727272727272726
 40
0.818181818181818
 40
0.818181818181818
 40
0.818181818181818
 40
0.818181818181818
 40
0.8636363636363634
 40
0.8636363636363634
 40
0.8636363636363634
 40
0.8636363636363634
 40
0.9090909090909088
 40
0.9090909090909088
 40
0.9090909090909088
 40
0.9090909090909088
 40
0.9545454545454543
 40
0.9545454545454543
 40
0.9545454545454543
 40
0.9545454545454543
 40
1.0
 40
1.0
 40
1.0
 40
1.0
 10
-39.0732
 20
29.5457
 30
0.0
 10
-39.0732
 20
29.5457
 30
0.0
 10
-39.264
 20
29.5183
 30
0.0
 10
-39.264
 20
29.5183
 30
0.0
 10
-39.264
 20
29.5183
 30
0.0
 10
-39.264
 20
29.5183
 30
0.0
 10
-39.4392
 20
29.4381
 30
0.0
 10
-39.4392
 20
29.4381
 30
0.0
 10
-39.4392
 20
29.4381
 30
0.0
 10
-39.4392
 20
29.4381
 30
0.0
 10
-39.58490000000001
 20
29.312
 30
0.0
 10
-39.58490000000001
 20
29.312
 30
0.0
 10
-39.58490000000001
 20
29.312
 30
0.0
 10
-39.58490000000001
 20
29.312
 30
0.0
 10
-39.689
 20
29.1498
 30
0.0
 10
-39.689
 20
29.1498
 30
0.0
 10
-39.689
 20
29.1498
 30
0.0
 10
-39.689
 20
29.1498
 30
0.0
 10
-39.74330000000001
 20
28.9651
 30
0.0
 10
-39.74330000000001
 20
28.9651
 30
0.0
 10
-39.74330000000001
 20
28.9651
 30
0.0
 10
-39.74330000000001
 20
28.9651
 30
0.0
 10
-39.74330000000001
 20
28.7724
 30
0.0
 10
-39.74330000000001
 20
28.7724
 30
0.0
 10
-39.74330000000001
 20
28.7724
 30
0.0
 10
-39.74330000000001
 20
28.7724
 30
0.0
 10
-39.689
 20
28.5876
 30
0.0
 10
-39.689
 20
28.5876
 30
0.0
 10
-39.689
 20
28.5876
 30
0.0
 10
-39.689
 20
28.5876
 30
0.0
 10
-39.58490000000001
 20
28.4255
 30
0.0
 10
-39.58490000000001
 20
28.4255
 30
0.0
 10
-39.58490000000001
 20
28.4255
 30
0.0
 10
-39.58490000000001
 20
28.4255
 30
0.0
 10
-39.4392
 20
28.2991
 30
0.0
 10
-39.4392
 20
28.2991
 30
0.0
 10
-39.4392
 20
28.2991
 30
0.0
 10
-39.4392
 20
28.2991
 30
0.0
 10
-39.264
 20
28.2191
 30
0.0
 10
-39.264
 20
28.2191
 30
0.0
 10
-39.264
 20
28.2191
 30
0.0
 10
-39.264
 20
28.2191
 30
0.0
 10
-39.0732
 20
28.1918
 30
0.0
 10
-39.0732
 20
28.1918
 30
0.0
 10
-39.0732
 20
28.1918
 30
0.0
 10
-39.0732
 20
28.1918
 30
0.0
 10
-38.8824
 20
28.2191
 30
0.0
 10
-38.8824
 20
28.2191
 30
0.0
 10
-38.8824
 20
28.2191
 30
0.0
 10
-38.8824
 20
28.2191
 30
0.0
 10
-38.7072
 20
28.2991
 30
0.0
 10
-38.7072
 20
28.2991
 30
0.0
 10
-38.7072
 20
28.2991
 30
0.0
 10
-38.7072
 20
28.2991
 30
0.0
 10
-38.5617
 20
28.4255
 30
0.0
 10
-38.5617
 20
28.4255
 30
0.0
 10
-38.5617
 20
28.4255
 30
0.0
 10
-38.5617
 20
28.4255
 30
0.0
 10
-38.4574
 20
28.5876
 30
0.0
 10
-38.4574
 20
28.5876
 30
0.0
 10
-38.4574
 20
28.5876
 30
0.0
 10
-38.4574
 20
28.5876
 30
0.0
 10
-38.4031
 20
28.7724
 30
0.0
 10
-38.4031
 20
28.7724
 30
0.0
 10
-38.4031
 20
28.7724
 30
0.0
 10
-38.4031
 20
28.7724
 30
0.0
 10
-38.4031
 20
28.9651
 30
0.0
 10
-38.4031
 20
28.9651
 30
0.0
 10
-38.4031
 20
28.9651
 30
0.0
 10
-38.4031
 20
28.9651
 30
0.0
 10
-38.4574
 20
29.1498
 30
0.0
 10
-38.4574
 20
29.1498
 30
0.0
 10
-38.4574
 20
29.1498
 30
0.0
 10
-38.4574
 20
29.1498
 30
0.0
 10
-38.5617
 20
29.312
 30
0.0
 10
-38.5617
 20
29.312
 30
0.0
 10
-38.5617
 20
29.312
 30
0.0
 10
-38.5617
 20
29.312
 30
0.0
 10
-38.7072
 20
29.4381
 30
0.0
 10
-38.7072
 20
29.4381
 30
0.0
 10
-38.7072
 20
29.4381
 30
0.0
 10
-38.7072
 20
29.4381
 30
0.0
 10
-38.8824
 20
29.5183
 30
0.0
 10
-38.8824
 20
29.5183
 30
0.0
 10
-38.8824
 20
29.5183
 30
0.0
 10
-38.8824
 20
29.5183
 30
0.0
 10
-39.0732
 20
29.5457
 30
0.0
 10
-39.0732
 20
29.5457
 30
0.0
  0
SPLINE
  5
A7
330
1F
100
AcDbEntity
  8
Ebene 1
370
    35
100
AcDbSpline
210
0.0
220
0.0
230
1.0
 70
    11
 71
     3
 72
    92
 73
    88
 74
     0
 42
0.0000000001
 43
0.0000000001
 40
0.0
 40
0.0
 40
0.0
 40
0.0
 40
0.0454545454545455
 40
0.0454545454545455
 40
0.0454545454545455
 40
0.0454545454545455
 40
0.0909090909090909
 40
0.0909090909090909
 40
0.0909090909090909
 40
0.0909090909090909
 40
0.1363636363636364
 40
0.1363636363636364
 40
0.1363636363636364
 40
0.1363636363636364
 40
0.1818181818181818
 40
0.1818181818181818
 40
0.1818181818181818
 40
0.1818181818181818
 40
0.2272727272727273
 40
0.2272727272727273
 40
0.2272727272727273
 40
0.2272727272727273
 40
0.2727272727272728
 40
0.2727272727272728
 40
0.2727272727272728
 40
0.2727272727272728
 40
0.3181818181818182
 40
0.3181818181818182
 40
0.3181818181818182
 40
0.3181818181818182
 40
0.3636363636363637
 40
0.3636363636363637
 40
0.3636363636363637
 40
0.3636363636363637
 40
0.4090909090909092
 40
0.4090909090909092
 40
0.4090909090909092
 40
0.4090909090909092
 40
0.4545454545454546
 40
0.4545454545454546
 40
0.4545454545454546
 40
0.4545454545454546
 40
0.5000000000000001
 40
0.5000000000000001
 40
0.5000000000000001
 40
0.5000000000000001
 40
0.5454545454545455
 40
0.5454545454545455
 40
0.5454545454545455
 40
0.5454545454545455
 40
0.5909090909090909
 40
0.5909090909090909
 40
0.5909090909090909
 40
0.5909090909090909
 40
0.6363636363636364
 40
0.6363636363636364
 40
0.6363636363636364
 40
0.6363636363636364
 40
0.6818181818181818
 40
0.6818181818181818
 40
0.6818181818181818
 40
0.6818181818181818
 40
0.7272727272727272
 40
0.7272727272727272
 40
0.7272727272727272
 40
0.7272727272727272
 40
0.7727272727272726
 40
0.7727272727272726
 40
0.7727272727272726
 40
0.7727272727272726
 40
0.818181818181818
 40
0.818181818181818
 40
0.818181818181818
 40
0.818181818181818
 40
0.8636363636363634
 40
0.8636363636363634
 40
0.8636363636363634
 40
0.8636363636363634
 40
0.9090909090909088
 40
0.9090909090909088
 40
0.9090909090909088
 40
0.9090909090909088
 40
0.9545454545454543
 40
0.9545454545454543
 40
0.9545454545454543
 40
0.9545454545454543
 40
1.0
 40
1.0
 40
1.0
 40
1.0
 10
2.8999
 20
29.5457
 30
0.0
 10
2.8999
 20
29.5457
 30
0.0
 10
2.7094
 20
29.5183
 30
0.0
 10
2.7094
 20
29.5183
 30
0.0
 10
2.7094
 20
29.5183
 30
0.0
 10
2.7094
 20
29.5183
 30
0.0
 10
2.5342
 20
29.4381
 30
0.0
 10
2.5342
 20
29.4381
 30
0.0
 10
2.5342
 20
29.4381
 30
0.0
 10
2.5342
 20
29.4381
 30
0.0
 10
2.3884
 20
29.312
 30
0.0
 10
2.3884
 20
29.312
 30
0.0
 10
2.3884
 20
29.312
 30
0.0
 10
2.3884
 20
29.312
 30
0.0
 10
2.2842
 20
29.1498
 30
0.0
 10
2.2842
 20
29.1498
 30
0.0
 10
2.2842
 20
29.1498
 30
0.0
 10
2.2842
 20
29.1498
 30
0.0
 10
2.2299
 20
28.9651
 30
0.0
 10
2.2299
 20
28.9651
 30
0.0
 10
2.2299
 20
28.9651
 30
0.0
 10
2.2299
 20
28.9651
 30
0.0
 10
2.2299
 20
28.7724
 30
0.0
 10
2.2299
 20
28.7724
 30
0.0
 10
2.2299
 20
28.7724
 30
0.0
 10
2.2299
 20
28.7724
 30
0.0
 10
2.2842
 20
28.5876
 30
0.0
 10
2.2842
 20
28.5876
 30
0.0
 10
2.2842
 20
28.5876
 30
0.0
 10
2.2842
 20
28.5876
 30
0.0
 10
2.3884
 20
28.4255
 30
0.0
 10
2.3884
 20
28.4255
 30
0.0
 10
2.3884
 20
28.4255
 30
0.0
 10
2.3884
 20
28.4255
 30
0.0
 10
2.5342
 20
28.2991
 30
0.0
 10
2.5342
 20
28.2991
 30
0.0
 10
2.5342
 20
28.2991
 30
0.0
 10
2.5342
 20
28.2991
 30
0.0
 10
2.7094
 20
28.2191
 30
0.0
 10
2.7094
 20
28.2191
 30
0.0
 10
2.7094
 20
28.2191
 30
0.0
 10
2.7094
 20
28.2191
 30
0.0
 10
2.8999
 20
28.1918
 30
0.0
 10
2.8999
 20
28.1918
 30
0.0
 10
2.8999
 20
28.1918
 30
0.0
 10
2.8999
 20
28.1918
 30
0.0
 10
3.0907
 20
28.2191
 30
0.0
 10
3.0907
 20
28.2191
 30
0.0
 10
3.0907
 20
28.2191
 30
0.0
 10
3.0907
 20
28.2191
 30
0.0
 10
3.2659
 20
28.2991
 30
0.0
 10
3.2659
 20
28.2991
 30
0.0
 10
3.2659
 20
28.2991
 30
0.0
 10
3.2659
 20
28.2991
 30
0.0
 10
3.4117
 20
28.4255
 30
0.0
 10
3.4117
 20
28.4255
 30
0.0
 10
3.4117
 20
28.4255
 30
0.0
 10
3.4117
 20
28.4255
 30
0.0
 10
3.5159
 20
28.5876
 30
0.0
 10
3.5159
 20
28.5876
 30
0.0
 10
3.5159
 20
28.5876
 30
0.0
 10
3.5159
 20
28.5876
 30
0.0
 10
3.5703
 20
28.7724
 30
0.0
 10
3.5703
 20
28.7724
 30
0.0
 10
3.5703
 20
28.7724
 30
0.0
 10
3.5703
 20
28.7724
 30
0.0
 10
3.5703
 20
28.9651
 30
0.0
 10
3.5703
 20
28.9651
 30
0.0
 10
3.5703
 20
28.9651
 30
0.0
 10
3.5703
 20
28.9651
 30
0.0
 10
3.5159
 20
29.1498
 30
0.0
 10
3.5159
 20
29.1498
 30
0.0
 10
3.5159
 20
29.1498
 30
0.0
 10
3.5159
 20
29.1498
 30
0.0
 10
3.4117
 20
29.312
 30
0.0
 10
3.4117
 20
29.312
 30
0.0
 10
3.4117
 20
29.312
 30
0.0
 10
3.4117
 20
29.312
 30
0.0
 10
3.2659
 20
29.4381
 30
0.0
 10
3.2659
 20
29.4381
 30
0.0
 10
3.2659
 20
29.4381
 30
0.0
 10
3.2659
 20
29.4381
 30
0.0
 10
3.0907
 20
29.5183
 30
0.0
 10
3.0907
 20
29.5183
 30
0.0
 10
3.0907
 20
29.5183
 30
0.0
 10
3.0907
 20
29.5183
 30
0.0
 10
2.8999
 20
29.5457
 30
0.0
 10
2.8999
 20
29.5457
 30
0.0
  0
SPLINE
  5
A8
330
1F
100
AcDbEntity
  8
Ebene 1
370
    35
100
AcDbSpline
210
0.0
220
0.0
230
1.0
 70
    24
 71
     3
 72
     8
 73
     4
 74
     0
 42
0.0000000001
 43
0.0000000001
 40
0.0
 40
0.0
 40
0.0
 40
0.0
 40
1.0
 40
1.0
 40
1.0
 40
1.0
 10
-39.4021
 20
27.0313
 30
0.0
 10
-39.4021
 20
27.0313
 30
0.0
 10
-38.0202
 20
27.0313
 30
0.0
 10
-38.0202
 20
27.0313
 30
0.0
  0
SPLINE
  5
A9
330
1F
100
AcDbEntity
  8
Ebene 1
370
    35
100
AcDbSpline
210
0.0
220
0.0
230
1.0
 70
    24
 71
     3
 72
     8
 73
     4
 74
     0
 42
0.0000000001
 43
0.0000000001
 40
0.0
 40
0.0
 40
0.0
 40
0.0
 40
1.0
 40
1.0
 40
1.0
 40
1.0
 10
-39.4021
 20
27.0313
 30
0.0
 10
-39.4021
 20
27.0313
 30
0.0
 10
-39.4021
 20
27.8048
 30
0.0
 10
-39.4021
 20
27.8048
 30
0.0
  0
SPLINE
  5
AA
330
1F
100
AcDbEntity
  8
Ebene 1
370
    35
100
AcDbSpline
210
0.0
220
0.0
230
1.0
 70
    24
 71
     3
 72
     8
 73
     4
 74
     0
 42
0.0000000001
 43
0.0000000001
 40
0.0
 40
0.0
 40
0.0
 40
0.0
 40
1.0
 40
1.0
 40
1.0
 40
1.0
 10
-39.4021
 20
27.8048
 30
0.0
 10
-39.4021
 20
27.8048
 30
0.0
 10
-38.0202
 20
27.8048
 30
0.0
 10
-38.0202
 20
27.8048
 30
0.0
  0
SPLINE
  5
AB
330
1F
100
AcDbEntity
  8
Ebene 1
370
    35
100
AcDbSpline
210
0.0
220
0.0
230
1.0
 70
     8
 71
     3
 72
    36
 73
    32
 74
     0
 42
0.0000000001
 43
0.0000000001
 40
0.0
 40
0.0
 40
0.0
 40
0.0
 40
0.125
 40
0.125
 40
0.125
 40
0.125
 40
0.25
 40
0.25
 40
0.25
 40
0.25
 40
0.375
 40
0.375
 40
0.375
 40
0.375
 40
0.5
 40
0.5
 40
0.5
 40
0.5
 40
0.625
 40
0.625
 40
0.625
 40
0.625
 40
0.75
 40
0.75
 40
0.75
 40
0.75
 40
0.875
 40
0.875
 40
0.875
 40
0.875
 40
1.0
 40
1.0
 40
1.0
 40
1.0
 10
-37.3326
 20
27.5794
 30
0.0
 10
-37.3326
 20
27.5794
 30
0.0
 10
-37.4087
 20
27.6309
 30
0.0
 10
-37.4087
 20
27.6309
 30
0.0
 10
-37.4087
 20
27.6309
 30
0.0
 10
-37.4087
 20
27.6309
 30
0.0
 10
-37.489
 20
27.6762
 30
0.0
 10
-37.489
 20
27.6762
 30
0.0
 10
-37.489
 20
27.6762
 30
0.0
 10
-37.489
 20
27.6762
 30
0.0
 10
-37.5723
 20
27.715
 30
0.0
 10
-37.5723
 20
27.715
 30
0.0
 10
-37.5723
 20
27.715
 30
0.0
 10
-37.5723
 20
27.715
 30
0.0
 10
-37.6585
 20
27.747
 30
0.0
 10
-37.6585
 20
27.747
 30
0.0
 10
-37.6585
 20
27.747
 30
0.0
 10
-37.6585
 20
27.747
 30
0.0
 10
-37.7469
 20
27.7723
 30
0.0
 10
-37.7469
 20
27.7723
 30
0.0
 10
-37.7469
 20
27.7723
 30
0.0
 10
-37.7469
 20
27.7723
 30
0.0
 10
-37.8371
 20
27.7904
 30
0.0
 10
-37.8371
 20
27.7904
 30
0.0
 10
-37.8371
 20
27.7904
 30
0.0
 10
-37.8371
 20
27.7904
 30
0.0
 10
-37.9284
 20
27.8013
 30
0.0
 10
-37.9284
 20
27.8013
 30
0.0
 10
-37.9284
 20
27.8013
 30
0.0
 10
-37.9284
 20
27.8013
 30
0.0
 10
-38.0202
 20
27.8048
 30
0.0
 10
-38.0202
 20
27.8048
 30
0.0
  0
SPLINE
  5
AC
330
1F
100
AcDbEntity
  8
Ebene 1
370
    35
100
AcDbSpline
210
0.0
220
0.0
230
1.0
 70
    24
 71
     3
 72
     8
 73
     4
 74
     0
 42
0.0000000001
 43
0.0000000001
 40
0.0
 40
0.0
 40
0.0
 40
0.0
 40
1.0
 40
1.0
 40
1.0
 40
1.0
 10
-33.5248
 20
24.7795
 30
0.0
 10
-33.5248
 20
24.7795
 30
0.0
 10
-37.3326
 20
27.5794
 30
0.0
 10
-37.3326
 20
27.5794
 30
0.0
  0
SPLINE
  5
AD
330
1F
100
AcDbEntity
  8
Ebene 1
370
    35
100
AcDbSpline
210
0.0
220
0.0
230
1.0
 70
     8
 71
     3
 72
    36
 73
    32
 74
     0
 42
0.0000000001
 43
0.0000000001
 40
0.0
 40
0.0
 40
0.0
 40
0.0
 40
0.125
 40
0.125
 40
0.125
 40
0.125
 40
0.25
 40
0.25
 40
0.25
 40
0.25
 40
0.375
 40
0.375
 40
0.375
 40
0.375
 40
0.5
 40
0.5
 40
0.5
 40
0.5
 40
0.625
 40
0.625
 40
0.625
 40
0.625
 40
0.75
 40
0.75
 40
0.75
 40
0.75
 40
0.875
 40
0.875
 40
0.875
 40
0.875
 40
1.0
 40
1.0
 40
1.0
 40
1.0
 10
-33.3673
 20
24.4678
 30
0.0
 10
-33.3673
 20
24.4678
 30
0.0
 10
-33.3697
 20
24.5128
 30
0.0
 10
-33.3697
 20
24.5128
 30
0.0
 10
-33.3697
 20
24.5128
 30
0.0
 10
-33.3697
 20
24.5128
 30
0.0
 10
-33.3777
 20
24.5576
 30
0.0
 10
-33.3777
 20
24.5576
 30
0.0
 10
-33.3777
 20
24.5576
 30
0.0
 10
-33.3777
 20
24.5576
 30
0.0
 10
-33.3908
 20
24.601
 30
0.0
 10
-33.3908
 20
24.601
 30
0.0
 10
-33.3908
 20
24.601
 30
0.0
 10
-33.3908
 20
24.601
 30
0.0
 10
-33.4088
 20
24.6425
 30
0.0
 10
-33.4088
 20
24.6425
 30
0.0
 10
-33.4088
 20
24.6425
 30
0.0
 10
-33.4088
 20
24.6425
 30
0.0
 10
-33.4317
 20
24.6815
 30
0.0
 10
-33.4317
 20
24.6815
 30
0.0
 10
-33.4317
 20
24.6815
 30
0.0
 10
-33.4317
 20
24.6815
 30
0.0
 10
-33.4587
 20
24.7178
 30
0.0
 10
-33.4587
 20
24.7178
 30
0.0
 10
-33.4587
 20
24.7178
 30
0.0
 10
-33.4587
 20
24.7178
 30
0.0
 10
-33.4901
 20
24.7506
 30
0.0
 10
-33.4901
 20
24.7506
 30
0.0
 10
-33.4901
 20
24.7506
 30
0.0
 10
-33.4901
 20
24.7506
 30
0.0
 10
-33.5248
 20
24.7795
 30
0.0
 10
-33.5248
 20
24.7795
 30
0.0
  0
SPLINE
  5
AE
330
1F
100
AcDbEntity
  8
Ebene 1
370
    35
100
AcDbSpline
210
0.0
220
0.0
230
1.0
 70
    24
 71
     3
 72
     8
 73
     4
 74
     0
 42
0.0000000001
 43
0.0000000001
 40
0.0
 40
0.0
 40
0.0
 40
0.0
 40
1.0
 40
1.0
 40
1.0
 40
1.0
 10
-33.3673
 20
8.268800000000001
 30
0.0
 10
-33.3673
 20
8.268800000000001
 30
0.0
 10
-33.3673
 20
24.4678
 30
0.0
 10
-33.3673
 20
24.4678
 30
0.0
  0
SPLINE
  5
AF
330
1F
100
AcDbEntity
  8
Ebene 1
370
    35
100
AcDbSpline
210
0.0
220
0.0
230
1.0
 70
     8
 71
     3
 72
    36
 73
    32
 74
     0
 42
0.0000000001
 43
0.0000000001
 40
0.0
 40
0.0
 40
0.0
 40
0.0
 40
0.125
 40
0.125
 40
0.125
 40
0.125
 40
0.25
 40
0.25
 40
0.25
 40
0.25
 40
0.375
 40
0.375
 40
0.375
 40
0.375
 40
0.5
 40
0.5
 40
0.5
 40
0.5
 40
0.625
 40
0.625
 40
0.625
 40
0.625
 40
0.75
 40
0.75
 40
0.75
 40
0.75
 40
0.875
 40
0.875
 40
0.875
 40
0.875
 40
1.0
 40
1.0
 40
1.0
 40
1.0
 10
-33.3673
 20
8.268800000000001
 30
0.0
 10
-33.3673
 20
8.268800000000001
 30
0.0
 10
-33.3411
 20
8.004900000000001
 30
0.0
 10
-33.3411
 20
8.004900000000001
 30
0.0
 10
-33.3411
 20
8.004900000000001
 30
0.0
 10
-33.3411
 20
8.004900000000001
 30
0.0
 10
-33.2641
 20
7.750800000000001
 30
0.0
 10
-33.2641
 20
7.750800000000001
 30
0.0
 10
-33.2641
 20
7.750800000000001
 30
0.0
 10
-33.2641
 20
7.750800000000001
 30
0.0
 10
-33.1391
 20
7.5166
 30
0.0
 10
-33.1391
 20
7.5166
 30
0.0
 10
-33.1391
 20
7.5166
 30
0.0
 10
-33.1391
 20
7.5166
 30
0.0
 10
-32.9707
 20
7.3116
 30
0.0
 10
-32.9707
 20
7.3116
 30
0.0
 10
-32.9707
 20
7.3116
 30
0.0
 10
-32.9707
 20
7.3116
 30
0.0
 10
-32.7655
 20
7.1432
 30
0.0
 10
-32.7655
 20
7.1432
 30
0.0
 10
-32.7655
 20
7.1432
 30
0.0
 10
-32.7655
 20
7.1432
 30
0.0
 10
-32.5313
 20
7.0179
 30
0.0
 10
-32.5313
 20
7.0179
 30
0.0
 10
-32.5313
 20
7.0179
 30
0.0
 10
-32.5313
 20
7.0179
 30
0.0
 10
-32.2774
 20
6.9409
 30
0.0
 10
-32.2774
 20
6.9409
 30
0.0
 10
-32.2774
 20
6.9409
 30
0.0
 10
-32.2774
 20
6.9409
 30
0.0
 10
-32.01320000000001
 20
6.915
 30
0.0
 10
-32.01320000000001
 20
6.915
 30
0.0
  0
SPLINE
  5
B0
330
1F
100
AcDbEntity
  8
Ebene 1
370
    35
100
AcDbSpline
210
0.0
220
0.0
230
1.0
 70
    24
 71
     3
 72
     8
 73
     4
 74
     0
 42
0.0000000001
 43
0.0000000001
 40
0.0
 40
0.0
 40
0.0
 40
0.0
 40
1.0
 40
1.0
 40
1.0
 40
1.0
 10
-4.1601
 20
6.915
 30
0.0
 10
-4.1601
 20
6.915
 30
0.0
 10
-32.01320000000001
 20
6.915
 30
0.0
 10
-32.01320000000001
 20
6.915
 30
0.0
  0
SPLINE
  5
B1
330
1F
100
AcDbEntity
  8
Ebene 1
370
    35
100
AcDbSpline
210
0.0
220
0.0
230
1.0
 70
     8
 71
     3
 72
    36
 73
    32
 74
     0
 42
0.0000000001
 43
0.0000000001
 40
0.0
 40
0.0
 40
0.0
 40
0.0
 40
0.125
 40
0.125
 40
0.125
 40
0.125
 40
0.25
 40
0.25
 40
0.25
 40
0.25
 40
0.375
 40
0.375
 40
0.375
 40
0.375
 40
0.5
 40
0.5
 40
0.5
 40
0.5
 40
0.625
 40
0.625
 40
0.625
 40
0.625
 40
0.75
 40
0.75
 40
0.75
 40
0.75
 40
0.875
 40
0.875
 40
0.875
 40
0.875
 40
1.0
 40
1.0
 40
1.0
 40
1.0
 10
-4.1601
 20
6.915
 30
0.0
 10
-4.1601
 20
6.915
 30
0.0
 10
-3.8958
 20
6.9409
 30
0.0
 10
-3.8958
 20
6.9409
 30
0.0
 10
-3.8958
 20
6.9409
 30
0.0
 10
-3.8958
 20
6.9409
 30
0.0
 10
-3.6417
 20
7.0179
 30
0.0
 10
-3.6417
 20
7.0179
 30
0.0
 10
-3.6417
 20
7.0179
 30
0.0
 10
-3.6417
 20
7.0179
 30
0.0
 10
-3.4079
 20
7.1432
 30
0.0
 10
-3.4079
 20
7.1432
 30
0.0
 10
-3.4079
 20
7.1432
 30
0.0
 10
-3.4079
 20
7.1432
 30
0.0
 10
-3.2026
 20
7.3116
 30
0.0
 10
-3.2026
 20
7.3116
 30
0.0
 10
-3.2026
 20
7.3116
 30
0.0
 10
-3.2026
 20
7.3116
 30
0.0
 10
-3.0342
 20
7.5166
 30
0.0
 10
-3.0342
 20
7.5166
 30
0.0
 10
-3.0342
 20
7.5166
 30
0.0
 10
-3.0342
 20
7.5166
 30
0.0
 10
-2.9091
 20
7.750800000000001
 30
0.0
 10
-2.9091
 20
7.750800000000001
 30
0.0
 10
-2.9091
 20
7.750800000000001
 30
0.0
 10
-2.9091
 20
7.750800000000001
 30
0.0
 10
-2.8319
 20
8.004900000000001
 30
0.0
 10
-2.8319
 20
8.004900000000001
 30
0.0
 10
-2.8319
 20
8.004900000000001
 30
0.0
 10
-2.8319
 20
8.004900000000001
 30
0.0
 10
-2.806
 20
8.268800000000001
 30
0.0
 10
-2.806
 20
8.268800000000001
 30
0.0
  0
SPLINE
  5
B2
330
1F
100
AcDbEntity
  8
Ebene 1
370
    35
100
AcDbSpline
210
0.0
220
0.0
230
1.0
 70
    24
 71
     3
 72
     8
 73
     4
 74
     0
 42
0.0000000001
 43
0.0000000001
 40
0.0
 40
0.0
 40
0.0
 40
0.0
 40
1.0
 40
1.0
 40
1.0
 40
1.0
 10
-2.806
 20
24.4678
 30
0.0
 10
-2.806
 20
24.4678
 30
0.0
 10
-2.806
 20
8.268800000000001
 30
0.0
 10
-2.806
 20
8.268800000000001
 30
0.0
  0
SPLINE
  5
B3
330
1F
100
AcDbEntity
  8
Ebene 1
370
    35
100
AcDbSpline
210
0.0
220
0.0
230
1.0
 70
     8
 71
     3
 72
    36
 73
    32
 74
     0
 42
0.0000000001
 43
0.0000000001
 40
0.0
 40
0.0
 40
0.0
 40
0.0
 40
0.125
 40
0.125
 40
0.125
 40
0.125
 40
0.25
 40
0.25
 40
0.25
 40
0.25
 40
0.375
 40
0.375
 40
0.375
 40
0.375
 40
0.5
 40
0.5
 40
0.5
 40
0.5
 40
0.625
 40
0.625
 40
0.625
 40
0.625
 40
0.75
 40
0.75
 40
0.75
 40
0.75
 40
0.875
 40
0.875
 40
0.875
 40
0.875
 40
1.0
 40
1.0
 40
1.0
 40
1.0
 10
-2.6482
 20
24.7795
 30
0.0
 10
-2.6482
 20
24.7795
 30
0.0
 10
-2.6831
 20
24.7506
 30
0.0
 10
-2.6831
 20
24.7506
 30
0.0
 10
-2.6831
 20
24.7506
 30
0.0
 10
-2.6831
 20
24.7506
 30
0.0
 10
-2.7143
 20
24.7178
 30
0.0
 10
-2.7143
 20
24.7178
 30
0.0
 10
-2.7143
 20
24.7178
 30
0.0
 10
-2.7143
 20
24.7178
 30
0.0
 10
-2.7415
 20
24.6815
 30
0.0
 10
-2.7415
 20
24.6815
 30
0.0
 10
-2.7415
 20
24.6815
 30
0.0
 10
-2.7415
 20
24.6815
 30
0.0
 10
-2.7642
 20
24.6425
 30
0.0
 10
-2.7642
 20
24.6425
 30
0.0
 10
-2.7642
 20
24.6425
 30
0.0
 10
-2.7642
 20
24.6425
 30
0.0
 10
-2.7822
 20
24.601
 30
0.0
 10
-2.7822
 20
24.601
 30
0.0
 10
-2.7822
 20
24.601
 30
0.0
 10
-2.7822
 20
24.601
 30
0.0
 10
-2.7953
 20
24.5576
 30
0.0
 10
-2.7953
 20
24.5576
 30
0.0
 10
-2.7953
 20
24.5576
 30
0.0
 10
-2.7953
 20
24.5576
 30
0.0
 10
-2.8033
 20
24.5128
 30
0.0
 10
-2.8033
 20
24.5128
 30
0.0
 10
-2.8033
 20
24.5128
 30
0.0
 10
-2.8033
 20
24.5128
 30
0.0
 10
-2.806
 20
24.4678
 30
0.0
 10
-2.806
 20
24.4678
 30
0.0
  0
SPLINE
  5
B4
330
1F
100
AcDbEntity
  8
Ebene 1
370
    35
100
AcDbSpline
210
0.0
220
0.0
230
1.0
 70
    24
 71
     3
 72
     8
 73
     4
 74
     0
 42
0.0000000001
 43
0.0000000001
 40
0.0
 40
0.0
 40
0.0
 40
0.0
 40
1.0
 40
1.0
 40
1.0
 40
1.0
 10
-2.6482
 20
24.7795
 30
0.0
 10
-2.6482
 20
24.7795
 30
0.0
 10
1.1596
 20
27.5794
 30
0.0
 10
1.1596
 20
27.5794
 30
0.0
  0
SPLINE
  5
B5
330
1F
100
AcDbEntity
  8
Ebene 1
370
    35
100
AcDbSpline
210
0.0
220
0.0
230
1.0
 70
     8
 71
     3
 72
    36
 73
    32
 74
     0
 42
0.0000000001
 43
0.0000000001
 40
0.0
 40
0.0
 40
0.0
 40
0.0
 40
0.125
 40
0.125
 40
0.125
 40
0.125
 40
0.25
 40
0.25
 40
0.25
 40
0.25
 40
0.375
 40
0.375
 40
0.375
 40
0.375
 40
0.5
 40
0.5
 40
0.5
 40
0.5
 40
0.625
 40
0.625
 40
0.625
 40
0.625
 40
0.75
 40
0.75
 40
0.75
 40
0.75
 40
0.875
 40
0.875
 40
0.875
 40
0.875
 40
1.0
 40
1.0
 40
1.0
 40
1.0
 10
1.8472
 20
27.8048
 30
0.0
 10
1.8472
 20
27.8048
 30
0.0
 10
1.7552
 20
27.8013
 30
0.0
 10
1.7552
 20
27.8013
 30
0.0
 10
1.7552
 20
27.8013
 30
0.0
 10
1.7552
 20
27.8013
 30
0.0
 10
1.6637
 20
27.7904
 30
0.0
 10
1.6637
 20
27.7904
 30
0.0
 10
1.6637
 20
27.7904
 30
0.0
 10
1.6637
 20
27.7904
 30
0.0
 10
1.5737
 20
27.7723
 30
0.0
 10
1.5737
 20
27.7723
 30
0.0
 10
1.5737
 20
27.7723
 30
0.0
 10
1.5737
 20
27.7723
 30
0.0
 10
1.4853
 20
27.747
 30
0.0
 10
1.4853
 20
27.747
 30
0.0
 10
1.4853
 20
27.747
 30
0.0
 10
1.4853
 20
27.747
 30
0.0
 10
1.399
 20
27.715
 30
0.0
 10
1.399
 20
27.715
 30
0.0
 10
1.399
 20
27.715
 30
0.0
 10
1.399
 20
27.715
 30
0.0
 10
1.3157
 20
27.6762
 30
0.0
 10
1.3157
 20
27.6762
 30
0.0
 10
1.3157
 20
27.6762
 30
0.0
 10
1.3157
 20
27.6762
 30
0.0
 10
1.2357
 20
27.6309
 30
0.0
 10
1.2357
 20
27.6309
 30
0.0
 10
1.2357
 20
27.6309
 30
0.0
 10
1.2357
 20
27.6309
 30
0.0
 10
1.1596
 20
27.5794
 30
0.0
 10
1.1596
 20
27.5794
 30
0.0
  0
SPLINE
  5
B6
330
1F
100
AcDbEntity
  8
Ebene 1
370
    35
100
AcDbSpline
210
0.0
220
0.0
230
1.0
 70
    24
 71
     3
 72
     8
 73
     4
 74
     0
 42
0.0000000001
 43
0.0000000001
 40
0.0
 40
0.0
 40
0.0
 40
0.0
 40
1.0
 40
1.0
 40
1.0
 40
1.0
 10
1.8472
 20
27.8048
 30
0.0
 10
1.8472
 20
27.8048
 30
0.0
 10
3.2288
 20
27.8048
 30
0.0
 10
3.2288
 20
27.8048
 30
0.0
  0
SPLINE
  5
B7
330
1F
100
AcDbEntity
  8
Ebene 1
370
    35
100
AcDbSpline
210
0.0
220
0.0
230
1.0
 70
    24
 71
     3
 72
     8
 73
     4
 74
     0
 42
0.0000000001
 43
0.0000000001
 40
0.0
 40
0.0
 40
0.0
 40
0.0
 40
1.0
 40
1.0
 40
1.0
 40
1.0
 10
3.2288
 20
27.8048
 30
0.0
 10
3.2288
 20
27.8048
 30
0.0
 10
3.2288
 20
27.0313
 30
0.0
 10
3.2288
 20
27.0313
 30
0.0
  0
SPLINE
  5
B8
330
1F
100
AcDbEntity
  8
Ebene 1
370
    35
100
AcDbSpline
210
0.0
220
0.0
230
1.0
 70
    24
 71
     3
 72
     8
 73
     4
 74
     0
 42
0.0000000001
 43
0.0000000001
 40
0.0
 40
0.0
 40
0.0
 40
0.0
 40
1.0
 40
1.0
 40
1.0
 40
1.0
 10
1.8472
 20
27.0313
 30
0.0
 10
1.8472
 20
27.0313
 30
0.0
 10
3.2288
 20
27.0313
 30
0.0
 10
3.2288
 20
27.0313
 30
0.0
  0
SPLINE
  5
B9
330
1F
100
AcDbEntity
  8
Ebene 1
370
    35
100
AcDbSpline
210
0.0
220
0.0
230
1.0
 70
     8
 71
     3
 72
    36
 73
    32
 74
     0
 42
0.0000000001
 43
0.0000000001
 40
0.0
 40
0.0
 40
0.0
 40
0.0
 40
0.125
 40
0.125
 40
0.125
 40
0.125
 40
0.25
 40
0.25
 40
0.25
 40
0.25
 40
0.375
 40
0.375
 40
0.375
 40
0.375
 40
0.5
 40
0.5
 40
0.5
 40
0.5
 40
0.625
 40
0.625
 40
0.625
 40
0.625
 40
0.75
 40
0.75
 40
0.75
 40
0.75
 40
0.875
 40
0.875
 40
0.875
 40
0.875
 40
1.0
 40
1.0
 40
1.0
 40
1.0
 10
1.8472
 20
27.0313
 30
0.0
 10
1.8472
 20
27.0313
 30
0.0
 10
1.8163
 20
27.0299
 30
0.0
 10
1.8163
 20
27.0299
 30
0.0
 10
1.8163
 20
27.0299
 30
0.0
 10
1.8163
 20
27.0299
 30
0.0
 10
1.786
 20
27.0263
 30
0.0
 10
1.786
 20
27.0263
 30
0.0
 10
1.786
 20
27.0263
 30
0.0
 10
1.786
 20
27.0263
 30
0.0
 10
1.756
 20
27.0204
 30
0.0
 10
1.756
 20
27.0204
 30
0.0
 10
1.756
 20
27.0204
 30
0.0
 10
1.756
 20
27.0204
 30
0.0
 10
1.7265
 20
27.0119
 30
0.0
 10
1.7265
 20
27.0119
 30
0.0
 10
1.7265
 20
27.0119
 30
0.0
 10
1.7265
 20
27.0119
 30
0.0
 10
1.6979
 20
27.0013
 30
0.0
 10
1.6979
 20
27.0013
 30
0.0
 10
1.6979
 20
27.0013
 30
0.0
 10
1.6979
 20
27.0013
 30
0.0
 10
1.67
 20
26.9881
 30
0.0
 10
1.67
 20
26.9881
 30
0.0
 10
1.67
 20
26.9881
 30
0.0
 10
1.67
 20
26.9881
 30
0.0
 10
1.6432
 20
26.9731
 30
0.0
 10
1.6432
 20
26.9731
 30
0.0
 10
1.6432
 20
26.9731
 30
0.0
 10
1.6432
 20
26.9731
 30
0.0
 10
1.6179
 20
26.9559
 30
0.0
 10
1.6179
 20
26.9559
 30
0.0
  0
SPLINE
  5
BA
330
1F
100
AcDbEntity
  8
Ebene 1
370
    35
100
AcDbSpline
210
0.0
220
0.0
230
1.0
 70
    24
 71
     3
 72
     8
 73
     4
 74
     0
 42
0.0000000001
 43
0.0000000001
 40
0.0
 40
0.0
 40
0.0
 40
0.0
 40
1.0
 40
1.0
 40
1.0
 40
1.0
 10
1.6179
 20
26.9559
 30
0.0
 10
1.6179
 20
26.9559
 30
0.0
 10
-2.2257
 20
24.1299
 30
0.0
 10
-2.2257
 20
24.1299
 30
0.0
  0
SPLINE
  5
BB
330
1F
100
AcDbEntity
  8
Ebene 1
370
    35
100
AcDbSpline
210
0.0
220
0.0
230
1.0
 70
    24
 71
     3
 72
     8
 73
     4
 74
     0
 42
0.0000000001
 43
0.0000000001
 40
0.0
 40
0.0
 40
0.0
 40
0.0
 40
1.0
 40
1.0
 40
1.0
 40
1.0
 10
-2.2257
 20
24.1299
 30
0.0
 10
-2.2257
 20
24.1299
 30
0.0
 10
-2.2257
 20
8.268800000000001
 30
0.0
 10
-2.2257
 20
8.268800000000001
 30
0.0
  0
SPLINE
  5
BC
330
1F
100
AcDbEntity
  8
Ebene 1
370
    35
100
AcDbSpline
210
0.0
220
0.0
230
1.0
 70
     8
 71
     3
 72
    40
 73
    36
 74
     0
 42
0.0000000001
 43
0.0000000001
 40
0.0
 40
0.0
 40
0.0
 40
0.0
 40
0.1111111111111111
 40
0.1111111111111111
 40
0.1111111111111111
 40
0.1111111111111111
 40
0.2222222222222222
 40
0.2222222222222222
 40
0.2222222222222222
 40
0.2222222222222222
 40
0.3333333333333333
 40
0.3333333333333333
 40
0.3333333333333333
 40
0.3333333333333333
 40
0.4444444444444444
 40
0.4444444444444444
 40
0.4444444444444444
 40
0.4444444444444444
 40
0.5555555555555556
 40
0.5555555555555556
 40
0.5555555555555556
 40
0.5555555555555556
 40
0.6666666666666667
 40
0.6666666666666667
 40
0.6666666666666667
 40
0.6666666666666667
 40
0.7777777777777779
 40
0.7777777777777779
 40
0.7777777777777779
 40
0.7777777777777779
 40
0.8888888888888891
 40
0.8888888888888891
 40
0.8888888888888891
 40
0.8888888888888891
 40
1.0
 40
1.0
 40
1.0
 40
1.0
 10
-4.1601
 20
6.334700000000001
 30
0.0
 10
-4.1601
 20
6.334700000000001
 30
0.0
 10
-3.8241
 20
6.364
 30
0.0
 10
-3.8241
 20
6.364
 30
0.0
 10
-3.8241
 20
6.364
 30
0.0
 10
-3.8241
 20
6.364
 30
0.0
 10
-3.4985
 20
6.4512
 30
0.0
 10
-3.4985
 20
6.4512
 30
0.0
 10
-3.4985
 20
6.4512
 30
0.0
 10
-3.4985
 20
6.4512
 30
0.0
 10
-3.1928
 20
6.5938
 30
0.0
 10
-3.1928
 20
6.5938
 30
0.0
 10
-3.1928
 20
6.5938
 30
0.0
 10
-3.1928
 20
6.5938
 30
0.0
 10
-2.9166
 20
6.7873
 30
0.0
 10
-2.9166
 20
6.7873
 30
0.0
 10
-2.9166
 20
6.7873
 30
0.0
 10
-2.9166
 20
6.7873
 30
0.0
 10
-2.6783
 20
7.025600000000001
 30
0.0
 10
-2.6783
 20
7.025600000000001
 30
0.0
 10
-2.6783
 20
7.025600000000001
 30
0.0
 10
-2.6783
 20
7.025600000000001
 30
0.0
 10
-2.4848
 20
7.3018
 30
0.0
 10
-2.4848
 20
7.3018
 30
0.0
 10
-2.4848
 20
7.3018
 30
0.0
 10
-2.4848
 20
7.3018
 30
0.0
 10
-2.3422
 20
7.6075
 30
0.0
 10
-2.3422
 20
7.6075
 30
0.0
 10
-2.3422
 20
7.6075
 30
0.0
 10
-2.3422
 20
7.6075
 30
0.0
 10
-2.2552
 20
7.933100000000001
 30
0.0
 10
-2.2552
 20
7.933100000000001
 30
0.0
 10
-2.2552
 20
7.933100000000001
 30
0.0
 10
-2.2552
 20
7.933100000000001
 30
0.0
 10
-2.2257
 20
8.268800000000001
 30
0.0
 10
-2.2257
 20
8.268800000000001
 30
0.0
  0
SPLINE
  5
BD
330
1F
100
AcDbEntity
  8
Ebene 1
370
    35
100
AcDbSpline
210
0.0
220
0.0
230
1.0
 70
    24
 71
     3
 72
     8
 73
     4
 74
     0
 42
0.0000000001
 43
0.0000000001
 40
0.0
 40
0.0
 40
0.0
 40
0.0
 40
1.0
 40
1.0
 40
1.0
 40
1.0
 10
-4.1601
 20
6.334700000000001
 30
0.0
 10
-4.1601
 20
6.334700000000001
 30
0.0
 10
-32.01320000000001
 20
6.334700000000001
 30
0.0
 10
-32.01320000000001
 20
6.334700000000001
 30
0.0
  0
SPLINE
  5
BE
330
1F
100
AcDbEntity
  8
Ebene 1
370
    35
100
AcDbSpline
210
0.0
220
0.0
230
1.0
 70
     8
 71
     3
 72
    40
 73
    36
 74
     0
 42
0.0000000001
 43
0.0000000001
 40
0.0
 40
0.0
 40
0.0
 40
0.0
 40
0.1111111111111111
 40
0.1111111111111111
 40
0.1111111111111111
 40
0.1111111111111111
 40
0.2222222222222222
 40
0.2222222222222222
 40
0.2222222222222222
 40
0.2222222222222222
 40
0.3333333333333333
 40
0.3333333333333333
 40
0.3333333333333333
 40
0.3333333333333333
 40
0.4444444444444444
 40
0.4444444444444444
 40
0.4444444444444444
 40
0.4444444444444444
 40
0.5555555555555556
 40
0.5555555555555556
 40
0.5555555555555556
 40
0.5555555555555556
 40
0.6666666666666667
 40
0.6666666666666667
 40
0.6666666666666667
 40
0.6666666666666667
 40
0.7777777777777779
 40
0.7777777777777779
 40
0.7777777777777779
 40
0.7777777777777779
 40
0.8888888888888891
 40
0.8888888888888891
 40
0.8888888888888891
 40
0.8888888888888891
 40
1.0
 40
1.0
 40
1.0
 40
1.0
 10
-33.9476
 20
8.268800000000001
 30
0.0
 10
-33.9476
 20
8.268800000000001
 30
0.0
 10
-33.9181
 20
7.933100000000001
 30
0.0
 10
-33.9181
 20
7.933100000000001
 30
0.0
 10
-33.9181
 20
7.933100000000001
 30
0.0
 10
-33.9181
 20
7.933100000000001
 30
0.0
 10
-33.8308
 20
7.6075
 30
0.0
 10
-33.8308
 20
7.6075
 30
0.0
 10
-33.8308
 20
7.6075
 30
0.0
 10
-33.8308
 20
7.6075
 30
0.0
 10
-33.6882
 20
7.3018
 30
0.0
 10
-33.6882
 20
7.3018
 30
0.0
 10
-33.6882
 20
7.3018
 30
0.0
 10
-33.6882
 20
7.3018
 30
0.0
 10
-33.4951
 20
7.025600000000001
 30
0.0
 10
-33.4951
 20
7.025600000000001
 30
0.0
 10
-33.4951
 20
7.025600000000001
 30
0.0
 10
-33.4951
 20
7.025600000000001
 30
0.0
 10
-33.2564
 20
6.7873
 30
0.0
 10
-33.2564
 20
6.7873
 30
0.0
 10
-33.2564
 20
6.7873
 30
0.0
 10
-33.2564
 20
6.7873
 30
0.0
 10
-32.9802
 20
6.5938
 30
0.0
 10
-32.9802
 20
6.5938
 30
0.0
 10
-32.9802
 20
6.5938
 30
0.0
 10
-32.9802
 20
6.5938
 30
0.0
 10
-32.6749
 20
6.4512
 30
0.0
 10
-32.6749
 20
6.4512
 30
0.0
 10
-32.6749
 20
6.4512
 30
0.0
 10
-32.6749
 20
6.4512
 30
0.0
 10
-32.349
 20
6.364
 30
0.0
 10
-32.349
 20
6.364
 30
0.0
 10
-32.349
 20
6.364
 30
0.0
 10
-32.349
 20
6.364
 30
0.0
 10
-32.01320000000001
 20
6.334700000000001
 30
0.0
 10
-32.01320000000001
 20
6.334700000000001
 30
0.0
  0
SPLINE
  5
BF
330
1F
100
AcDbEntity
  8
Ebene 1
370
    35
100
AcDbSpline
210
0.0
220
0.0
230
1.0
 70
    24
 71
     3
 72
     8
 73
     4
 74
     0
 42
0.0000000001
 43
0.0000000001
 40
0.0
 40
0.0
 40
0.0
 40
0.0
 40
1.0
 40
1.0
 40
1.0
 40
1.0
 10
-33.9476
 20
8.268800000000001
 30
0.0
 10
-33.9476
 20
8.268800000000001
 30
0.0
 10
-33.9476
 20
24.1299
 30
0.0
 10
-33.9476
 20
24.1299
 30
0.0
  0
SPLINE
  5
C0
330
1F
100
AcDbEntity
  8
Ebene 1
370
    35
100
AcDbSpline
210
0.0
220
0.0
230
1.0
 70
    24
 71
     3
 72
     8
 73
     4
 74
     0
 42
0.0000000001
 43
0.0000000001
 40
0.0
 40
0.0
 40
0.0
 40
0.0
 40
1.0
 40
1.0
 40
1.0
 40
1.0
 10
-37.7912
 20
26.9559
 30
0.0
 10
-37.7912
 20
26.9559
 30
0.0
 10
-33.9476
 20
24.1299
 30
0.0
 10
-33.9476
 20
24.1299
 30
0.0
  0
SPLINE
  5
C1
330
1F
100
AcDbEntity
  8
Ebene 1
370
    35
100
AcDbSpline
210
0.0
220
0.0
230
1.0
 70
     8
 71
     3
 72
    36
 73
    32
 74
     0
 42
0.0000000001
 43
0.0000000001
 40
0.0
 40
0.0
 40
0.0
 40
0.0
 40
0.125
 40
0.125
 40
0.125
 40
0.125
 40
0.25
 40
0.25
 40
0.25
 40
0.25
 40
0.375
 40
0.375
 40
0.375
 40
0.375
 40
0.5
 40
0.5
 40
0.5
 40
0.5
 40
0.625
 40
0.625
 40
0.625
 40
0.625
 40
0.75
 40
0.75
 40
0.75
 40
0.75
 40
0.875
 40
0.875
 40
0.875
 40
0.875
 40
1.0
 40
1.0
 40
1.0
 40
1.0
 10
-37.7912
 20
26.9559
 30
0.0
 10
-37.7912
 20
26.9559
 30
0.0
 10
-37.8166
 20
26.9731
 30
0.0
 10
-37.8166
 20
26.9731
 30
0.0
 10
-37.8166
 20
26.9731
 30
0.0
 10
-37.8166
 20
26.9731
 30
0.0
 10
-37.843
 20
26.9881
 30
0.0
 10
-37.843
 20
26.9881
 30
0.0
 10
-37.843
 20
26.9881
 30
0.0
 10
-37.843
 20
26.9881
 30
0.0
 10
-37.8709
 20
27.0013
 30
0.0
 10
-37.8709
 20
27.0013
 30
0.0
 10
-37.8709
 20
27.0013
 30
0.0
 10
-37.8709
 20
27.0013
 30
0.0
 10
-37.8995
 20
27.0119
 30
0.0
 10
-37.8995
 20
27.0119
 30
0.0
 10
-37.8995
 20
27.0119
 30
0.0
 10
-37.8995
 20
27.0119
 30
0.0
 10
-37.929
 20
27.0204
 30
0.0
 10
-37.929
 20
27.0204
 30
0.0
 10
-37.929
 20
27.0204
 30
0.0
 10
-37.929
 20
27.0204
 30
0.0
 10
-37.959
 20
27.0263
 30
0.0
 10
-37.959
 20
27.0263
 30
0.0
 10
-37.959
 20
27.0263
 30
0.0
 10
-37.959
 20
27.0263
 30
0.0
 10
-37.9896
 20
27.0299
 30
0.0
 10
-37.9896
 20
27.0299
 30
0.0
 10
-37.9896
 20
27.0299
 30
0.0
 10
-37.9896
 20
27.0299
 30
0.0
 10
-38.0202
 20
27.0313
 30
0.0
 10
-38.0202
 20
27.0313
 30
0.0
  0
SPLINE
  5
C2
330
1F
100
AcDbEntity
  8
Ebene 1
370
    35
100
AcDbSpline
210
0.0
220
0.0
230
1.0
 70
     8
 71
     3
 72
    16
 73
    12
 74
     0
 42
0.0000000001
 43
0.0000000001
 40
0.0
 40
0.0
 40
0.0
 40
0.0
 40
0.3333333333333333
 40
0.3333333333333333
 40
0.3333333333333333
 40
0.3333333333333333
 40
0.6666666666666666
 40
0.6666666666666666
 40
0.6666666666666666
 40
0.6666666666666666
 40
1.0
 40
1.0
 40
1.0
 40
1.0
 10
-33.5221
 20
24.7776
 30
0.0
 10
-33.5221
 20
24.7776
 30
0.0
 10
-33.432
 20
24.684
 30
0.0
 10
-33.432
 20
24.684
 30
0.0
 10
-33.432
 20
24.684
 30
0.0
 10
-33.432
 20
24.684
 30
0.0
 10
-33.3777
 20
24.5657
 30
0.0
 10
-33.3777
 20
24.5657
 30
0.0
 10
-33.3777
 20
24.5657
 30
0.0
 10
-33.3777
 20
24.5657
 30
0.0
 10
-33.3643
 20
24.4656
 30
0.0
 10
-33.3643
 20
24.4656
 30
0.0
  0
SPLINE
  5
C3
330
1F
100
AcDbEntity
  8
Ebene 1
370
    35
100
AcDbSpline
210
0.0
220
0.0
230
1.0
 70
    24
 71
     3
 72
     8
 73
     4
 74
     0
 42
0.0000000001
 43
0.0000000001
 40
0.0
 40
0.0
 40
0.0
 40
0.0
 40
1.0
 40
1.0
 40
1.0
 40
1.0
 10
-33.3643
 20
24.4656
 30
0.0
 10
-33.3643
 20
24.4656
 30
0.0
 10
-33.3643
 20
24.1299
 30
0.0
 10
-33.3643
 20
24.1299
 30
0.0
  0
SPLINE
  5
C4
330
1F
100
AcDbEntity
  8
Ebene 1
370
    35
100
AcDbSpline
210
0.0
220
0.0
230
1.0
 70
    24
 71
     3
 72
    36
 73
    32
 74
     0
 42
0.0000000001
 43
0.0000000001
 40
0.0
 40
0.0
 40
0.0
 40
0.0
 40
0.125
 40
0.125
 40
0.125
 40
0.125
 40
0.25
 40
0.25
 40
0.25
 40
0.25
 40
0.375
 40
0.375
 40
0.375
 40
0.375
 40
0.5
 40
0.5
 40
0.5
 40
0.5
 40
0.625
 40
0.625
 40
0.625
 40
0.625
 40
0.75
 40
0.75
 40
0.75
 40
0.75
 40
0.875
 40
0.875
 40
0.875
 40
0.875
 40
1.0
 40
1.0
 40
1.0
 40
1.0
 10
-31.657
 20
24.1299
 30
0.0
 10
-31.657
 20
24.1299
 30
0.0
 10
-32.0372
 20
24.1299
 30
0.0
 10
-32.0372
 20
24.1299
 30
0.0
 10
-32.0372
 20
24.1299
 30
0.0
 10
-32.0372
 20
24.1299
 30
0.0
 10
-32.3716
 20
24.1299
 30
0.0
 10
-32.3716
 20
24.1299
 30
0.0
 10
-32.3716
 20
24.1299
 30
0.0
 10
-32.3716
 20
24.1299
 30
0.0
 10
-32.659
 20
24.1299
 30
0.0
 10
-32.659
 20
24.1299
 30
0.0
 10
-32.659
 20
24.1299
 30
0.0
 10
-32.659
 20
24.1299
 30
0.0
 10
-32.8984
 20
24.1299
 30
0.0
 10
-32.8984
 20
24.1299
 30
0.0
 10
-32.8984
 20
24.1299
 30
0.0
 10
-32.8984
 20
24.1299
 30
0.0
 10
-33.08940000000001
 20
24.1299
 30
0.0
 10
-33.08940000000001
 20
24.1299
 30
0.0
 10
-33.08940000000001
 20
24.1299
 30
0.0
 10
-33.08940000000001
 20
24.1299
 30
0.0
 10
-33.2308
 20
24.1299
 30
0.0
 10
-33.2308
 20
24.1299
 30
0.0
 10
-33.2308
 20
24.1299
 30
0.0
 10
-33.2308
 20
24.1299
 30
0.0
 10
-33.3228
 20
24.1299
 30
0.0
 10
-33.3228
 20
24.1299
 30
0.0
 10
-33.3228
 20
24.1299
 30
0.0
 10
-33.3228
 20
24.1299
 30
0.0
 10
-33.3643
 20
24.1299
 30
0.0
 10
-33.3643
 20
24.1299
 30
0.0
  0
SPLINE
  5
C5
330
1F
100
AcDbEntity
  8
Ebene 1
370
    35
100
AcDbSpline
210
0.0
220
0.0
230
1.0
 70
     8
 71
     3
 72
    16
 73
    12
 74
     0
 42
0.0000000001
 43
0.0000000001
 40
0.0
 40
0.0
 40
0.0
 40
0.0
 40
0.3333333333333333
 40
0.3333333333333333
 40
0.3333333333333333
 40
0.3333333333333333
 40
0.6666666666666666
 40
0.6666666666666666
 40
0.6666666666666666
 40
0.6666666666666666
 40
1.0
 40
1.0
 40
1.0
 40
1.0
 10
-2.8087
 20
24.4656
 30
0.0
 10
-2.8087
 20
24.4656
 30
0.0
 10
-2.7869
 20
24.5936
 30
0.0
 10
-2.7869
 20
24.5936
 30
0.0
 10
-2.7869
 20
24.5936
 30
0.0
 10
-2.7869
 20
24.5936
 30
0.0
 10
-2.7238
 20
24.7074
 30
0.0
 10
-2.7238
 20
24.7074
 30
0.0
 10
-2.7238
 20
24.7074
 30
0.0
 10
-2.7238
 20
24.7074
 30
0.0
 10
-2.6509
 20
24.7776
 30
0.0
 10
-2.6509
 20
24.7776
 30
0.0
  0
SPLINE
  5
C6
330
1F
100
AcDbEntity
  8
Ebene 1
370
    35
100
AcDbSpline
210
0.0
220
0.0
230
1.0
 70
    24
 71
     3
 72
     8
 73
     4
 74
     0
 42
0.0000000001
 43
0.0000000001
 40
0.0
 40
0.0
 40
0.0
 40
0.0
 40
1.0
 40
1.0
 40
1.0
 40
1.0
 10
-2.6509
 20
24.7776
 30
0.0
 10
-2.6509
 20
24.7776
 30
0.0
 10
-2.6482
 20
24.7795
 30
0.0
 10
-2.6482
 20
24.7795
 30
0.0
  0
SPLINE
  5
C7
330
1F
100
AcDbEntity
  8
Ebene 1
370
    35
100
AcDbSpline
210
0.0
220
0.0
230
1.0
 70
    24
 71
     3
 72
    36
 73
    32
 74
     0
 42
0.0000000001
 43
0.0000000001
 40
0.0
 40
0.0
 40
0.0
 40
0.0
 40
0.125
 40
0.125
 40
0.125
 40
0.125
 40
0.25
 40
0.25
 40
0.25
 40
0.25
 40
0.375
 40
0.375
 40
0.375
 40
0.375
 40
0.5
 40
0.5
 40
0.5
 40
0.5
 40
0.625
 40
0.625
 40
0.625
 40
0.625
 40
0.75
 40
0.75
 40
0.75
 40
0.75
 40
0.875
 40
0.875
 40
0.875
 40
0.875
 40
1.0
 40
1.0
 40
1.0
 40
1.0
 10
-2.8087
 20
24.1299
 30
0.0
 10
-2.8087
 20
24.1299
 30
0.0
 10
-2.8505
 20
24.1299
 30
0.0
 10
-2.8505
 20
24.1299
 30
0.0
 10
-2.8505
 20
24.1299
 30
0.0
 10
-2.8505
 20
24.1299
 30
0.0
 10
-2.9422
 20
24.1299
 30
0.0
 10
-2.9422
 20
24.1299
 30
0.0
 10
-2.9422
 20
24.1299
 30
0.0
 10
-2.9422
 20
24.1299
 30
0.0
 10
-3.0838
 20
24.1299
 30
0.0
 10
-3.0838
 20
24.1299
 30
0.0
 10
-3.0838
 20
24.1299
 30
0.0
 10
-3.0838
 20
24.1299
 30
0.0
 10
-3.2746
 20
24.1299
 30
0.0
 10
-3.2746
 20
24.1299
 30
0.0
 10
-3.2746
 20
24.1299
 30
0.0
 10
-3.2746
 20
24.1299
 30
0.0
 10
-3.5142
 20
24.1299
 30
0.0
 10
-3.5142
 20
24.1299
 30
0.0
 10
-3.5142
 20
24.1299
 30
0.0
 10
-3.5142
 20
24.1299
 30
0.0
 10
-3.8017
 20
24.1299
 30
0.0
 10
-3.8017
 20
24.1299
 30
0.0
 10
-3.8017
 20
24.1299
 30
0.0
 10
-3.8017
 20
24.1299
 30
0.0
 10
-4.1361
 20
24.1299
 30
0.0
 10
-4.1361
 20
24.1299
 30
0.0
 10
-4.1361
 20
24.1299
 30
0.0
 10
-4.1361
 20
24.1299
 30
0.0
 10
-4.516
 20
24.1299
 30
0.0
 10
-4.516
 20
24.1299
 30
0.0
  0
SPLINE
  5
C8
330
1F
100
AcDbEntity
  8
Ebene 1
370
    35
100
AcDbSpline
210
0.0
220
0.0
230
1.0
 70
    24
 71
     3
 72
     8
 73
     4
 74
     0
 42
0.0000000001
 43
0.0000000001
 40
0.0
 40
0.0
 40
0.0
 40
0.0
 40
1.0
 40
1.0
 40
1.0
 40
1.0
 10
-2.8087
 20
24.4656
 30
0.0
 10
-2.8087
 20
24.4656
 30
0.0
 10
-2.8087
 20
24.1299
 30
0.0
 10
-2.8087
 20
24.1299
 30
0.0
  0
SPLINE
  5
C9
330
1F
100
AcDbEntity
  8
Ebene 1
370
    35
100
AcDbSpline
210
0.0
220
0.0
230
1.0
 70
    24
 71
     3
 72
     8
 73
     4
 74
     0
 42
0.0000000001
 43
0.0000000001
 40
0.0
 40
0.0
 40
0.0
 40
0.0
 40
1.0
 40
1.0
 40
1.0
 40
1.0
 10
-30.8344
 20
27.0174
 30
0.0
 10
-30.8344
 20
27.0174
 30
0.0
 10
-30.8344
 20
24.1299
 30
0.0
 10
-30.8344
 20
24.1299
 30
0.0
  0
SPLINE
  5
CA
330
1F
100
AcDbEntity
  8
Ebene 1
370
    35
100
AcDbSpline
210
0.0
220
0.0
230
1.0
 70
    24
 71
     3
 72
    44
 73
    40
 74
     0
 42
0.0000000001
 43
0.0000000001
 40
0.0
 40
0.0
 40
0.0
 40
0.0
 40
0.1
 40
0.1
 40
0.1
 40
0.1
 40
0.2
 40
0.2
 40
0.2
 40
0.2
 40
0.3
 40
0.3
 40
0.3
 40
0.3
 40
0.4
 40
0.4
 40
0.4
 40
0.4
 40
0.5
 40
0.5
 40
0.5
 40
0.5
 40
0.6
 40
0.6
 40
0.6
 40
0.6
 40
0.7
 40
0.7
 40
0.7
 40
0.7
 40
0.7999999999999999
 40
0.7999999999999999
 40
0.7999999999999999
 40
0.7999999999999999
 40
0.8999999999999999
 40
0.8999999999999999
 40
0.8999999999999999
 40
0.8999999999999999
 40
1.0
 40
1.0
 40
1.0
 40
1.0
 10
-36.5872
 20
27.0313
 30
0.0
 10
-36.5872
 20
27.0313
 30
0.0
 10
-36.4268
 20
27.0313
 30
0.0
 10
-36.4268
 20
27.0313
 30
0.0
 10
-36.4268
 20
27.0313
 30
0.0
 10
-36.4268
 20
27.0313
 30
0.0
 10
-35.9221
 20
27.0313
 30
0.0
 10
-35.9221
 20
27.0313
 30
0.0
 10
-35.9221
 20
27.0313
 30
0.0
 10
-35.9221
 20
27.0313
 30
0.0
 10
-35.3792
 20
27.0313
 30
0.0
 10
-35.3792
 20
27.0313
 30
0.0
 10
-35.3792
 20
27.0313
 30
0.0
 10
-35.3792
 20
27.0313
 30
0.0
 10
-34.8019
 20
27.0313
 30
0.0
 10
-34.8019
 20
27.0313
 30
0.0
 10
-34.8019
 20
27.0313
 30
0.0
 10
-34.8019
 20
27.0313
 30
0.0
 10
-34.194
 20
27.0313
 30
0.0
 10
-34.194
 20
27.0313
 30
0.0
 10
-34.194
 20
27.0313
 30
0.0
 10
-34.194
 20
27.0313
 30
0.0
 10
-33.5589
 20
27.0313
 30
0.0
 10
-33.5589
 20
27.0313
 30
0.0
 10
-33.5589
 20
27.0313
 30
0.0
 10
-33.5589
 20
27.0313
 30
0.0
 10
-32.9014
 20
27.0313
 30
0.0
 10
-32.9014
 20
27.0313
 30
0.0
 10
-32.9014
 20
27.0313
 30
0.0
 10
-32.9014
 20
27.0313
 30
0.0
 10
-32.225
 20
27.0313
 30
0.0
 10
-32.225
 20
27.0313
 30
0.0
 10
-32.225
 20
27.0313
 30
0.0
 10
-32.225
 20
27.0313
 30
0.0
 10
-31.5345
 20
27.0313
 30
0.0
 10
-31.5345
 20
27.0313
 30
0.0
 10
-31.5345
 20
27.0313
 30
0.0
 10
-31.5345
 20
27.0313
 30
0.0
 10
-30.8344
 20
27.0313
 30
0.0
 10
-30.8344
 20
27.0313
 30
0.0
  0
SPLINE
  5
CB
330
1F
100
AcDbEntity
  8
Ebene 1
370
    35
100
AcDbSpline
210
0.0
220
0.0
230
1.0
 70
    24
 71
     3
 72
     8
 73
     4
 74
     0
 42
0.0000000001
 43
0.0000000001
 40
0.0
 40
0.0
 40
0.0
 40
0.0
 40
1.0
 40
1.0
 40
1.0
 40
1.0
 10
-5.338900000000001
 20
27.0174
 30
0.0
 10
-5.338900000000001
 20
27.0174
 30
0.0
 10
-5.338900000000001
 20
24.1299
 30
0.0
 10
-5.338900000000001
 20
24.1299
 30
0.0
  0
SPLINE
  5
CC
330
1F
100
AcDbEntity
  8
Ebene 1
370
    35
100
AcDbSpline
210
0.0
220
0.0
230
1.0
 70
    24
 71
     3
 72
    44
 73
    40
 74
     0
 42
0.0000000001
 43
0.0000000001
 40
0.0
 40
0.0
 40
0.0
 40
0.0
 40
0.1
 40
0.1
 40
0.1
 40
0.1
 40
0.2
 40
0.2
 40
0.2
 40
0.2
 40
0.3
 40
0.3
 40
0.3
 40
0.3
 40
0.4
 40
0.4
 40
0.4
 40
0.4
 40
0.5
 40
0.5
 40
0.5
 40
0.5
 40
0.6
 40
0.6
 40
0.6
 40
0.6
 40
0.7
 40
0.7
 40
0.7
 40
0.7
 40
0.7999999999999999
 40
0.7999999999999999
 40
0.7999999999999999
 40
0.7999999999999999
 40
0.8999999999999999
 40
0.8999999999999999
 40
0.8999999999999999
 40
0.8999999999999999
 40
1.0
 40
1.0
 40
1.0
 40
1.0
 10
-5.338900000000001
 20
27.0313
 30
0.0
 10
-5.338900000000001
 20
27.0313
 30
0.0
 10
-4.6388
 20
27.0313
 30
0.0
 10
-4.6388
 20
27.0313
 30
0.0
 10
-4.6388
 20
27.0313
 30
0.0
 10
-4.6388
 20
27.0313
 30
0.0
 10
-3.9483
 20
27.0313
 30
0.0
 10
-3.9483
 20
27.0313
 30
0.0
 10
-3.9483
 20
27.0313
 30
0.0
 10
-3.9483
 20
27.0313
 30
0.0
 10
-3.2719
 20
27.0313
 30
0.0
 10
-3.2719
 20
27.0313
 30
0.0
 10
-3.2719
 20
27.0313
 30
0.0
 10
-3.2719
 20
27.0313
 30
0.0
 10
-2.6141
 20
27.0313
 30
0.0
 10
-2.6141
 20
27.0313
 30
0.0
 10
-2.6141
 20
27.0313
 30
0.0
 10
-2.6141
 20
27.0313
 30
0.0
 10
-1.9792
 20
27.0313
 30
0.0
 10
-1.9792
 20
27.0313
 30
0.0
 10
-1.9792
 20
27.0313
 30
0.0
 10
-1.9792
 20
27.0313
 30
0.0
 10
-1.3711
 20
27.0313
 30
0.0
 10
-1.3711
 20
27.0313
 30
0.0
 10
-1.3711
 20
27.0313
 30
0.0
 10
-1.3711
 20
27.0313
 30
0.0
 10
-0.7938000000000001
 20
27.0313
 30
0.0
 10
-0.7938000000000001
 20
27.0313
 30
0.0
 10
-0.7938000000000001
 20
27.0313
 30
0.0
 10
-0.7938000000000001
 20
27.0313
 30
0.0
 10
-0.2512
 20
27.0313
 30
0.0
 10
-0.2512
 20
27.0313
 30
0.0
 10
-0.2512
 20
27.0313
 30
0.0
 10
-0.2512
 20
27.0313
 30
0.0
 10
0.2534
 20
27.0313
 30
0.0
 10
0.2534
 20
27.0313
 30
0.0
 10
0.2534
 20
27.0313
 30
0.0
 10
0.2534
 20
27.0313
 30
0.0
 10
0.4142
 20
27.0313
 30
0.0
 10
0.4142
 20
27.0313
 30
0.0
  0
SPLINE
  5
CD
330
1F
100
AcDbEntity
  8
Ebene 1
370
    35
100
AcDbSpline
210
0.0
220
0.0
230
1.0
 70
    24
 71
     3
 72
    32
 73
    28
 74
     0
 42
0.0000000001
 43
0.0000000001
 40
0.0
 40
0.0
 40
0.0
 40
0.0
 40
0.1428571428571429
 40
0.1428571428571429
 40
0.1428571428571429
 40
0.1428571428571429
 40
0.2857142857142857
 40
0.2857142857142857
 40
0.2857142857142857
 40
0.2857142857142857
 40
0.4285714285714286
 40
0.4285714285714286
 40
0.4285714285714286
 40
0.4285714285714286
 40
0.5714285714285714
 40
0.5714285714285714
 40
0.5714285714285714
 40
0.5714285714285714
 40
0.7142857142857142
 40
0.7142857142857142
 40
0.7142857142857142
 40
0.7142857142857142
 40
0.857142857142857
 40
0.857142857142857
 40
0.857142857142857
 40
0.857142857142857
 40
1.0
 40
1.0
 40
1.0
 40
1.0
 10
-29.31
 20
24.1299
 30
0.0
 10
-29.31
 20
24.1299
 30
0.0
 10
-29.6244
 20
24.1299
 30
0.0
 10
-29.6244
 20
24.1299
 30
0.0
 10
-29.6244
 20
24.1299
 30
0.0
 10
-29.6244
 20
24.1299
 30
0.0
 10
-30.0474
 20
24.1299
 30
0.0
 10
-30.0474
 20
24.1299
 30
0.0
 10
-30.0474
 20
24.1299
 30
0.0
 10
-30.0474
 20
24.1299
 30
0.0
 10
-30.446
 20
24.1299
 30
0.0
 10
-30.446
 20
24.1299
 30
0.0
 10
-30.446
 20
24.1299
 30
0.0
 10
-30.446
 20
24.1299
 30
0.0
 10
-30.8128
 20
24.1299
 30
0.0
 10
-30.8128
 20
24.1299
 30
0.0
 10
-30.8128
 20
24.1299
 30
0.0
 10
-30.8128
 20
24.1299
 30
0.0
 10
-31.1406
 20
24.1299
 30
0.0
 10
-31.1406
 20
24.1299
 30
0.0
 10
-31.1406
 20
24.1299
 30
0.0
 10
-31.1406
 20
24.1299
 30
0.0
 10
-31.4239
 20
24.1299
 30
0.0
 10
-31.4239
 20
24.1299
 30
0.0
 10
-31.4239
 20
24.1299
 30
0.0
 10
-31.4239
 20
24.1299
 30
0.0
 10
-31.657
 20
24.1299
 30
0.0
 10
-31.657
 20
24.1299
 30
0.0
  0
SPLINE
  5
CE
330
1F
100
AcDbEntity
  8
Ebene 1
370
    35
100
AcDbSpline
210
0.0
220
0.0
230
1.0
 70
    24
 71
     3
 72
    32
 73
    28
 74
     0
 42
0.0000000001
 43
0.0000000001
 40
0.0
 40
0.0
 40
0.0
 40
0.0
 40
0.1428571428571429
 40
0.1428571428571429
 40
0.1428571428571429
 40
0.1428571428571429
 40
0.2857142857142857
 40
0.2857142857142857
 40
0.2857142857142857
 40
0.2857142857142857
 40
0.4285714285714286
 40
0.4285714285714286
 40
0.4285714285714286
 40
0.4285714285714286
 40
0.5714285714285714
 40
0.5714285714285714
 40
0.5714285714285714
 40
0.5714285714285714
 40
0.7142857142857142
 40
0.7142857142857142
 40
0.7142857142857142
 40
0.7142857142857142
 40
0.857142857142857
 40
0.857142857142857
 40
0.857142857142857
 40
0.857142857142857
 40
1.0
 40
1.0
 40
1.0
 40
1.0
 10
-4.516
 20
24.1299
 30
0.0
 10
-4.516
 20
24.1299
 30
0.0
 10
-4.749400000000001
 20
24.1299
 30
0.0
 10
-4.749400000000001
 20
24.1299
 30
0.0
 10
-4.749400000000001
 20
24.1299
 30
0.0
 10
-4.749400000000001
 20
24.1299
 30
0.0
 10
-5.0324
 20
24.1299
 30
0.0
 10
-5.0324
 20
24.1299
 30
0.0
 10
-5.0324
 20
24.1299
 30
0.0
 10
-5.0324
 20
24.1299
 30
0.0
 10
-5.3604
 20
24.1299
 30
0.0
 10
-5.3604
 20
24.1299
 30
0.0
 10
-5.3604
 20
24.1299
 30
0.0
 10
-5.3604
 20
24.1299
 30
0.0
 10
-5.727300000000001
 20
24.1299
 30
0.0
 10
-5.727300000000001
 20
24.1299
 30
0.0
 10
-5.727300000000001
 20
24.1299
 30
0.0
 10
-5.727300000000001
 20
24.1299
 30
0.0
 10
-6.1258
 20
24.1299
 30
0.0
 10
-6.1258
 20
24.1299
 30
0.0
 10
-6.1258
 20
24.1299
 30
0.0
 10
-6.1258
 20
24.1299
 30
0.0
 10
-6.548900000000001
 20
24.1299
 30
0.0
 10
-6.548900000000001
 20
24.1299
 30
0.0
 10
-6.548900000000001
 20
24.1299
 30
0.0
 10
-6.548900000000001
 20
24.1299
 30
0.0
 10
-6.8631
 20
24.1299
 30
0.0
 10
-6.8631
 20
24.1299
 30
0.0
  0
SPLINE
  5
CF
330
1F
100
AcDbEntity
  8
Ebene 1
370
    35
100
AcDbSpline
210
0.0
220
0.0
230
1.0
 70
    24
 71
     3
 72
     8
 73
     4
 74
     0
 42
0.0000000001
 43
0.0000000001
 40
0.0
 40
0.0
 40
0.0
 40
0.0
 40
1.0
 40
1.0
 40
1.0
 40
1.0
 10
-29.3053
 20
12.5242
 30
0.0
 10
-29.3053
 20
12.5242
 30
0.0
 10
-29.3053
 20
23.9363
 30
0.0
 10
-29.3053
 20
23.9363
 30
0.0
  0
SPLINE
  5
D0
330
1F
100
AcDbEntity
  8
Ebene 1
370
    35
100
AcDbSpline
210
0.0
220
0.0
230
1.0
 70
     8
 71
     3
 72
    36
 73
    32
 74
     0
 42
0.0000000001
 43
0.0000000001
 40
0.0
 40
0.0
 40
0.0
 40
0.0
 40
0.125
 40
0.125
 40
0.125
 40
0.125
 40
0.25
 40
0.25
 40
0.25
 40
0.25
 40
0.375
 40
0.375
 40
0.375
 40
0.375
 40
0.5
 40
0.5
 40
0.5
 40
0.5
 40
0.625
 40
0.625
 40
0.625
 40
0.625
 40
0.75
 40
0.75
 40
0.75
 40
0.75
 40
0.875
 40
0.875
 40
0.875
 40
0.875
 40
1.0
 40
1.0
 40
1.0
 40
1.0
 10
-28.725
 20
29.3524
 30
0.0
 10
-28.725
 20
29.3524
 30
0.0
 10
-28.7398
 20
29.5033
 30
0.0
 10
-28.7398
 20
29.5033
 30
0.0
 10
-28.7398
 20
29.5033
 30
0.0
 10
-28.7398
 20
29.5033
 30
0.0
 10
-28.7838
 20
29.6482
 30
0.0
 10
-28.7838
 20
29.6482
 30
0.0
 10
-28.7838
 20
29.6482
 30
0.0
 10
-28.7838
 20
29.6482
 30
0.0
 10
-28.8552
 20
29.782
 30
0.0
 10
-28.8552
 20
29.782
 30
0.0
 10
-28.8552
 20
29.782
 30
0.0
 10
-28.8552
 20
29.782
 30
0.0
 10
-28.9516
 20
29.8994
 30
0.0
 10
-28.9516
 20
29.8994
 30
0.0
 10
-28.9516
 20
29.8994
 30
0.0
 10
-28.9516
 20
29.8994
 30
0.0
 10
-29.0687
 20
29.9955
 30
0.0
 10
-29.0687
 20
29.9955
 30
0.0
 10
-29.0687
 20
29.9955
 30
0.0
 10
-29.0687
 20
29.9955
 30
0.0
 10
-29.2027
 20
30.067
 30
0.0
 10
-29.2027
 20
30.067
 30
0.0
 10
-29.2027
 20
30.067
 30
0.0
 10
-29.2027
 20
30.067
 30
0.0
 10
-29.3476
 20
30.1111
 30
0.0
 10
-29.3476
 20
30.1111
 30
0.0
 10
-29.3476
 20
30.1111
 30
0.0
 10
-29.3476
 20
30.1111
 30
0.0
 10
-29.4986
 20
30.1259
 30
0.0
 10
-29.4986
 20
30.1259
 30
0.0
  0
SPLINE
  5
D1
330
1F
100
AcDbEntity
  8
Ebene 1
370
    35
100
AcDbSpline
210
0.0
220
0.0
230
1.0
 70
    24
 71
     3
 72
     8
 73
     4
 74
     0
 42
0.0000000001
 43
0.0000000001
 40
0.0
 40
0.0
 40
0.0
 40
0.0
 40
1.0
 40
1.0
 40
1.0
 40
1.0
 10
-28.725
 20
12.5242
 30
0.0
 10
-28.725
 20
12.5242
 30
0.0
 10
-28.725
 20
29.3524
 30
0.0
 10
-28.725
 20
29.3524
 30
0.0
  0
SPLINE
  5
D2
330
1F
100
AcDbEntity
  8
Ebene 1
370
    35
100
AcDbSpline
210
0.0
220
0.0
230
1.0
 70
     8
 71
     3
 72
    56
 73
    52
 74
     0
 42
0.0000000001
 43
0.0000000001
 40
0.0
 40
0.0
 40
0.0
 40
0.0
 40
0.0769230769230769
 40
0.0769230769230769
 40
0.0769230769230769
 40
0.0769230769230769
 40
0.1538461538461539
 40
0.1538461538461539
 40
0.1538461538461539
 40
0.1538461538461539
 40
0.2307692307692308
 40
0.2307692307692308
 40
0.2307692307692308
 40
0.2307692307692308
 40
0.3076923076923077
 40
0.3076923076923077
 40
0.3076923076923077
 40
0.3076923076923077
 40
0.3846153846153846
 40
0.3846153846153846
 40
0.3846153846153846
 40
0.3846153846153846
 40
0.4615384615384616
 40
0.4615384615384616
 40
0.4615384615384616
 40
0.4615384615384616
 40
0.5384615384615386
 40
0.5384615384615386
 40
0.5384615384615386
 40
0.5384615384615386
 40
0.6153846153846154
 40
0.6153846153846154
 40
0.6153846153846154
 40
0.6153846153846154
 40
0.6923076923076923
 40
0.6923076923076923
 40
0.6923076923076923
 40
0.6923076923076923
 40
0.7692307692307692
 40
0.7692307692307692
 40
0.7692307692307692
 40
0.7692307692307692
 40
0.846153846153846
 40
0.846153846153846
 40
0.846153846153846
 40
0.846153846153846
 40
0.9230769230769229
 40
0.9230769230769229
 40
0.9230769230769229
 40
0.9230769230769229
 40
1.0
 40
1.0
 40
1.0
 40
1.0
 10
-29.3053
 20
23.9363
 30
0.0
 10
-29.3053
 20
23.9363
 30
0.0
 10
-29.3335
 20
24.4026
 30
0.0
 10
-29.3335
 20
24.4026
 30
0.0
 10
-29.3335
 20
24.4026
 30
0.0
 10
-29.3335
 20
24.4026
 30
0.0
 10
-29.4178
 20
24.8622
 30
0.0
 10
-29.4178
 20
24.8622
 30
0.0
 10
-29.4178
 20
24.8622
 30
0.0
 10
-29.4178
 20
24.8622
 30
0.0
 10
-29.5567
 20
25.3082
 30
0.0
 10
-29.5567
 20
25.3082
 30
0.0
 10
-29.5567
 20
25.3082
 30
0.0
 10
-29.5567
 20
25.3082
 30
0.0
 10
-29.7483
 20
25.7342
 30
0.0
 10
-29.7483
 20
25.7342
 30
0.0
 10
-29.7483
 20
25.7342
 30
0.0
 10
-29.7483
 20
25.7342
 30
0.0
 10
-29.9901
 20
26.1339
 30
0.0
 10
-29.9901
 20
26.1339
 30
0.0
 10
-29.9901
 20
26.1339
 30
0.0
 10
-29.9901
 20
26.1339
 30
0.0
 10
-30.2781
 20
26.5018
 30
0.0
 10
-30.2781
 20
26.5018
 30
0.0
 10
-30.2781
 20
26.5018
 30
0.0
 10
-30.2781
 20
26.5018
 30
0.0
 10
-30.6084
 20
26.8321
 30
0.0
 10
-30.6084
 20
26.8321
 30
0.0
 10
-30.6084
 20
26.8321
 30
0.0
 10
-30.6084
 20
26.8321
 30
0.0
 10
-30.9763
 20
27.1199
 30
0.0
 10
-30.9763
 20
27.1199
 30
0.0
 10
-30.9763
 20
27.1199
 30
0.0
 10
-30.9763
 20
27.1199
 30
0.0
 10
-31.3759
 20
27.3618
 30
0.0
 10
-31.3759
 20
27.3618
 30
0.0
 10
-31.3759
 20
27.3618
 30
0.0
 10
-31.3759
 20
27.3618
 30
0.0
 10
-31.802
 20
27.5535
 30
0.0
 10
-31.802
 20
27.5535
 30
0.0
 10
-31.802
 20
27.5535
 30
0.0
 10
-31.802
 20
27.5535
 30
0.0
 10
-32.2479
 20
27.6923
 30
0.0
 10
-32.2479
 20
27.6923
 30
0.0
 10
-32.2479
 20
27.6923
 30
0.0
 10
-32.2479
 20
27.6923
 30
0.0
 10
-32.7073
 20
27.7767
 30
0.0
 10
-32.7073
 20
27.7767
 30
0.0
 10
-32.7073
 20
27.7767
 30
0.0
 10
-32.7073
 20
27.7767
 30
0.0
 10
-33.1737
 20
27.8048
 30
0.0
 10
-33.1737
 20
27.8048
 30
0.0
  0
SPLINE
  5
D3
330
1F
100
AcDbEntity
  8
Ebene 1
370
    35
100
AcDbSpline
210
0.0
220
0.0
230
1.0
 70
    24
 71
     3
 72
     8
 73
     4
 74
     0
 42
0.0000000001
 43
0.0000000001
 40
0.0
 40
0.0
 40
0.0
 40
0.0
 40
1.0
 40
1.0
 40
1.0
 40
1.0
 10
-39.1698
 20
27.8048
 30
0.0
 10
-39.1698
 20
27.8048
 30
0.0
 10
-33.1737
 20
27.8048
 30
0.0
 10
-33.1737
 20
27.8048
 30
0.0
  0
SPLINE
  5
D4
330
1F
100
AcDbEntity
  8
Ebene 1
370
    35
100
AcDbSpline
210
0.0
220
0.0
230
1.0
 70
    24
 71
     3
 72
     8
 73
     4
 74
     0
 42
0.0000000001
 43
0.0000000001
 40
0.0
 40
0.0
 40
0.0
 40
0.0
 40
1.0
 40
1.0
 40
1.0
 40
1.0
 10
-39.1698
 20
27.8048
 30
0.0
 10
-39.1698
 20
27.8048
 30
0.0
 10
-39.1698
 20
28.1918
 30
0.0
 10
-39.1698
 20
28.1918
 30
0.0
  0
SPLINE
  5
D5
330
1F
100
AcDbEntity
  8
Ebene 1
370
    35
100
AcDbSpline
210
0.0
220
0.0
230
1.0
 70
    24
 71
     3
 72
     8
 73
     4
 74
     0
 42
0.0000000001
 43
0.0000000001
 40
0.0
 40
0.0
 40
0.0
 40
0.0
 40
1.0
 40
1.0
 40
1.0
 40
1.0
 10
-39.1698
 20
28.1918
 30
0.0
 10
-39.1698
 20
28.1918
 30
0.0
 10
-38.3963
 20
28.1918
 30
0.0
 10
-38.3963
 20
28.1918
 30
0.0
  0
SPLINE
  5
D6
330
1F
100
AcDbEntity
  8
Ebene 1
370
    35
100
AcDbSpline
210
0.0
220
0.0
230
1.0
 70
    24
 71
     3
 72
     8
 73
     4
 74
     0
 42
0.0000000001
 43
0.0000000001
 40
0.0
 40
0.0
 40
0.0
 40
0.0
 40
1.0
 40
1.0
 40
1.0
 40
1.0
 10
-38.3963
 20
28.1918
 30
0.0
 10
-38.3963
 20
28.1918
 30
0.0
 10
-38.3963
 20
29.5457
 30
0.0
 10
-38.3963
 20
29.5457
 30
0.0
  0
SPLINE
  5
D7
330
1F
100
AcDbEntity
  8
Ebene 1
370
    35
100
AcDbSpline
210
0.0
220
0.0
230
1.0
 70
    24
 71
     3
 72
     8
 73
     4
 74
     0
 42
0.0000000001
 43
0.0000000001
 40
0.0
 40
0.0
 40
0.0
 40
0.0
 40
1.0
 40
1.0
 40
1.0
 40
1.0
 10
-39.1698
 20
29.5457
 30
0.0
 10
-39.1698
 20
29.5457
 30
0.0
 10
-38.3963
 20
29.5457
 30
0.0
 10
-38.3963
 20
29.5457
 30
0.0
  0
SPLINE
  5
D8
330
1F
100
AcDbEntity
  8
Ebene 1
370
    35
100
AcDbSpline
210
0.0
220
0.0
230
1.0
 70
    24
 71
     3
 72
     8
 73
     4
 74
     0
 42
0.0000000001
 43
0.0000000001
 40
0.0
 40
0.0
 40
0.0
 40
0.0
 40
1.0
 40
1.0
 40
1.0
 40
1.0
 10
-39.1698
 20
30.1259
 30
0.0
 10
-39.1698
 20
30.1259
 30
0.0
 10
-39.1698
 20
29.5457
 30
0.0
 10
-39.1698
 20
29.5457
 30
0.0
  0
SPLINE
  5
D9
330
1F
100
AcDbEntity
  8
Ebene 1
370
    35
100
AcDbSpline
210
0.0
220
0.0
230
1.0
 70
    24
 71
     3
 72
     8
 73
     4
 74
     0
 42
0.0000000001
 43
0.0000000001
 40
0.0
 40
0.0
 40
0.0
 40
0.0
 40
1.0
 40
1.0
 40
1.0
 40
1.0
 10
-39.1698
 20
30.1259
 30
0.0
 10
-39.1698
 20
30.1259
 30
0.0
 10
-29.4986
 20
30.1259
 30
0.0
 10
-29.4986
 20
30.1259
 30
0.0
  0
SPLINE
  5
DA
330
1F
100
AcDbEntity
  8
Ebene 1
370
    35
100
AcDbSpline
210
0.0
220
0.0
230
1.0
 70
    24
 71
     3
 72
     8
 73
     4
 74
     0
 42
0.0000000001
 43
0.0000000001
 40
0.0
 40
0.0
 40
0.0
 40
0.0
 40
1.0
 40
1.0
 40
1.0
 40
1.0
 10
-29.3053
 20
12.5242
 30
0.0
 10
-29.3053
 20
12.5242
 30
0.0
 10
-28.725
 20
12.5242
 30
0.0
 10
-28.725
 20
12.5242
 30
0.0
  0
SPLINE
  5
DB
330
1F
100
AcDbEntity
  8
Ebene 1
370
    35
100
AcDbSpline
210
0.0
220
0.0
230
1.0
 70
    24
 71
     3
 72
    68
 73
    64
 74
     0
 42
0.0000000001
 43
0.0000000001
 40
0.0
 40
0.0
 40
0.0
 40
0.0
 40
0.0625
 40
0.0625
 40
0.0625
 40
0.0625
 40
0.125
 40
0.125
 40
0.125
 40
0.125
 40
0.1875
 40
0.1875
 40
0.1875
 40
0.1875
 40
0.25
 40
0.25
 40
0.25
 40
0.25
 40
0.3125
 40
0.3125
 40
0.3125
 40
0.3125
 40
0.375
 40
0.375
 40
0.375
 40
0.375
 40
0.4375
 40
0.4375
 40
0.4375
 40
0.4375
 40
0.5
 40
0.5
 40
0.5
 40
0.5
 40
0.5625
 40
0.5625
 40
0.5625
 40
0.5625
 40
0.625
 40
0.625
 40
0.625
 40
0.625
 40
0.6875
 40
0.6875
 40
0.6875
 40
0.6875
 40
0.75
 40
0.75
 40
0.75
 40
0.75
 40
0.8125
 40
0.8125
 40
0.8125
 40
0.8125
 40
0.875
 40
0.875
 40
0.875
 40
0.875
 40
0.9375
 40
0.9375
 40
0.9375
 40
0.9375
 40
1.0
 40
1.0
 40
1.0
 40
1.0
 10
-28.725
 20
12.5242
 30
0.0
 10
-28.725
 20
12.5242
 30
0.0
 10
-28.695
 20
12.5242
 30
0.0
 10
-28.695
 20
12.5242
 30
0.0
 10
-28.695
 20
12.5242
 30
0.0
 10
-28.695
 20
12.5242
 30
0.0
 10
-28.606
 20
12.5242
 30
0.0
 10
-28.606
 20
12.5242
 30
0.0
 10
-28.606
 20
12.5242
 30
0.0
 10
-28.606
 20
12.5242
 30
0.0
 10
-28.4584
 20
12.5242
 30
0.0
 10
-28.4584
 20
12.5242
 30
0.0
 10
-28.4584
 20
12.5242
 30
0.0
 10
-28.4584
 20
12.5242
 30
0.0
 10
-28.2537
 20
12.5242
 30
0.0
 10
-28.2537
 20
12.5242
 30
0.0
 10
-28.2537
 20
12.5242
 30
0.0
 10
-28.2537
 20
12.5242
 30
0.0
 10
-27.9941
 20
12.5242
 30
0.0
 10
-27.9941
 20
12.5242
 30
0.0
 10
-27.9941
 20
12.5242
 30
0.0
 10
-27.9941
 20
12.5242
 30
0.0
 10
-27.6819
 20
12.5242
 30
0.0
 10
-27.6819
 20
12.5242
 30
0.0
 10
-27.6819
 20
12.5242
 30
0.0
 10
-27.6819
 20
12.5242
 30
0.0
 10
-27.3199
 20
12.5242
 30
0.0
 10
-27.3199
 20
12.5242
 30
0.0
 10
-27.3199
 20
12.5242
 30
0.0
 10
-27.3199
 20
12.5242
 30
0.0
 10
-26.9122
 20
12.5242
 30
0.0
 10
-26.9122
 20
12.5242
 30
0.0
 10
-26.9122
 20
12.5242
 30
0.0
 10
-26.9122
 20
12.5242
 30
0.0
 10
-26.462
 20
12.5242
 30
0.0
 10
-26.462
 20
12.5242
 30
0.0
 10
-26.462
 20
12.5242
 30
0.0
 10
-26.462
 20
12.5242
 30
0.0
 10
-25.9741
 20
12.5242
 30
0.0
 10
-25.9741
 20
12.5242
 30
0.0
 10
-25.9741
 20
12.5242
 30
0.0
 10
-25.9741
 20
12.5242
 30
0.0
 10
-25.453
 20
12.5242
 30
0.0
 10
-25.453
 20
12.5242
 30
0.0
 10
-25.453
 20
12.5242
 30
0.0
 10
-25.453
 20
12.5242
 30
0.0
 10
-24.9041
 20
12.5242
 30
0.0
 10
-24.9041
 20
12.5242
 30
0.0
 10
-24.9041
 20
12.5242
 30
0.0
 10
-24.9041
 20
12.5242
 30
0.0
 10
-24.332
 20
12.5242
 30
0.0
 10
-24.332
 20
12.5242
 30
0.0
 10
-24.332
 20
12.5242
 30
0.0
 10
-24.332
 20
12.5242
 30
0.0
 10
-23.743
 20
12.5242
 30
0.0
 10
-23.743
 20
12.5242
 30
0.0
 10
-23.743
 20
12.5242
 30
0.0
 10
-23.743
 20
12.5242
 30
0.0
 10
-23.142
 20
12.5242
 30
0.0
 10
-23.142
 20
12.5242
 30
0.0
 10
-23.142
 20
12.5242
 30
0.0
 10
-23.142
 20
12.5242
 30
0.0
 10
-22.5355
 20
12.5242
 30
0.0
 10
-22.5355
 20
12.5242
 30
0.0
  0
SPLINE
  5
DC
330
1F
100
AcDbEntity
  8
Ebene 1
370
    35
100
AcDbSpline
210
0.0
220
0.0
230
1.0
 70
    24
 71
     3
 72
    72
 73
    68
 74
     0
 42
0.0000000001
 43
0.0000000001
 40
0.0
 40
0.0
 40
0.0
 40
0.0
 40
0.0588235294117647
 40
0.0588235294117647
 40
0.0588235294117647
 40
0.0588235294117647
 40
0.1176470588235294
 40
0.1176470588235294
 40
0.1176470588235294
 40
0.1176470588235294
 40
0.1764705882352941
 40
0.1764705882352941
 40
0.1764705882352941
 40
0.1764705882352941
 40
0.2352941176470588
 40
0.2352941176470588
 40
0.2352941176470588
 40
0.2352941176470588
 40
0.2941176470588235
 40
0.2941176470588235
 40
0.2941176470588235
 40
0.2941176470588235
 40
0.3529411764705883
 40
0.3529411764705883
 40
0.3529411764705883
 40
0.3529411764705883
 40
0.411764705882353
 40
0.411764705882353
 40
0.411764705882353
 40
0.411764705882353
 40
0.4705882352941177
 40
0.4705882352941177
 40
0.4705882352941177
 40
0.4705882352941177
 40
0.5294117647058824
 40
0.5294117647058824
 40
0.5294117647058824
 40
0.5294117647058824
 40
0.5882352941176471
 40
0.5882352941176471
 40
0.5882352941176471
 40
0.5882352941176471
 40
0.6470588235294118
 40
0.6470588235294118
 40
0.6470588235294118
 40
0.6470588235294118
 40
0.7058823529411765
 40
0.7058823529411765
 40
0.7058823529411765
 40
0.7058823529411765
 40
0.7647058823529412
 40
0.7647058823529412
 40
0.7647058823529412
 40
0.7647058823529412
 40
0.823529411764706
 40
0.823529411764706
 40
0.823529411764706
 40
0.823529411764706
 40
0.8823529411764707
 40
0.8823529411764707
 40
0.8823529411764707
 40
0.8823529411764707
 40
0.9411764705882354
 40
0.9411764705882354
 40
0.9411764705882354
 40
0.9411764705882354
 40
1.0
 40
1.0
 40
1.0
 40
1.0
 10
-29.4986
 20
30.1259
 30
0.0
 10
-29.4986
 20
30.1259
 30
0.0
 10
-29.4688
 20
30.1259
 30
0.0
 10
-29.4688
 20
30.1259
 30
0.0
 10
-29.4688
 20
30.1259
 30
0.0
 10
-29.4688
 20
30.1259
 30
0.0
 10
-29.3801
 20
30.1259
 30
0.0
 10
-29.3801
 20
30.1259
 30
0.0
 10
-29.3801
 20
30.1259
 30
0.0
 10
-29.3801
 20
30.1259
 30
0.0
 10
-29.2327
 20
30.1259
 30
0.0
 10
-29.2327
 20
30.1259
 30
0.0
 10
-29.2327
 20
30.1259
 30
0.0
 10
-29.2327
 20
30.1259
 30
0.0
 10
-29.0286
 20
30.1259
 30
0.0
 10
-29.0286
 20
30.1259
 30
0.0
 10
-29.0286
 20
30.1259
 30
0.0
 10
-29.0286
 20
30.1259
 30
0.0
 10
-28.7687
 20
30.1259
 30
0.0
 10
-28.7687
 20
30.1259
 30
0.0
 10
-28.7687
 20
30.1259
 30
0.0
 10
-28.7687
 20
30.1259
 30
0.0
 10
-28.4556
 20
30.1259
 30
0.0
 10
-28.4556
 20
30.1259
 30
0.0
 10
-28.4556
 20
30.1259
 30
0.0
 10
-28.4556
 20
30.1259
 30
0.0
 10
-28.0921
 20
30.1259
 30
0.0
 10
-28.0921
 20
30.1259
 30
0.0
 10
-28.0921
 20
30.1259
 30
0.0
 10
-28.0921
 20
30.1259
 30
0.0
 10
-27.6813
 20
30.1259
 30
0.0
 10
-27.6813
 20
30.1259
 30
0.0
 10
-27.6813
 20
30.1259
 30
0.0
 10
-27.6813
 20
30.1259
 30
0.0
 10
-27.2266
 20
30.1259
 30
0.0
 10
-27.2266
 20
30.1259
 30
0.0
 10
-27.2266
 20
30.1259
 30
0.0
 10
-27.2266
 20
30.1259
 30
0.0
 10
-26.7318
 20
30.1259
 30
0.0
 10
-26.7318
 20
30.1259
 30
0.0
 10
-26.7318
 20
30.1259
 30
0.0
 10
-26.7318
 20
30.1259
 30
0.0
 10
-26.2011
 20
30.1259
 30
0.0
 10
-26.2011
 20
30.1259
 30
0.0
 10
-26.2011
 20
30.1259
 30
0.0
 10
-26.2011
 20
30.1259
 30
0.0
 10
-25.6391
 20
30.1259
 30
0.0
 10
-25.6391
 20
30.1259
 30
0.0
 10
-25.6391
 20
30.1259
 30
0.0
 10
-25.6391
 20
30.1259
 30
0.0
 10
-25.0507
 20
30.1259
 30
0.0
 10
-25.0507
 20
30.1259
 30
0.0
 10
-25.0507
 20
30.1259
 30
0.0
 10
-25.0507
 20
30.1259
 30
0.0
 10
-24.4409
 20
30.1259
 30
0.0
 10
-24.4409
 20
30.1259
 30
0.0
 10
-24.4409
 20
30.1259
 30
0.0
 10
-24.4409
 20
30.1259
 30
0.0
 10
-23.8147
 20
30.1259
 30
0.0
 10
-23.8147
 20
30.1259
 30
0.0
 10
-23.8147
 20
30.1259
 30
0.0
 10
-23.8147
 20
30.1259
 30
0.0
 10
-23.1778
 20
30.1259
 30
0.0
 10
-23.1778
 20
30.1259
 30
0.0
 10
-23.1778
 20
30.1259
 30
0.0
 10
-23.1778
 20
30.1259
 30
0.0
 10
-22.5355
 20
30.1259
 30
0.0
 10
-22.5355
 20
30.1259
 30
0.0
  0
SPLINE
  5
DD
330
1F
100
AcDbEntity
  8
Ebene 1
370
    35
100
AcDbSpline
210
0.0
220
0.0
230
1.0
 70
    24
 71
     3
 72
     8
 73
     4
 74
     0
 42
0.0000000001
 43
0.0000000001
 40
0.0
 40
0.0
 40
0.0
 40
0.0
 40
1.0
 40
1.0
 40
1.0
 40
1.0
 10
-7.4482
 20
29.3524
 30
0.0
 10
-7.4482
 20
29.3524
 30
0.0
 10
-7.4482
 20
12.5242
 30
0.0
 10
-7.4482
 20
12.5242
 30
0.0
  0
SPLINE
  5
DE
330
1F
100
AcDbEntity
  8
Ebene 1
370
    35
100
AcDbSpline
210
0.0
220
0.0
230
1.0
 70
    24
 71
     3
 72
    68
 73
    64
 74
     0
 42
0.0000000001
 43
0.0000000001
 40
0.0
 40
0.0
 40
0.0
 40
0.0
 40
0.0625
 40
0.0625
 40
0.0625
 40
0.0625
 40
0.125
 40
0.125
 40
0.125
 40
0.125
 40
0.1875
 40
0.1875
 40
0.1875
 40
0.1875
 40
0.25
 40
0.25
 40
0.25
 40
0.25
 40
0.3125
 40
0.3125
 40
0.3125
 40
0.3125
 40
0.375
 40
0.375
 40
0.375
 40
0.375
 40
0.4375
 40
0.4375
 40
0.4375
 40
0.4375
 40
0.5
 40
0.5
 40
0.5
 40
0.5
 40
0.5625
 40
0.5625
 40
0.5625
 40
0.5625
 40
0.625
 40
0.625
 40
0.625
 40
0.625
 40
0.6875
 40
0.6875
 40
0.6875
 40
0.6875
 40
0.75
 40
0.75
 40
0.75
 40
0.75
 40
0.8125
 40
0.8125
 40
0.8125
 40
0.8125
 40
0.875
 40
0.875
 40
0.875
 40
0.875
 40
0.9375
 40
0.9375
 40
0.9375
 40
0.9375
 40
1.0
 40
1.0
 40
1.0
 40
1.0
 10
-13.6378
 20
12.5242
 30
0.0
 10
-13.6378
 20
12.5242
 30
0.0
 10
-13.0311
 20
12.5242
 30
0.0
 10
-13.0311
 20
12.5242
 30
0.0
 10
-13.0311
 20
12.5242
 30
0.0
 10
-13.0311
 20
12.5242
 30
0.0
 10
-12.4303
 20
12.5242
 30
0.0
 10
-12.4303
 20
12.5242
 30
0.0
 10
-12.4303
 20
12.5242
 30
0.0
 10
-12.4303
 20
12.5242
 30
0.0
 10
-11.841
 20
12.5242
 30
0.0
 10
-11.841
 20
12.5242
 30
0.0
 10
-11.841
 20
12.5242
 30
0.0
 10
-11.841
 20
12.5242
 30
0.0
 10
-11.2692
 20
12.5242
 30
0.0
 10
-11.2692
 20
12.5242
 30
0.0
 10
-11.2692
 20
12.5242
 30
0.0
 10
-11.2692
 20
12.5242
 30
0.0
 10
-10.72
 20
12.5242
 30
0.0
 10
-10.72
 20
12.5242
 30
0.0
 10
-10.72
 20
12.5242
 30
0.0
 10
-10.72
 20
12.5242
 30
0.0
 10
-10.1989
 20
12.5242
 30
0.0
 10
-10.1989
 20
12.5242
 30
0.0
 10
-10.1989
 20
12.5242
 30
0.0
 10
-10.1989
 20
12.5242
 30
0.0
 10
-9.7112
 20
12.5242
 30
0.0
 10
-9.7112
 20
12.5242
 30
0.0
 10
-9.7112
 20
12.5242
 30
0.0
 10
-9.7112
 20
12.5242
 30
0.0
 10
-9.261100000000001
 20
12.5242
 30
0.0
 10
-9.261100000000001
 20
12.5242
 30
0.0
 10
-9.261100000000001
 20
12.5242
 30
0.0
 10
-9.261100000000001
 20
12.5242
 30
0.0
 10
-8.853100000000001
 20
12.5242
 30
0.0
 10
-8.853100000000001
 20
12.5242
 30
0.0
 10
-8.853100000000001
 20
12.5242
 30
0.0
 10
-8.853100000000001
 20
12.5242
 30
0.0
 10
-8.4915
 20
12.5242
 30
0.0
 10
-8.4915
 20
12.5242
 30
0.0
 10
-8.4915
 20
12.5242
 30
0.0
 10
-8.4915
 20
12.5242
 30
0.0
 10
-8.1792
 20
12.5242
 30
0.0
 10
-8.1792
 20
12.5242
 30
0.0
 10
-8.1792
 20
12.5242
 30
0.0
 10
-8.1792
 20
12.5242
 30
0.0
 10
-7.919300000000001
 20
12.5242
 30
0.0
 10
-7.919300000000001
 20
12.5242
 30
0.0
 10
-7.919300000000001
 20
12.5242
 30
0.0
 10
-7.919300000000001
 20
12.5242
 30
0.0
 10
-7.714600000000001
 20
12.5242
 30
0.0
 10
-7.714600000000001
 20
12.5242
 30
0.0
 10
-7.714600000000001
 20
12.5242
 30
0.0
 10
-7.714600000000001
 20
12.5242
 30
0.0
 10
-7.567200000000001
 20
12.5242
 30
0.0
 10
-7.567200000000001
 20
12.5242
 30
0.0
 10
-7.567200000000001
 20
12.5242
 30
0.0
 10
-7.567200000000001
 20
12.5242
 30
0.0
 10
-7.478000000000001
 20
12.5242
 30
0.0
 10
-7.478000000000001
 20
12.5242
 30
0.0
 10
-7.478000000000001
 20
12.5242
 30
0.0
 10
-7.478000000000001
 20
12.5242
 30
0.0
 10
-7.4482
 20
12.5242
 30
0.0
 10
-7.4482
 20
12.5242
 30
0.0
  0
SPLINE
  5
DF
330
1F
100
AcDbEntity
  8
Ebene 1
370
    35
100
AcDbSpline
210
0.0
220
0.0
230
1.0
 70
    24
 71
     3
 72
    72
 73
    68
 74
     0
 42
0.0000000001
 43
0.0000000001
 40
0.0
 40
0.0
 40
0.0
 40
0.0
 40
0.0588235294117647
 40
0.0588235294117647
 40
0.0588235294117647
 40
0.0588235294117647
 40
0.1176470588235294
 40
0.1176470588235294
 40
0.1176470588235294
 40
0.1176470588235294
 40
0.1764705882352941
 40
0.1764705882352941
 40
0.1764705882352941
 40
0.1764705882352941
 40
0.2352941176470588
 40
0.2352941176470588
 40
0.2352941176470588
 40
0.2352941176470588
 40
0.2941176470588235
 40
0.2941176470588235
 40
0.2941176470588235
 40
0.2941176470588235
 40
0.3529411764705883
 40
0.3529411764705883
 40
0.3529411764705883
 40
0.3529411764705883
 40
0.411764705882353
 40
0.411764705882353
 40
0.411764705882353
 40
0.411764705882353
 40
0.4705882352941177
 40
0.4705882352941177
 40
0.4705882352941177
 40
0.4705882352941177
 40
0.5294117647058824
 40
0.5294117647058824
 40
0.5294117647058824
 40
0.5294117647058824
 40
0.5882352941176471
 40
0.5882352941176471
 40
0.5882352941176471
 40
0.5882352941176471
 40
0.6470588235294118
 40
0.6470588235294118
 40
0.6470588235294118
 40
0.6470588235294118
 40
0.7058823529411765
 40
0.7058823529411765
 40
0.7058823529411765
 40
0.7058823529411765
 40
0.7647058823529412
 40
0.7647058823529412
 40
0.7647058823529412
 40
0.7647058823529412
 40
0.823529411764706
 40
0.823529411764706
 40
0.823529411764706
 40
0.823529411764706
 40
0.8823529411764707
 40
0.8823529411764707
 40
0.8823529411764707
 40
0.8823529411764707
 40
0.9411764705882354
 40
0.9411764705882354
 40
0.9411764705882354
 40
0.9411764705882354
 40
1.0
 40
1.0
 40
1.0
 40
1.0
 10
-13.6378
 20
30.1259
 30
0.0
 10
-13.6378
 20
30.1259
 30
0.0
 10
-12.9952
 20
30.1259
 30
0.0
 10
-12.9952
 20
30.1259
 30
0.0
 10
-12.9952
 20
30.1259
 30
0.0
 10
-12.9952
 20
30.1259
 30
0.0
 10
-12.3583
 20
30.1259
 30
0.0
 10
-12.3583
 20
30.1259
 30
0.0
 10
-12.3583
 20
30.1259
 30
0.0
 10
-12.3583
 20
30.1259
 30
0.0
 10
-11.7321
 20
30.1259
 30
0.0
 10
-11.7321
 20
30.1259
 30
0.0
 10
-11.7321
 20
30.1259
 30
0.0
 10
-11.7321
 20
30.1259
 30
0.0
 10
-11.1223
 20
30.1259
 30
0.0
 10
-11.1223
 20
30.1259
 30
0.0
 10
-11.1223
 20
30.1259
 30
0.0
 10
-11.1223
 20
30.1259
 30
0.0
 10
-10.5339
 20
30.1259
 30
0.0
 10
-10.5339
 20
30.1259
 30
0.0
 10
-10.5339
 20
30.1259
 30
0.0
 10
-10.5339
 20
30.1259
 30
0.0
 10
-9.972200000000001
 20
30.1259
 30
0.0
 10
-9.972200000000001
 20
30.1259
 30
0.0
 10
-9.972200000000001
 20
30.1259
 30
0.0
 10
-9.972200000000001
 20
30.1259
 30
0.0
 10
-9.441600000000001
 20
30.1259
 30
0.0
 10
-9.441600000000001
 20
30.1259
 30
0.0
 10
-9.441600000000001
 20
30.1259
 30
0.0
 10
-9.441600000000001
 20
30.1259
 30
0.0
 10
-8.9467
 20
30.1259
 30
0.0
 10
-8.9467
 20
30.1259
 30
0.0
 10
-8.9467
 20
30.1259
 30
0.0
 10
-8.9467
 20
30.1259
 30
0.0
 10
-8.492000000000001
 20
30.1259
 30
0.0
 10
-8.492000000000001
 20
30.1259
 30
0.0
 10
-8.492000000000001
 20
30.1259
 30
0.0
 10
-8.492000000000001
 20
30.1259
 30
0.0
 10
-8.0809
 20
30.1259
 30
0.0
 10
-8.0809
 20
30.1259
 30
0.0
 10
-8.0809
 20
30.1259
 30
0.0
 10
-8.0809
 20
30.1259
 30
0.0
 10
-7.717400000000001
 20
30.1259
 30
0.0
 10
-7.717400000000001
 20
30.1259
 30
0.0
 10
-7.717400000000001
 20
30.1259
 30
0.0
 10
-7.717400000000001
 20
30.1259
 30
0.0
 10
-7.4046
 20
30.1259
 30
0.0
 10
-7.4046
 20
30.1259
 30
0.0
 10
-7.4046
 20
30.1259
 30
0.0
 10
-7.4046
 20
30.1259
 30
0.0
 10
-7.1447
 20
30.1259
 30
0.0
 10
-7.1447
 20
30.1259
 30
0.0
 10
-7.1447
 20
30.1259
 30
0.0
 10
-7.1447
 20
30.1259
 30
0.0
 10
-6.940300000000001
 20
30.1259
 30
0.0
 10
-6.940300000000001
 20
30.1259
 30
0.0
 10
-6.940300000000001
 20
30.1259
 30
0.0
 10
-6.940300000000001
 20
30.1259
 30
0.0
 10
-6.793200000000001
 20
30.1259
 30
0.0
 10
-6.793200000000001
 20
30.1259
 30
0.0
 10
-6.793200000000001
 20
30.1259
 30
0.0
 10
-6.793200000000001
 20
30.1259
 30
0.0
 10
-6.7042
 20
30.1259
 30
0.0
 10
-6.7042
 20
30.1259
 30
0.0
 10
-6.7042
 20
30.1259
 30
0.0
 10
-6.7042
 20
30.1259
 30
0.0
 10
-6.6744
 20
30.1259
 30
0.0
 10
-6.6744
 20
30.1259
 30
0.0
  0
SPLINE
  5
E0
330
1F
100
AcDbEntity
  8
Ebene 1
370
    35
100
AcDbSpline
210
0.0
220
0.0
230
1.0
 70
     8
 71
     3
 72
    36
 73
    32
 74
     0
 42
0.0000000001
 43
0.0000000001
 40
0.0
 40
0.0
 40
0.0
 40
0.0
 40
0.125
 40
0.125
 40
0.125
 40
0.125
 40
0.25
 40
0.25
 40
0.25
 40
0.25
 40
0.375
 40
0.375
 40
0.375
 40
0.375
 40
0.5
 40
0.5
 40
0.5
 40
0.5
 40
0.625
 40
0.625
 40
0.625
 40
0.625
 40
0.75
 40
0.75
 40
0.75
 40
0.75
 40
0.875
 40
0.875
 40
0.875
 40
0.875
 40
1.0
 40
1.0
 40
1.0
 40
1.0
 10
-6.6744
 20
30.1259
 30
0.0
 10
-6.6744
 20
30.1259
 30
0.0
 10
-6.8254
 20
30.1111
 30
0.0
 10
-6.8254
 20
30.1111
 30
0.0
 10
-6.8254
 20
30.1111
 30
0.0
 10
-6.8254
 20
30.1111
 30
0.0
 10
-6.9706
 20
30.067
 30
0.0
 10
-6.9706
 20
30.067
 30
0.0
 10
-6.9706
 20
30.067
 30
0.0
 10
-6.9706
 20
30.067
 30
0.0
 10
-7.1043
 20
29.9955
 30
0.0
 10
-7.1043
 20
29.9955
 30
0.0
 10
-7.1043
 20
29.9955
 30
0.0
 10
-7.1043
 20
29.9955
 30
0.0
 10
-7.2217
 20
29.8994
 30
0.0
 10
-7.2217
 20
29.8994
 30
0.0
 10
-7.2217
 20
29.8994
 30
0.0
 10
-7.2217
 20
29.8994
 30
0.0
 10
-7.3178
 20
29.782
 30
0.0
 10
-7.3178
 20
29.782
 30
0.0
 10
-7.3178
 20
29.782
 30
0.0
 10
-7.3178
 20
29.782
 30
0.0
 10
-7.389200000000001
 20
29.6482
 30
0.0
 10
-7.389200000000001
 20
29.6482
 30
0.0
 10
-7.389200000000001
 20
29.6482
 30
0.0
 10
-7.389200000000001
 20
29.6482
 30
0.0
 10
-7.4332
 20
29.5033
 30
0.0
 10
-7.4332
 20
29.5033
 30
0.0
 10
-7.4332
 20
29.5033
 30
0.0
 10
-7.4332
 20
29.5033
 30
0.0
 10
-7.4482
 20
29.3524
 30
0.0
 10
-7.4482
 20
29.3524
 30
0.0
  0
SPLINE
  5
E1
330
1F
100
AcDbEntity
  8
Ebene 1
370
    35
100
AcDbSpline
210
0.0
220
0.0
230
1.0
 70
    24
 71
     3
 72
     8
 73
     4
 74
     0
 42
0.0000000001
 43
0.0000000001
 40
0.0
 40
0.0
 40
0.0
 40
0.0
 40
1.0
 40
1.0
 40
1.0
 40
1.0
 10
2.9968
 20
29.5457
 30
0.0
 10
2.9968
 20
29.5457
 30
0.0
 10
2.9968
 20
30.1259
 30
0.0
 10
2.9968
 20
30.1259
 30
0.0
  0
SPLINE
  5
E2
330
1F
100
AcDbEntity
  8
Ebene 1
370
    35
100
AcDbSpline
210
0.0
220
0.0
230
1.0
 70
    24
 71
     3
 72
     8
 73
     4
 74
     0
 42
0.0000000001
 43
0.0000000001
 40
0.0
 40
0.0
 40
0.0
 40
0.0
 40
1.0
 40
1.0
 40
1.0
 40
1.0
 10
2.223
 20
29.5457
 30
0.0
 10
2.223
 20
29.5457
 30
0.0
 10
2.9968
 20
29.5457
 30
0.0
 10
2.9968
 20
29.5457
 30
0.0
  0
SPLINE
  5
E3
330
1F
100
AcDbEntity
  8
Ebene 1
370
    35
100
AcDbSpline
210
0.0
220
0.0
230
1.0
 70
    24
 71
     3
 72
     8
 73
     4
 74
     0
 42
0.0000000001
 43
0.0000000001
 40
0.0
 40
0.0
 40
0.0
 40
0.0
 40
1.0
 40
1.0
 40
1.0
 40
1.0
 10
2.223
 20
29.5457
 30
0.0
 10
2.223
 20
29.5457
 30
0.0
 10
2.223
 20
28.1918
 30
0.0
 10
2.223
 20
28.1918
 30
0.0
  0
SPLINE
  5
E4
330
1F
100
AcDbEntity
  8
Ebene 1
370
    35
100
AcDbSpline
210
0.0
220
0.0
230
1.0
 70
    24
 71
     3
 72
     8
 73
     4
 74
     0
 42
0.0000000001
 43
0.0000000001
 40
0.0
 40
0.0
 40
0.0
 40
0.0
 40
1.0
 40
1.0
 40
1.0
 40
1.0
 10
2.223
 20
28.1918
 30
0.0
 10
2.223
 20
28.1918
 30
0.0
 10
2.9968
 20
28.1918
 30
0.0
 10
2.9968
 20
28.1918
 30
0.0
  0
SPLINE
  5
E5
330
1F
100
AcDbEntity
  8
Ebene 1
370
    35
100
AcDbSpline
210
0.0
220
0.0
230
1.0
 70
    24
 71
     3
 72
     8
 73
     4
 74
     0
 42
0.0000000001
 43
0.0000000001
 40
0.0
 40
0.0
 40
0.0
 40
0.0
 40
1.0
 40
1.0
 40
1.0
 40
1.0
 10
2.9968
 20
28.1918
 30
0.0
 10
2.9968
 20
28.1918
 30
0.0
 10
2.9968
 20
27.8048
 30
0.0
 10
2.9968
 20
27.8048
 30
0.0
  0
SPLINE
  5
E6
330
1F
100
AcDbEntity
  8
Ebene 1
370
    35
100
AcDbSpline
210
0.0
220
0.0
230
1.0
 70
    24
 71
     3
 72
     8
 73
     4
 74
     0
 42
0.0000000001
 43
0.0000000001
 40
0.0
 40
0.0
 40
0.0
 40
0.0
 40
1.0
 40
1.0
 40
1.0
 40
1.0
 10
-2.9995
 20
27.8048
 30
0.0
 10
-2.9995
 20
27.8048
 30
0.0
 10
2.9968
 20
27.8048
 30
0.0
 10
2.9968
 20
27.8048
 30
0.0
  0
SPLINE
  5
E7
330
1F
100
AcDbEntity
  8
Ebene 1
370
    35
100
AcDbSpline
210
0.0
220
0.0
230
1.0
 70
     8
 71
     3
 72
    56
 73
    52
 74
     0
 42
0.0000000001
 43
0.0000000001
 40
0.0
 40
0.0
 40
0.0
 40
0.0
 40
0.0769230769230769
 40
0.0769230769230769
 40
0.0769230769230769
 40
0.0769230769230769
 40
0.1538461538461539
 40
0.1538461538461539
 40
0.1538461538461539
 40
0.1538461538461539
 40
0.2307692307692308
 40
0.2307692307692308
 40
0.2307692307692308
 40
0.2307692307692308
 40
0.3076923076923077
 40
0.3076923076923077
 40
0.3076923076923077
 40
0.3076923076923077
 40
0.3846153846153846
 40
0.3846153846153846
 40
0.3846153846153846
 40
0.3846153846153846
 40
0.4615384615384616
 40
0.4615384615384616
 40
0.4615384615384616
 40
0.4615384615384616
 40
0.5384615384615386
 40
0.5384615384615386
 40
0.5384615384615386
 40
0.5384615384615386
 40
0.6153846153846154
 40
0.6153846153846154
 40
0.6153846153846154
 40
0.6153846153846154
 40
0.6923076923076923
 40
0.6923076923076923
 40
0.6923076923076923
 40
0.6923076923076923
 40
0.7692307692307692
 40
0.7692307692307692
 40
0.7692307692307692
 40
0.7692307692307692
 40
0.846153846153846
 40
0.846153846153846
 40
0.846153846153846
 40
0.846153846153846
 40
0.9230769230769229
 40
0.9230769230769229
 40
0.9230769230769229
 40
0.9230769230769229
 40
1.0
 40
1.0
 40
1.0
 40
1.0
 10
-2.9995
 20
27.8048
 30
0.0
 10
-2.9995
 20
27.8048
 30
0.0
 10
-3.4657
 20
27.7767
 30
0.0
 10
-3.4657
 20
27.7767
 30
0.0
 10
-3.4657
 20
27.7767
 30
0.0
 10
-3.4657
 20
27.7767
 30
0.0
 10
-3.9253
 20
27.6923
 30
0.0
 10
-3.9253
 20
27.6923
 30
0.0
 10
-3.9253
 20
27.6923
 30
0.0
 10
-3.9253
 20
27.6923
 30
0.0
 10
-4.371300000000001
 20
27.5535
 30
0.0
 10
-4.371300000000001
 20
27.5535
 30
0.0
 10
-4.371300000000001
 20
27.5535
 30
0.0
 10
-4.371300000000001
 20
27.5535
 30
0.0
 10
-4.7971
 20
27.3618
 30
0.0
 10
-4.7971
 20
27.3618
 30
0.0
 10
-4.7971
 20
27.3618
 30
0.0
 10
-4.7971
 20
27.3618
 30
0.0
 10
-5.197
 20
27.1199
 30
0.0
 10
-5.197
 20
27.1199
 30
0.0
 10
-5.197
 20
27.1199
 30
0.0
 10
-5.197
 20
27.1199
 30
0.0
 10
-5.5646
 20
26.8321
 30
0.0
 10
-5.5646
 20
26.8321
 30
0.0
 10
-5.5646
 20
26.8321
 30
0.0
 10
-5.5646
 20
26.8321
 30
0.0
 10
-5.8952
 20
26.5018
 30
0.0
 10
-5.8952
 20
26.5018
 30
0.0
 10
-5.8952
 20
26.5018
 30
0.0
 10
-5.8952
 20
26.5018
 30
0.0
 10
-6.183100000000001
 20
26.1339
 30
0.0
 10
-6.183100000000001
 20
26.1339
 30
0.0
 10
-6.183100000000001
 20
26.1339
 30
0.0
 10
-6.183100000000001
 20
26.1339
 30
0.0
 10
-6.424700000000001
 20
25.7342
 30
0.0
 10
-6.424700000000001
 20
25.7342
 30
0.0
 10
-6.424700000000001
 20
25.7342
 30
0.0
 10
-6.424700000000001
 20
25.7342
 30
0.0
 10
-6.6165
 20
25.3082
 30
0.0
 10
-6.6165
 20
25.3082
 30
0.0
 10
-6.6165
 20
25.3082
 30
0.0
 10
-6.6165
 20
25.3082
 30
0.0
 10
-6.755500000000001
 20
24.8622
 30
0.0
 10
-6.755500000000001
 20
24.8622
 30
0.0
 10
-6.755500000000001
 20
24.8622
 30
0.0
 10
-6.755500000000001
 20
24.8622
 30
0.0
 10
-6.8398
 20
24.4026
 30
0.0
 10
-6.8398
 20
24.4026
 30
0.0
 10
-6.8398
 20
24.4026
 30
0.0
 10
-6.8398
 20
24.4026
 30
0.0
 10
-6.867900000000001
 20
23.9363
 30
0.0
 10
-6.867900000000001
 20
23.9363
 30
0.0
  0
SPLINE
  5
E8
330
1F
100
AcDbEntity
  8
Ebene 1
370
    35
100
AcDbSpline
210
0.0
220
0.0
230
1.0
 70
    24
 71
     3
 72
     8
 73
     4
 74
     0
 42
0.0000000001
 43
0.0000000001
 40
0.0
 40
0.0
 40
0.0
 40
0.0
 40
1.0
 40
1.0
 40
1.0
 40
1.0
 10
-6.867900000000001
 20
23.9363
 30
0.0
 10
-6.867900000000001
 20
23.9363
 30
0.0
 10
-6.867900000000001
 20
12.5242
 30
0.0
 10
-6.867900000000001
 20
12.5242
 30
0.0
  0
SPLINE
  5
E9
330
1F
100
AcDbEntity
  8
Ebene 1
370
    35
100
AcDbSpline
210
0.0
220
0.0
230
1.0
 70
    24
 71
     3
 72
     8
 73
     4
 74
     0
 42
0.0000000001
 43
0.0000000001
 40
0.0
 40
0.0
 40
0.0
 40
0.0
 40
1.0
 40
1.0
 40
1.0
 40
1.0
 10
-6.6744
 20
30.1259
 30
0.0
 10
-6.6744
 20
30.1259
 30
0.0
 10
2.9968
 20
30.1259
 30
0.0
 10
2.9968
 20
30.1259
 30
0.0
  0
SPLINE
  5
EA
330
1F
100
AcDbEntity
  8
Ebene 1
370
    35
100
AcDbSpline
210
0.0
220
0.0
230
1.0
 70
    24
 71
     3
 72
     8
 73
     4
 74
     0
 42
0.0000000001
 43
0.0000000001
 40
0.0
 40
0.0
 40
0.0
 40
0.0
 40
1.0
 40
1.0
 40
1.0
 40
1.0
 10
-7.4482
 20
12.5242
 30
0.0
 10
-7.4482
 20
12.5242
 30
0.0
 10
-6.867900000000001
 20
12.5242
 30
0.0
 10
-6.867900000000001
 20
12.5242
 30
0.0
  0
SPLINE
  5
EB
330
1F
100
AcDbEntity
  8
Ebene 1
370
    35
100
AcDbSpline
210
0.0
220
0.0
230
1.0
 70
    24
 71
     3
 72
     8
 73
     4
 74
     0
 42
0.0000000001
 43
0.0000000001
 40
0.0
 40
0.0
 40
0.0
 40
0.0
 40
1.0
 40
1.0
 40
1.0
 40
1.0
 10
-22.5355
 20
12.5242
 30
0.0
 10
-22.5355
 20
12.5242
 30
0.0
 10
-13.6378
 20
12.5242
 30
0.0
 10
-13.6378
 20
12.5242
 30
0.0
  0
SPLINE
  5
EC
330
1F
100
AcDbEntity
  8
Ebene 1
370
    35
100
AcDbSpline
210
0.0
220
0.0
230
1.0
 70
    24
 71
     3
 72
     8
 73
     4
 74
     0
 42
0.0000000001
 43
0.0000000001
 40
0.0
 40
0.0
 40
0.0
 40
0.0
 40
1.0
 40
1.0
 40
1.0
 40
1.0
 10
-22.5355
 20
30.1259
 30
0.0
 10
-22.5355
 20
30.1259
 30
0.0
 10
-13.6378
 20
30.1259
 30
0.0
 10
-13.6378
 20
30.1259
 30
0.0
  0
ENDSEC
  0
SECTION
  2
OBJECTS
  0
DICTIONARY
  5
C
330
0
100
AcDbDictionary
281
     1
  3
ACAD_GROUP
350
D
  3
ACAD_LAYOUT
350
1A
  3
ACAD_MLINESTYLE
350
17
  3
ACAD_PLOTSETTINGS
350
19
  3
ACAD_PLOTSTYLENAME
350
E
  0
DICTIONARY
  5
D
102
{ACAD_REACTORS
330
C
102
}
330
C
100
AcDbDictionary
281
     1
  0
DICTIONARY
  5
1A
102
{ACAD_REACTORS
330
C
102
}
330
C
100
AcDbDictionary
281
     1
  3
Layout1
350
1E
  3
Layout2
350
26
  3
Model
350
22
  0
DICTIONARY
  5
17
102
{ACAD_REACTORS
330
C
102
}
330
C
100
AcDbDictionary
281
     1
  3
Standard
350
18
  0
DICTIONARY
  5
19
102
{ACAD_REACTORS
330
C
102
}
330
C
100
AcDbDictionary
281
     1
  0
ACDBDICTIONARYWDFLT
  5
E
102
{ACAD_REACTORS
330
C
102
}
330
C
100
AcDbDictionary
281
     1
  3
Normal
350
F
100
AcDbDictionaryWithDefault
340
F
  0
LAYOUT
  5
1E
102
{ACAD_REACTORS
330
1A
102
}
330
1A
100
AcDbPlotSettings
  1

  2

  4

  6

 40
0.0
 41
0.0
 42
0.0
 43
0.0
 44
0.0
 45
0.0
 46
0.0
 47
0.0
 48
0.0
 49
0.0
140
0.0
141
0.0
142
1.0
143
1.0
 70
   688
 72
     0
 73
     0
 74
     5
  7

 75
    16
 76
     0
 77
     2
 78
   300
147
1.0
148
0.0
149
0.0
100
AcDbLayout
  1
Layout1
 70
     1
 71
     1
 10
0.0
 20
0.0
 11
12.0
 21
9.0
 12
0.0
 22
0.0
 32
0.0
 14
1.000000000000000E+20
 24
1.000000000000000E+20
 34
1.000000000000000E+20
 15
-1.000000000000000E+20
 25
-1.000000000000000E+20
 35
-1.000000000000000E+20
146
0.0
 13
0.0
 23
0.0
 33
0.0
 16
1.0
 26
0.0
 36
0.0
 17
0.0
 27
1.0
 37
0.0
 76
     0
330
1B
  0
LAYOUT
  5
26
102
{ACAD_REACTORS
330
1A
102
}
330
1A
100
AcDbPlotSettings
  1

  2

  4

  6

 40
0.0
 41
0.0
 42
0.0
 43
0.0
 44
0.0
 45
0.0
 46
0.0
 47
0.0
 48
0.0
 49
0.0
140
0.0
141
0.0
142
1.0
143
1.0
 70
   688
 72
     0
 73
     0
 74
     5
  7

 75
    16
 76
     0
 77
     2
 78
   300
147
1.0
148
0.0
149
0.0
100
AcDbLayout
  1
Layout2
 70
     1
 71
     2
 10
0.0
 20
0.0
 11
0.0
 21
0.0
 12
0.0
 22
0.0
 32
0.0
 14
0.0
 24
0.0
 34
0.0
 15
0.0
 25
0.0
 35
0.0
146
0.0
 13
0.0
 23
0.0
 33
0.0
 16
1.0
 26
0.0
 36
0.0
 17
0.0
 27
1.0
 37
0.0
 76
     0
330
23
  0
LAYOUT
  5
22
102
{ACAD_REACTORS
330
1A
102
}
330
1A
100
AcDbPlotSettings
  1

  2

  4

  6

 40
0.0
 41
0.0
 42
0.0
 43
0.0
 44
0.0
 45
0.0
 46
0.0
 47
0.0
 48
0.0
 49
0.0
140
0.0
141
0.0
142
1.0
143
1.0
 70
  1712
 72
     0
 73
     0
 74
     0
  7

 75
     0
 76
     0
 77
     2
 78
   300
147
1.0
148
0.0
149
0.0
100
AcDbLayout
  1
Model
 70
     1
 71
     0
 10
0.0
 20
0.0
 11
0.0
 21
0.0
 12
0.0
 22
0.0
 32
0.0
 14
-39.8943
 24
-49.7131
 34
0.0
 15
39.8043
 25
49.588
 35
0.0
146
0.0
 13
0.0
 23
0.0
 33
0.0
 16
1.0
 26
0.0
 36
0.0
 17
0.0
 27
1.0
 37
0.0
 76
     0
330
1F
  0
MLINESTYLE
  5
18
102
{ACAD_REACTORS
330
17
102
}
330
17
100
AcDbMlineStyle
  2
Standard
 70
     0
  3

 62
   256
 51
90.0
 52
90.0
 71
     2
 49
0.5
 62
   256
  6
BYLAYER
 49
-0.5
 62
   256
  6
BYLAYER
  0
ACDBPLACEHOLDER
  5
F
102
{ACAD_REACTORS
330
E
102
}
330
E
  0
ENDSEC
  0
EOF
